  0
SECTION
  2
HEADER
  9
$ACADVER
  1
AC1009
  9
$INSBASE
 10
0
 20
0
  9
$EXTMIN
 10
-262.9999999999996
 20
-89.00000000000009
  9
$EXTMAX
 10
395.7000000000003
 20
405.6426105800548
  9
$LIMMIN
 10
-262.9999999999996
 20
-89.00000000000009
  9
$LIMMAX
 10
395.7000000000003
 20
405.6426105800548
  9
$VIEWCTR
 10
10
 20
10
  9
$VIEWSIZE
 40
10
  9
$SNAPMODE
 70
0
  9
$SNAPUNIT
 10
1
 20
1
  9
$SNAPBASE
 10
0
 20
0
  9
$SNAPANG
 50
0
  9
$SNAPSTYLE
 70
0
  9
$SNAPISOPAIR
 70
0
  9
$GRIDMODE
 70
0
  9
$GRIDUNIT
 10
0
 20
0
  9
$ORTHOMODE
 70
0
  9
$REGENMODE
 70
1
  9
$FILLMODE
 70
1
  9
$QTEXTMODE
 70
0
  9
$DRAGMODE
 70
2
  9
$LTSCALE
 40
1
  9
$OSMODE
 70
0
  9
$ATTMODE
 70
1
  9
$TEXTSIZE
 40
3.5
  9
$TRACEWID
 40
0.5
  9
$TEXTSTYLE
  7
STANDARD
  9
$CLAYER
  8
0
  9
$CELTYPE
  6
BYLAYER
  9
$CECOLOR
 62
256
  9
$DIMSCALE
 40
1
  9
$DIMASZ
 40
0.18
  9
$DIMEXO
 40
0.0625
  9
$DIMDLI
 40
0.38
  9
$DIMRND
 40
0
  9
$DIMDLE
 40
0
  9
$DIMEXE
 40
0.18
  9
$DIMTP
 40
0
  9
$DIMTM
 40
0
  9
$DIMTXT
 40
0.18
  9
$DIMCEN
 40
0.09
  9
$DIMTSZ
 40
0
  9
$DIMTOL
 70
0
  9
$DIMLIM
 70
0
  9
$DIMTIH
 70
1
  9
$DIMTOH
 70
1
  9
$DIMSE1
 70
0
  9
$DIMSE2
 70
0
  9
$DIMTAD
 70
0
  9
$DIMZIN
 70
0
  9
$DIMBLK
  1

  9
$DIMASO
 70
1
  9
$DIMSHO
 70
1
  9
$DIMPOST
  1

  9
$DIMAPOST
  1

  9
$DIMALT
 70
0
  9
$DIMALTD
 70
2
  9
$DIMALTF
 40
25.4
  9
$DIMLFAC
 40
1
  9
$DIMTOFL
 70
0
  9
$DIMTVP
 40
0
  9
$DIMTIX
 70
0
  9
$DIMSOXD
 70
0
  9
$DIMSAH
 70
0
  9
$DIMBLK1
  1

  9
$DIMBLK2
  1

  9
$DIMSTYLE
  2
*UNNAMED
  9
$DIMCLRD
 70
0
  9
$DIMCLRE
 70
0
  9
$DIMCLRT
 70
0
  9
$DIMTFAC
 40
1
  9
$DIMGAP
 40
0.09
  9
$LUNITS
 70
2
  9
$LUPREC
 70
4
  9
$AXISMODE
 70
0
  9
$AXISUNIT
 10
0
 20
0
  9
$SKETCHINC
 40
0.1
  9
$FILLETRAD
 40
2
  9
$AUNITS
 70
0
  9
$AUPREC
 70
0
  9
$MENU
  1
ACAD
  9
$ELEVATION
 40
0
  9
$THICKNESS
 40
0
  9
$VIEWDIR
 10
0
 20
0
 30
1
  9
$LIMCHECK
 70
0
  9
$BLIPMODE
 70
1
  9
$CHAMFERA
 40
0
  9
$CHAMFERB
 40
0
  9
$FASTZOOM
 70
1
  9
$SKPOLY
 70
0
  9
$ANGBASE
 50
0
  9
$ANGDIR
 70
0
  9
$PDMODE
 70
0
  9
$PDSIZE
 40
0
  9
$PLINEWID
 40
0
  9
$COORDS
 70
2
  0
ENDSEC
  0
SECTION
  2
TABLES
  0
TABLE
  2
DIMSTYLE
 70
0
  0
ENDTAB
  0
TABLE
  2
LTYPE
 70
9
  0
LTYPE
  2
CONTINUOUS
 70
64
  3
Solid line
 72
65
 73
0
 40
0
  0
LTYPE
  2
BORDER
 70
64
  3
__ __ . __ __ .
 72
65
 73
6
 40
30.33486842105263
 49
8.667105263157893
 49
-4.333552631578947
 49
8.667105263157893
 49
-4.333552631578947
 49
0
 49
-4.333552631578947
  0
LTYPE
  2
CENTER
 70
64
  3
____ _ ____ _
 72
65
 73
4
 40
34.66842105263157
 49
21.66776315789473
 49
-4.333552631578947
 49
4.333552631578947
 49
-4.333552631578947
  0
LTYPE
  2
DASHDOT
 70
64
  3
__ . __ . __ .
 72
65
 73
4
 40
17.33421052631579
 49
8.667105263157893
 49
-4.333552631578947
 49
0
 49
-4.333552631578947
  0
LTYPE
  2
DASHED
 70
64
  3
__ __ __ __ __
 72
65
 73
2
 40
13.00065789473684
 49
8.667105263157893
 49
-4.333552631578947
  0
LTYPE
  2
DIVIDE
 70
64
  3
__ . . __ . . 
 72
65
 73
6
 40
21.66776315789473
 49
8.667105263157893
 49
-4.333552631578947
 49
0
 49
-4.333552631578947
 49
0
 49
-4.333552631578947
  0
LTYPE
  2
DOT
 70
64
  3
..............
 72
65
 73
4
 40
8.667105263157893
 49
0
 49
-4.333552631578947
 49
0
 49
-4.333552631578947
  0
LTYPE
  2
HIDDEN
 70
64
  3
_ _ _ _ _ _ _
 72
65
 73
2
 40
6.50032894736842
 49
4.333552631578947
 49
-2.166776315789473
  0
LTYPE
  2
PHANTOM
 70
64
  3
_____ _ _ _____ _ _ 
 72
65
 73
6
 40
43.33552631578947
 49
21.66776315789473
 49
-4.333552631578947
 49
4.333552631578947
 49
-4.333552631578947
 49
4.333552631578947
 49
-4.333552631578947
  0
ENDTAB
  0
TABLE
  2
LAYER
 70
3
  0
LAYER
  2
1
 70
0
 62
7
  6
CONTINUOUS
  0
LAYER
  2
0
 70
0
 62
7
  6
CONTINUOUS
  0
ENDTAB
  0
TABLE
  2
STYLE
 70
4
  0
STYLE
  2
STANDARD
 70
0
 40
0
 41
1
 50
0
 71
0
 42
3.5
  3
txt
  4

  0
STYLE
  2
SIMPLEX
 70
0
 40
0
 41
1
 50
0
 71
0
 42
3.5
  3
simplex
  4

  0
STYLE
  2
COMPLEX
 70
0
 40
0
 41
1
 50
0
 71
0
 42
3.5
  3
complex
  4

  0
STYLE
  2
ITALIC
 70
0
 40
0
 41
1
 50
0
 71
0
 42
3.5
  3
italic
  4

  0
ENDTAB
  0
TABLE
  2
VIEW
 70
0
  0
ENDTAB
  0
ENDSEC
  0
SECTION
  2
BLOCKS
  0
ENDSEC
  0
SECTION
  2
ENTITIES
  0
POINT
  8
1
 62
7
  6
DOT
 10
-173.9999999999998
 20
-14.99999999999999
 30
0
  0
LINE
  8
1
 62
7
 10
66.50000000000011
 20
257.1674663673327
 30
0
 11
66.50000000000011
 21
241.7674663673327
 31
0
  0
LINE
  8
1
 62
7
 10
66.50000000000011
 20
391.5177547927767
 30
0
 11
66.50000000000011
 21
376.1177547927769
 31
0
  0
LINE
  8
1
 62
7
 10
26.89999999999975
 20
401.2426105800548
 30
0
 11
26.89999999999975
 21
232.0426105800547
 31
0
  0
LINE
  8
1
 62
7
 10
25.69999999999982
 20
380.5326443847287
 30
0
 11
25.69999999999982
 21
400.6426105800548
 31
0
  0
LINE
  8
1
 62
7
 10
33.80000000000007
 20
401.1426105800548
 30
0
 11
33.80000000000007
 21
232.1426105800547
 31
0
  0
LINE
  8
1
 62
7
 10
60.50000000000011
 20
232.1426105800548
 30
0
 11
54.79999999999984
 21
232.1426105800549
 31
0
  0
LINE
  8
1
 62
7
 10
54.79999999999984
 20
232.1426105800549
 30
0
 11
54.79999999999984
 21
232.2926105800549
 31
0
  0
LINE
  8
1
 62
7
 10
54.79999999999984
 20
232.2926105800549
 30
0
 11
52.30000000000007
 21
232.2926105800549
 31
0
  0
LINE
  8
1
 62
7
 10
54.79999999999984
 20
401.1426105800548
 30
0
 11
60.50000000000011
 21
401.1426105800548
 31
0
  0
LINE
  8
1
 62
7
 10
54.79999999999984
 20
400.9926105800548
 30
0
 11
54.79999999999984
 21
401.1426105800548
 31
0
  0
LINE
  8
1
 62
7
 10
52.30000000000007
 20
400.9926105800548
 30
0
 11
54.79999999999984
 21
400.9926105800548
 31
0
  0
LINE
  8
1
 62
7
 10
107.4000000000003
 20
232.1426105800546
 30
0
 11
107.4000000000003
 21
401.1426105800548
 31
0
  0
LINE
  8
1
 62
7
 10
116.6575120851787
 20
308.0112481521087
 30
0
 11
116.3999999999998
 21
308.0112481521087
 31
0
  0
LINE
  8
1
 62
7
 10
116.5999999999999
 20
280.6426105800547
 30
0
 11
116.3999999999998
 21
280.6426105800547
 31
0
  0
LINE
  8
1
 62
7
 10
141.0999999999999
 20
242.8926105800548
 30
0
 11
141.0999999999999
 21
281.0426105800548
 31
0
  0
LINE
  8
1
 62
7
 10
115.3999999999998
 20
400.6426105800548
 30
0
 11
115.3999999999998
 21
380.5326443847287
 31
0
  0
LINE
  8
1
 62
7
 10
115.1999999999999
 20
376.6426105800548
 30
0
 11
114.1999999999999
 21
376.6426105800548
 31
0
  0
LINE
  8
1
 62
7
 10
114.1999999999999
 20
401.6426105800548
 30
0
 11
114.1999999999999
 21
231.6426105800548
 31
0
  0
LINE
  8
1
 62
7
 10
83.00000000000023
 20
235.2120933658063
 30
0
 11
83.00000000000023
 21
398.0731277943032
 31
0
  0
LINE
  8
1
 62
7
 10
385.4298055171615
 20
74.86875190478999
 30
0
 11
333.2954981558868
 21
137
 31
0
  0
LINE
  8
1
 62
7
 10
236.7701944828393
 20
74.86875190479013
 30
0
 11
288.9045018441139
 21
137
 31
0
  0
LINE
  8
1
 62
7
 10
-248.3298055171624
 20
74.86875190478834
 30
0
 11
-196.1954981558862
 21
137
 31
0
  0
LINE
  8
1
 62
7
 10
-99.67019448283755
 20
74.86875190478867
 30
0
 11
-151.8045018441134
 21
137
 31
0
  0
LINE
  8
1
 62
7
 10
-160.9999999999998
 20
141.9999999999999
 30
0
 11
-151.8045018441134
 21
137
 31
0
  0
LINE
  8
1
 62
7
 10
-186.9999999999998
 20
141.9999999999999
 30
0
 11
-196.1954981558862
 21
137
 31
0
  0
LINE
  8
1
 62
7
 10
-160.9999999999998
 20
141.9999999999999
 30
0
 11
-186.9999999999998
 21
141.9999999999999
 31
0
  0
LINE
  8
1
 62
7
 10
-0.2000000000001592
 20
-42.00006515592036
 30
0
 11
0.9999674220393899
 21
-42.00006515592036
 31
0
  0
LINE
  8
1
 62
3
  6
DASHDOT
 10
124.7999999999998
 20
55.01485431333404
 30
0
 11
124.7999999999998
 21
15.00000000000013
 31
0
  0
LINE
  8
1
 62
7
 10
101.2999999999998
 20
30.00000000000008
 30
0
 11
101.2999999999998
 21
-30
 31
0
  0
LINE
  8
1
 62
7
 10
107.2999999999998
 20
-84.50000000000017
 30
0
 11
107.2999999999998
 21
-29.99999999999999
 31
0
  0
LINE
  8
1
 62
7
 10
107.2999999999998
 20
84.50000000000001
 30
0
 11
107.2999999999998
 21
30.00000000000014
 31
0
  0
LINE
  8
1
 62
7
 10
97.79999999999981
 20
-42.50000000000001
 30
0
 11
97.79999999999981
 21
-33.49999999999998
 31
0
  0
LINE
  8
1
 62
7
 10
97.79999999999984
 20
42.50000000000001
 30
0
 11
97.79999999999984
 21
33.50000000000001
 31
0
  0
LINE
  8
1
 62
7
 10
97.79999999999981
 20
-42.50000000000001
 30
0
 11
83.69999999999993
 21
-42.50000000000001
 31
0
  0
LINE
  8
1
 62
7
 10
83.69999999999993
 20
-30.00000000000001
 30
0
 11
83.69999999999993
 21
-42.50000000000001
 31
0
  0
LINE
  8
1
 62
7
 10
83.69999999999993
 20
-33.0625
 30
0
 11
88.22456492134003
 21
-33.0625
 31
0
  0
LINE
  8
1
 62
7
 10
85.07499999999993
 20
-32.296875
 30
0
 11
85.07499999999993
 21
-40.203125
 31
0
  0
LINE
  8
1
 62
7
 10
83.69999999999993
 20
-39.4375
 30
0
 11
88.22456492134003
 21
-39.4375
 31
0
  0
LINE
  8
1
 62
7
 10
96.69999999999993
 20
-39.4375
 30
0
 11
92.17543507865982
 21
-39.4375
 31
0
  0
LINE
  8
1
 62
7
 10
69.82499999999993
 20
-32.296875
 30
0
 11
69.82499999999993
 21
-40.203125
 31
0
  0
LINE
  8
1
 62
7
 10
71.19999999999993
 20
-33.0625
 30
0
 11
66.67543507865982
 21
-33.0625
 31
0
  0
LINE
  8
1
 62
7
 10
83.69999999999993
 20
42.49999999999986
 30
0
 11
83.69999999999993
 21
30
 31
0
  0
LINE
  8
1
 62
7
 10
97.79999999999984
 20
42.50000000000001
 30
0
 11
83.69999999999993
 21
42.49999999999986
 31
0
  0
LINE
  8
1
 62
7
 10
96.69999999999993
 20
29.00000000000003
 30
0
 11
96.69999999999993
 21
42.49999999999999
 31
0
  0
LINE
  8
1
 62
7
 10
95.32499999999993
 20
40.203125
 30
0
 11
95.32499999999993
 21
32.296875
 31
0
  0
LINE
  8
1
 62
7
 10
92.17543507865982
 20
33.0625
 30
0
 11
96.69999999999993
 21
33.0625
 31
0
  0
LINE
  8
1
 62
7
 10
92.17543507865982
 20
39.4375
 30
0
 11
96.69999999999993
 21
39.4375
 31
0
  0
LINE
  8
1
 62
7
 10
88.22456492134003
 20
39.4375
 30
0
 11
83.69999999999993
 21
39.4375
 31
0
  0
LINE
  8
1
 62
7
 10
85.07499999999993
 20
40.203125
 30
0
 11
85.07499999999993
 21
32.296875
 31
0
  0
LINE
  8
1
 62
7
 10
88.22456492134003
 20
33.0625
 30
0
 11
83.69999999999993
 21
33.0625
 31
0
  0
LINE
  8
1
 62
7
 10
96.69999999999993
 20
-42.50000000000001
 30
0
 11
96.69999999999993
 21
-28.99999999999997
 31
0
  0
LINE
  8
1
 62
7
 10
33.99999999999984
 20
-37.25000000000001
 30
0
 11
52.29999999999993
 21
-37.25000000000001
 31
0
  0
LINE
  8
1
 62
7
 10
33.99999999999984
 20
37.25000000000001
 30
0
 11
52.29999999999993
 21
37.25000000000001
 31
0
  0
LINE
  8
1
 62
7
 10
40.79999999999981
 20
-41.59999999999999
 30
0
 11
52.29999999999993
 21
-41.59999999999999
 31
0
  0
LINE
  8
1
 62
7
 10
71.19999999999993
 20
-42.5
 30
0
 11
58.19999999999993
 21
-42.5
 31
0
  0
LINE
  8
1
 62
7
 10
71.19999999999993
 20
-39.4375
 30
0
 11
66.67543507865982
 21
-39.4375
 31
0
  0
LINE
  8
1
 62
7
 10
95.32499999999993
 20
-32.296875
 30
0
 11
95.32499999999993
 21
-40.203125
 31
0
  0
LINE
  8
1
 62
7
 10
96.69999999999993
 20
-33.0625
 30
0
 11
92.17543507865982
 21
-33.0625
 31
0
  0
LINE
  8
1
 62
7
 10
58.19999999999993
 20
-33.0625
 30
0
 11
62.72456492134004
 21
-33.0625
 31
0
  0
LINE
  8
1
 62
7
 10
58.19999999999993
 20
-39.4375
 30
0
 11
62.72456492134004
 21
-39.4375
 31
0
  0
LINE
  8
1
 62
7
 10
59.57499999999993
 20
-32.296875
 30
0
 11
59.57499999999993
 21
-40.203125
 31
0
  0
LINE
  8
1
 62
7
 10
58.19999999999993
 20
42.5
 30
0
 11
71.19999999999993
 21
42.5
 31
0
  0
LINE
  8
1
 62
7
 10
59.57499999999993
 20
40.203125
 30
0
 11
59.57499999999993
 21
32.296875
 31
0
  0
LINE
  8
1
 62
7
 10
69.82499999999993
 20
40.203125
 30
0
 11
69.82499999999993
 21
32.296875
 31
0
  0
LINE
  8
1
 62
7
 10
66.67543507865982
 20
39.4375
 30
0
 11
71.19999999999993
 21
39.4375
 31
0
  0
LINE
  8
1
 62
7
 10
62.72456492134004
 20
39.4375
 30
0
 11
58.19999999999993
 21
39.4375
 31
0
  0
LINE
  8
1
 62
7
 10
66.67543507865982
 20
33.0625
 30
0
 11
71.19999999999993
 21
33.0625
 31
0
  0
LINE
  8
1
 62
7
 10
62.72456492134004
 20
33.0625
 30
0
 11
58.19999999999993
 21
33.0625
 31
0
  0
LINE
  8
1
 62
7
 10
58.19999999999993
 20
44.25000000000002
 30
0
 11
58.19999999999993
 21
30
 31
0
  0
LINE
  8
1
 62
7
 10
71.19999999999993
 20
30
 30
0
 11
71.19999999999993
 21
81
 31
0
  0
LINE
  8
1
 62
7
 10
70.29999999999984
 20
81
 30
0
 11
71.19999999999993
 21
81
 31
0
  0
LINE
  8
1
 62
7
 10
114.1999999999997
 20
84.59999999999999
 30
0
 11
114.1999999999997
 21
60.00000000000001
 31
0
  0
LINE
  8
1
 62
7
 10
115.3999999999998
 20
63.89003380467393
 30
0
 11
115.3999999999998
 21
84.00000000000001
 31
0
  0
LINE
  8
1
 62
7
 10
141.0999999999997
 20
-73.74999999999997
 30
0
 11
141.0999999999997
 21
-35.60000000000012
 31
0
  0
LINE
  8
1
 62
3
  6
DASHDOT
 10
66.07495312446531
 20
316.6426105800548
 30
0
 11
85.20115376679837
 21
316.6426105800548
 31
0
  0
LINE
  8
1
 62
7
 10
70.30000000000018
 20
293.6426105800548
 30
0
 11
80.30000000000018
 21
293.6426105800548
 31
0
  0
LINE
  8
1
 62
7
 10
70.30000000000018
 20
303.6426105800548
 30
0
 11
80.30000000000018
 21
303.6426105800548
 31
0
  0
LINE
  8
1
 62
7
 10
70.30000000000018
 20
329.6426105800548
 30
0
 11
80.30000000000018
 21
329.6426105800548
 31
0
  0
LINE
  8
1
 62
7
 10
70.30000000000018
 20
339.6426105800548
 30
0
 11
80.30000000000018
 21
339.6426105800548
 31
0
  0
LINE
  8
1
 62
7
 10
80.30000000000018
 20
394.6426105800548
 30
0
 11
80.30000000000018
 21
238.6426105800547
 31
0
  0
LINE
  8
1
 62
7
 10
68.50000000000011
 20
394.6426105800548
 30
0
 11
83.00000000000023
 21
394.6426105800548
 31
0
  0
LINE
  8
1
 62
7
 10
107.4000000000003
 20
401.1426105800548
 30
0
 11
89.30000000000018
 21
401.1426105800548
 31
0
  0
LINE
  8
1
 62
7
 10
60.00000000000011
 20
387.8177547927767
 30
0
 11
58.80000000000018
 21
387.8177547927767
 31
0
  0
LINE
  8
1
 62
7
 10
60.72168783648715
 20
391.3177547927767
 30
0
 11
66.50000000000011
 21
391.3177547927767
 31
0
  0
LINE
  8
1
 62
7
 10
60.72168783648715
 20
387.5677547927767
 30
0
 11
66.50000000000011
 21
387.5677547927767
 31
0
  0
LINE
  8
1
 62
7
 10
60.72168783648715
 20
380.0677547927767
 30
0
 11
66.50000000000011
 21
380.0677547927767
 31
0
  0
LINE
  8
1
 62
7
 10
60.72168783648715
 20
376.3177547927767
 30
0
 11
66.50000000000011
 21
376.3177547927767
 31
0
  0
LINE
  8
1
 62
7
 10
60.00000000000011
 20
378.1927547927767
 30
0
 11
60.00000000000011
 21
389.4427547927767
 31
0
  0
LINE
  8
1
 62
3
 10
58.00000000000023
 20
380.6177547927769
 30
0
 11
60.00000000000023
 21
380.6177547927769
 31
0
  0
LINE
  8
1
 62
3
 10
58.00000000000023
 20
387.0177547927767
 30
0
 11
60.00000000000023
 21
387.0177547927767
 31
0
  0
LINE
  8
1
 62
7
 10
58.80000000000018
 20
387.8177547927767
 30
0
 11
58.80000000000018
 21
379.8177547927767
 31
0
  0
LINE
  8
1
 62
7
 10
58.80000000000018
 20
379.8177547927767
 30
0
 11
60.00000000000011
 21
379.8177547927767
 31
0
  0
LINE
  8
1
 62
7
 10
58.00000000000023
 20
380.6177547927769
 30
0
 11
58.80000000000018
 21
379.8177547927767
 31
0
  0
LINE
  8
1
 62
7
 10
58.00000000000023
 20
387.0177547927767
 30
0
 11
58.00000000000023
 21
380.6177547927769
 31
0
  0
LINE
  8
1
 62
7
 10
58.80000000000018
 20
387.8177547927767
 30
0
 11
58.00000000000023
 21
387.0177547927767
 31
0
  0
LINE
  8
1
 62
7
 10
87.80717967697262
 20
376.3177547927767
 30
0
 11
83.00000000000023
 21
376.3177547927767
 31
0
  0
LINE
  8
1
 62
7
 10
87.80717967697262
 20
380.0677547927767
 30
0
 11
83.00000000000023
 21
380.0677547927767
 31
0
  0
LINE
  8
1
 62
7
 10
87.80717967697262
 20
387.5677547927767
 30
0
 11
83.00000000000023
 21
387.5677547927767
 31
0
  0
LINE
  8
1
 62
7
 10
87.80717967697262
 20
391.3177547927767
 30
0
 11
83.00000000000023
 21
391.3177547927767
 31
0
  0
LINE
  8
1
 62
7
 10
88.50000000000023
 20
389.4427547927767
 30
0
 11
88.50000000000023
 21
378.1927547927767
 31
0
  0
LINE
  8
1
 62
7
 10
60.00000000000011
 20
253.4674663673327
 30
0
 11
58.80000000000018
 21
253.4674663673327
 31
0
  0
LINE
  8
1
 62
7
 10
60.72168783648715
 20
256.9674663673327
 30
0
 11
66.50000000000011
 21
256.9674663673327
 31
0
  0
LINE
  8
1
 62
7
 10
60.72168783648715
 20
253.2174663673327
 30
0
 11
66.50000000000011
 21
253.2174663673327
 31
0
  0
LINE
  8
1
 62
7
 10
60.72168783648715
 20
245.7174663673327
 30
0
 11
66.50000000000011
 21
245.7174663673327
 31
0
  0
LINE
  8
1
 62
7
 10
60.72168783648715
 20
241.9674663673327
 30
0
 11
66.50000000000011
 21
241.9674663673327
 31
0
  0
LINE
  8
1
 62
7
 10
60.00000000000011
 20
243.8424663673327
 30
0
 11
60.00000000000011
 21
255.0924663673327
 31
0
  0
LINE
  8
1
 62
3
 10
58.00000000000023
 20
246.2674663673327
 30
0
 11
60.00000000000023
 21
246.2674663673327
 31
0
  0
LINE
  8
1
 62
3
 10
58.00000000000023
 20
252.6674663673327
 30
0
 11
60.00000000000023
 21
252.6674663673327
 31
0
  0
LINE
  8
1
 62
7
 10
58.80000000000018
 20
253.4674663673327
 30
0
 11
58.80000000000018
 21
245.4674663673327
 31
0
  0
LINE
  8
1
 62
7
 10
58.80000000000018
 20
245.4674663673327
 30
0
 11
60.00000000000011
 21
245.4674663673327
 31
0
  0
LINE
  8
1
 62
7
 10
58.00000000000023
 20
246.2674663673327
 30
0
 11
58.80000000000018
 21
245.4674663673327
 31
0
  0
LINE
  8
1
 62
7
 10
58.00000000000023
 20
252.6674663673327
 30
0
 11
58.00000000000023
 21
246.2674663673327
 31
0
  0
LINE
  8
1
 62
7
 10
58.80000000000018
 20
253.4674663673327
 30
0
 11
58.00000000000023
 21
252.6674663673327
 31
0
  0
LINE
  8
1
 62
7
 10
87.80717967697262
 20
241.9674663673327
 30
0
 11
83.00000000000023
 21
241.9674663673327
 31
0
  0
LINE
  8
1
 62
7
 10
87.80717967697262
 20
245.7174663673327
 30
0
 11
83.00000000000023
 21
245.7174663673327
 31
0
  0
LINE
  8
1
 62
7
 10
87.80717967697262
 20
253.2174663673327
 30
0
 11
83.00000000000023
 21
253.2174663673327
 31
0
  0
LINE
  8
1
 62
7
 10
87.80717967697262
 20
256.9674663673327
 30
0
 11
83.00000000000023
 21
256.9674663673327
 31
0
  0
LINE
  8
1
 62
7
 10
88.50000000000023
 20
255.0924663673327
 30
0
 11
88.50000000000023
 21
243.8424663673327
 31
0
  0
LINE
  8
1
 62
7
 10
54.79999999999984
 20
232.1426105800549
 30
0
 11
60.50000000000011
 21
232.1426105800548
 31
0
  0
LINE
  8
1
 62
7
 10
52.30000000000007
 20
227.6426105800547
 30
0
 11
52.30000000000007
 21
405.6426105800548
 31
0
  0
LINE
  8
1
 62
7
 10
38.89807621135355
 20
405.6426105800548
 30
0
 11
38.89807621135355
 21
227.6426105800547
 31
0
  0
LINE
  8
1
 62
7
 10
36.30000000000007
 20
232.1426105800547
 30
0
 11
36.30000000000007
 21
401.1426105800548
 31
0
  0
LINE
  8
1
 62
7
 10
38.89807621135355
 20
405.6426105800548
 30
0
 11
52.30000000000007
 21
405.6426105800548
 31
0
  0
LINE
  8
1
 62
7
 10
36.30000000000007
 20
401.1426105800548
 30
0
 11
38.89807621135355
 21
405.6426105800548
 31
0
  0
LINE
  8
1
 62
7
 10
33.80000000000007
 20
401.1426105800548
 30
0
 11
36.30000000000007
 21
401.1426105800548
 31
0
  0
LINE
  8
1
 62
7
 10
36.30000000000007
 20
232.1426105800547
 30
0
 11
33.80000000000007
 21
232.1426105800547
 31
0
  0
LINE
  8
1
 62
7
 10
38.89807621135355
 20
227.6426105800547
 30
0
 11
36.30000000000007
 21
232.1426105800547
 31
0
  0
LINE
  8
1
 62
7
 10
52.30000000000007
 20
227.6426105800547
 30
0
 11
38.89807621135355
 21
227.6426105800547
 31
0
  0
LINE
  8
1
 62
7
 10
25.89999999999975
 20
376.6426105800548
 30
0
 11
26.89999999999975
 21
376.6426105800548
 31
0
  0
LINE
  8
1
 62
7
 10
25.89999999999975
 20
232.6426105800548
 30
0
 11
25.89999999999975
 21
376.6426105800548
 31
0
  0
LINE
  8
1
 62
7
 10
25.69999999999982
 20
400.6426105800548
 30
0
 11
26.89999999999975
 21
400.6426105800548
 31
0
  0
LINE
  8
1
 62
7
 10
24.69999999999982
 20
376.8005935771598
 30
0
 11
25.69999999999982
 21
380.5326443847287
 31
0
  0
LINE
  8
1
 62
7
 10
24.69999999999982
 20
232.6426105800548
 30
0
 11
24.69999999999982
 21
376.8005935771598
 31
0
  0
LINE
  8
1
 62
7
 10
25.89999999999975
 20
376.6426105800548
 30
0
 11
26.89999999999975
 21
380.3746613876236
 31
0
  0
LINE
  8
1
 62
7
 10
22.39999999999975
 20
399.1426105800548
 30
0
 11
25.69999999999982
 21
399.1426105800548
 31
0
  0
LINE
  8
1
 62
7
 10
21.89999999999975
 20
398.6426105800548
 30
0
 11
21.89999999999975
 21
385.6426105800548
 31
0
  0
LINE
  8
1
 62
7
 10
22.39999999999975
 20
385.1426105800548
 30
0
 11
25.69999999999982
 21
385.1426105800548
 31
0
  0
LINE
  8
1
 62
7
 10
24.69999999999982
 20
385.1426105800548
 30
0
 11
24.69999999999982
 21
399.1426105800548
 31
0
  0
LINE
  8
1
 62
7
 10
21.89999999999975
 20
385.6426105800548
 30
0
 11
22.39999999999975
 21
385.1426105800548
 31
0
  0
LINE
  8
1
 62
7
 10
22.39999999999975
 20
399.1426105800548
 30
0
 11
21.89999999999975
 21
398.6426105800548
 31
0
  0
LINE
  8
1
 62
7
 10
24.69999999999982
 20
232.6426105800548
 30
0
 11
25.89999999999975
 21
232.6426105800548
 31
0
  0
LINE
  8
1
 62
7
 10
23.49999999999989
 20
264.6426105800548
 30
0
 11
24.69999999999982
 21
264.6426105800548
 31
0
  0
LINE
  8
1
 62
7
 10
23.49999999999989
 20
242.8926105800547
 30
0
 11
23.49999999999989
 21
270.3926105800547
 31
0
  0
LINE
  8
1
 62
7
 10
24.69999999999982
 20
248.6426105800547
 30
0
 11
23.49999999999989
 21
248.6426105800547
 31
0
  0
LINE
  8
1
 62
7
 10
15.99999999999989
 20
241.8926105800547
 30
0
 11
22.49999999999989
 21
241.8926105800547
 31
0
  0
LINE
  8
1
 62
7
 10
5.499999999999881
 20
240.1426105800547
 30
0
 11
14.99999999999989
 21
240.1426105800547
 31
0
  0
LINE
  8
1
 62
7
 10
1.999999999999883
 20
241.8926105800547
 30
0
 11
4.499999999999881
 21
241.8926105800547
 31
0
  0
LINE
  8
1
 62
7
 10
15.49999999999989
 20
271.3926105800547
 30
0
 11
22.49999999999989
 21
271.3926105800547
 31
0
  0
LINE
  8
1
 62
7
 10
1.799999999999841
 20
369.1426105800548
 30
0
 11
14.49999999999989
 21
369.1426105800548
 31
0
  0
LINE
  8
1
 62
7
 10
22.49999999999989
 20
361.3926105800548
 30
0
 11
15.49999999999989
 21
361.3926105800548
 31
0
  0
LINE
  8
1
 62
7
 10
23.49999999999989
 20
332.8926105800548
 30
0
 11
23.49999999999989
 21
360.3926105800548
 31
0
  0
LINE
  8
1
 62
7
 10
24.69999999999982
 20
354.6426105800548
 30
0
 11
23.49999999999989
 21
354.6426105800548
 31
0
  0
LINE
  8
1
 62
7
 10
24.69999999999982
 20
338.6426105800548
 30
0
 11
23.49999999999989
 21
338.6426105800548
 31
0
  0
LINE
  8
1
 62
7
 10
-1.172395514004165e-013
 20
274.6425454241344
 30
0
 11
-1.172395514004165e-013
 21
243.8926105800547
 31
0
  0
LINE
  8
1
 62
7
 10
-0.2000000000001592
 20
274.6425454241344
 30
0
 11
0.9999999999998828
 21
274.6425454241344
 31
0
  0
LINE
  8
1
 62
7
 10
-0.2000000000001592
 20
367.1426105800548
 30
0
 11
-0.2000000000001592
 21
274.6425454241344
 31
0
  0
LINE
  8
1
 62
3
  6
DASHDOT
 10
-5.498743163962327
 20
316.6426105800548
 30
0
 11
-0.2000000000001592
 21
316.6426105800548
 31
0
  0
LINE
  8
1
 62
7
 10
15.49999999999989
 20
240.6426105800547
 30
0
 11
15.49999999999989
 21
368.1426105800548
 31
0
  0
LINE
  8
1
 62
7
 10
25.89999999999975
 20
256.6426105800547
 30
0
 11
26.89999999999975
 21
256.6426105800547
 31
0
  0
LINE
  8
1
 62
7
 10
4.999999999999881
 20
271.5009882396292
 30
0
 11
4.999999999999881
 21
240.6426105800547
 31
0
  0
LINE
  8
1
 62
7
 10
22.49999999999989
 20
331.8926105800548
 30
0
 11
15.49999999999989
 21
331.8926105800548
 31
0
  0
LINE
  8
1
 62
7
 10
5.999999999999881
 20
364.616565918241
 30
0
 11
14.49999999999989
 21
364.616565918241
 31
0
  0
LINE
  8
1
 62
7
 10
4.999999999999881
 20
316.0000000000001
 30
0
 11
4.999999999999881
 21
363.616565918241
 31
0
  0
LINE
  8
1
 62
7
 10
0.9999999999998828
 20
361.3926105800548
 30
0
 11
4.999999999999881
 21
361.3926105800548
 31
0
  0
LINE
  8
1
 62
7
 10
-1.172395514004165e-013
 20
316.0000000000001
 30
0
 11
-1.172395514004165e-013
 21
360.3926105800548
 31
0
  0
LINE
  8
1
 62
7
 10
-0.2000000000001592
 20
316.0000000000001
 30
0
 11
-1.172395514004165e-013
 21
316.0000000000001
 31
0
  0
LINE
  8
1
 62
7
 10
24.69999999999982
 20
296.6426105800548
 30
0
 11
15.49999999999989
 21
296.6426105800548
 31
0
  0
LINE
  8
1
 62
7
 10
70.30000000000018
 20
394.6426105800548
 30
0
 11
70.30000000000018
 21
238.6426105800547
 31
0
  0
LINE
  8
1
 62
7
 10
83.00000000000023
 20
238.6426105800547
 30
0
 11
68.50000000000011
 21
238.6426105800547
 31
0
  0
LINE
  8
1
 62
7
 10
68.50000000000011
 20
238.6426105800547
 30
0
 11
68.50000000000011
 21
394.6426105800548
 31
0
  0
LINE
  8
1
 62
7
 10
89.30000000000018
 20
232.1426105800546
 30
0
 11
107.4000000000003
 21
232.1426105800546
 31
0
  0
LINE
  8
1
 62
7
 10
33.29999999999984
 20
401.2426105800548
 30
0
 11
26.89999999999975
 21
401.2426105800548
 31
0
  0
LINE
  8
1
 62
7
 10
26.89999999999975
 20
232.0426105800547
 30
0
 11
33.29999999999984
 21
232.0426105800547
 31
0
  0
LINE
  8
1
 62
7
 10
33.29999999999984
 20
232.0426105800547
 30
0
 11
33.29999999999984
 21
401.2426105800548
 31
0
  0
LINE
  8
1
 62
7
 10
1.999999999999883
 20
273.6425454241344
 30
0
 11
1.999999999999883
 21
272.3926105800547
 31
0
  0
LINE
  8
1
 62
7
 10
0.9999999999998828
 20
271.3926105800547
 30
0
 11
-1.172395514004165e-013
 21
271.3926105800547
 31
0
  0
LINE
  8
1
 62
7
 10
117.0999999999999
 20
369.1426105800549
 30
0
 11
132.0999999999999
 21
369.1426105800549
 31
0
  0
LINE
  8
1
 62
7
 10
116.5999999999999
 20
329.6278680966677
 30
0
 11
116.5999999999999
 21
368.6426105800549
 31
0
  0
LINE
  8
1
 62
7
 10
116.3999999999998
 20
376.8005935771598
 30
0
 11
116.3999999999998
 21
232.6426105800548
 31
0
  0
LINE
  8
1
 62
7
 10
122.0999999999999
 20
329.3278680966677
 30
0
 11
117.0999999999999
 21
329.3278680966677
 31
0
  0
LINE
  8
1
 62
7
 10
141.2999999999998
 20
281.6426105800547
 30
0
 11
141.2999999999998
 21
329.3278680966677
 31
0
  0
LINE
  8
1
 62
7
 10
133.5999999999999
 20
329.3278680966677
 30
0
 11
140.7999999999998
 21
329.3278680966677
 31
0
  0
LINE
  8
1
 62
7
 10
122.5999999999999
 20
368.6426105800549
 30
0
 11
122.5999999999999
 21
300.5334544577888
 31
0
  0
LINE
  8
1
 62
7
 10
122.0999999999999
 20
364.6004952151316
 30
0
 11
117.5999999999999
 21
364.6004952151316
 31
0
  0
LINE
  8
1
 62
7
 10
117.0999999999999
 20
308.0112481521087
 30
0
 11
116.6575120851787
 21
308.0112481521087
 31
0
  0
LINE
  8
1
 62
7
 10
117.5999999999999
 20
283.2129463821001
 30
0
 11
117.5999999999999
 21
307.5112481521087
 31
0
  0
LINE
  8
1
 62
7
 10
122.5999999999999
 20
271.3926105800548
 30
0
 11
117.5999999999999
 21
271.3926105800548
 31
0
  0
LINE
  8
1
 62
7
 10
115.1999999999999
 20
376.6426105800548
 30
0
 11
115.1999999999999
 21
232.6426105800548
 31
0
  0
LINE
  8
1
 62
7
 10
107.7999999999999
 20
231.6426105800548
 30
0
 11
107.7999999999999
 21
401.6426105800548
 31
0
  0
LINE
  8
1
 62
7
 10
115.1999999999999
 20
232.6426105800548
 30
0
 11
116.3999999999998
 21
232.6426105800548
 31
0
  0
LINE
  8
1
 62
7
 10
114.1999999999999
 20
231.6426105800548
 30
0
 11
107.7999999999999
 21
231.6426105800548
 31
0
  0
LINE
  8
1
 62
7
 10
119.1999999999999
 20
398.6426105800548
 30
0
 11
118.6999999999999
 21
399.1426105800548
 31
0
  0
LINE
  8
1
 62
7
 10
118.6999999999999
 20
385.1426105800548
 30
0
 11
119.1999999999999
 21
385.6426105800548
 31
0
  0
LINE
  8
1
 62
7
 10
116.3999999999998
 20
399.1426105800548
 30
0
 11
116.3999999999998
 21
385.1426105800548
 31
0
  0
LINE
  8
1
 62
7
 10
115.3999999999998
 20
385.1426105800548
 30
0
 11
118.6999999999999
 21
385.1426105800548
 31
0
  0
LINE
  8
1
 62
7
 10
119.1999999999999
 20
385.6426105800548
 30
0
 11
119.1999999999999
 21
398.6426105800548
 31
0
  0
LINE
  8
1
 62
7
 10
115.3999999999998
 20
399.1426105800548
 30
0
 11
118.6999999999999
 21
399.1426105800548
 31
0
  0
LINE
  8
1
 62
7
 10
114.1999999999999
 20
380.3746613876237
 30
0
 11
115.1999999999999
 21
376.6426105800548
 31
0
  0
LINE
  8
1
 62
7
 10
115.3999999999998
 20
380.5326443847287
 30
0
 11
116.3999999999998
 21
376.8005935771598
 31
0
  0
LINE
  8
1
 62
7
 10
114.1999999999999
 20
400.6426105800548
 30
0
 11
115.3999999999998
 21
400.6426105800548
 31
0
  0
LINE
  8
1
 62
7
 10
107.7999999999999
 20
401.6426105800548
 30
0
 11
114.1999999999999
 21
401.6426105800548
 31
0
  0
LINE
  8
1
 62
7
 10
115.1999999999999
 20
267.1426105800547
 30
0
 11
116.3999999999998
 21
267.1426105800547
 31
0
  0
LINE
  8
1
 62
7
 10
115.1999999999999
 20
243.3127940106542
 30
0
 11
116.3999999999998
 21
243.3127940106542
 31
0
  0
LINE
  8
1
 62
7
 10
141.2999999999998
 20
329.8278680966677
 30
0
 11
141.2999999999998
 21
363.6004952151316
 31
0
  0
LINE
  8
1
 62
7
 10
134.0999999999999
 20
271.3926105800548
 30
0
 11
140.0999999999999
 21
271.3926105800548
 31
0
  0
LINE
  8
1
 62
7
 10
140.0999999999999
 20
241.8926105800548
 30
0
 11
134.0999999999999
 21
241.8926105800548
 31
0
  0
LINE
  8
1
 62
7
 10
133.0999999999999
 20
368.1426105800549
 30
0
 11
133.0999999999999
 21
239.6426105800548
 31
0
  0
LINE
  8
1
 62
7
 10
132.0999999999999
 20
238.6426105800548
 30
0
 11
123.5999999999999
 21
238.6426105800548
 31
0
  0
LINE
  8
1
 62
7
 10
122.5999999999999
 20
239.6426105800548
 30
0
 11
122.5999999999999
 21
281.2129463821001
 31
0
  0
LINE
  8
1
 62
7
 10
121.5999999999999
 20
241.8926105800548
 30
0
 11
118.5999999999999
 21
241.8926105800548
 31
0
  0
LINE
  8
1
 62
7
 10
117.5999999999999
 20
242.8926105800548
 30
0
 11
117.5999999999999
 21
279.6426105800547
 31
0
  0
LINE
  8
1
 62
7
 10
116.3999999999998
 20
264.6426105800547
 30
0
 11
117.5999999999999
 21
264.6426105800547
 31
0
  0
LINE
  8
1
 62
7
 10
116.3999999999998
 20
248.6426105800548
 30
0
 11
117.5999999999999
 21
248.6426105800548
 31
0
  0
LINE
  8
1
 62
7
 10
140.2999999999998
 20
280.6426105800547
 30
0
 11
134.0999999999999
 21
280.6426105800547
 31
0
  0
LINE
  8
1
 62
7
 10
140.2999999999998
 20
364.6004952151316
 30
0
 11
134.0999999999999
 21
364.6004952151316
 31
0
  0
LINE
  8
1
 62
3
  6
DASHDOT
 10
141.2999999999998
 20
316.6426105800548
 30
0
 11
149.6861762640023
 21
316.6426105800548
 31
0
  0
LINE
  8
1
 62
7
 10
115.1999999999999
 20
256.6426105800547
 30
0
 11
114.1999999999999
 21
256.6426105800547
 31
0
  0
LINE
  8
1
 62
7
 10
121.5999999999999
 20
299.5334544577888
 30
0
 11
118.5999999999999
 21
299.5334544577888
 31
0
  0
LINE
  8
1
 62
7
 10
121.5999999999999
 20
282.2129463821001
 30
0
 11
118.5999999999999
 21
282.2129463821001
 31
0
  0
LINE
  8
1
 62
7
 10
-175.7085757458888
 20
109.4465220827083
 30
0
 11
-175.7085757458888
 21
114.4465220827083
 31
0
  0
LINE
  8
1
 62
7
 10
-174.7941656534279
 20
114.4465220827083
 30
0
 11
-174.7941656534279
 21
109.4465220827083
 31
0
  0
LINE
  8
1
 62
7
 10
-173.0669465898889
 20
109.4465220827083
 30
0
 11
-173.0669465898889
 21
114.4465220827083
 31
0
  0
LINE
  8
1
 62
7
 10
-172.2541376188119
 20
114.4465220827083
 30
0
 11
-172.2541376188119
 21
109.4465220827083
 31
0
  0
LINE
  8
1
 62
7
 10
-176.4999999999998
 20
109.4465220827083
 30
0
 11
-176.4999999999998
 21
88.96488071143558
 31
0
  0
LINE
  8
1
 62
7
 10
-171.4999999999998
 20
109.4465220827083
 30
0
 11
-171.4999999999998
 21
88.96488071143558
 31
0
  0
LINE
  8
1
 62
7
 10
-176.4999999999998
 20
109.4465220827083
 30
0
 11
-171.4999999999998
 21
109.4465220827083
 31
0
  0
LINE
  8
1
 62
7
 10
-173.9999999999998
 20
109.4465220827083
 30
0
 11
-173.9999999999998
 21
88.99999999999979
 31
0
  0
LINE
  8
1
 62
3
  6
DASHDOT
 10
311.1000000000003
 20
130.964588851996
 30
0
 11
311.1000000000003
 21
119.0354111480039
 31
0
  0
LINE
  8
1
 62
3
  6
DASHDOT
 10
317.0645888519964
 20
124.9999999999999
 30
0
 11
305.1354111480043
 21
124.9999999999999
 31
0
  0
LINE
  8
1
 62
7
 10
309.3914242541114
 20
109.4465220827082
 30
0
 11
309.3914242541114
 21
114.4465220827082
 31
0
  0
LINE
  8
1
 62
7
 10
310.3058343465723
 20
114.4465220827082
 30
0
 11
310.3058343465723
 21
109.4465220827082
 31
0
  0
LINE
  8
1
 62
7
 10
312.0330534101112
 20
109.4465220827082
 30
0
 11
312.0330534101112
 21
114.4465220827082
 31
0
  0
LINE
  8
1
 62
7
 10
312.8458623811882
 20
114.4465220827082
 30
0
 11
312.8458623811882
 21
109.4465220827082
 31
0
  0
LINE
  8
1
 62
7
 10
308.6000000000003
 20
109.4465220827082
 30
0
 11
308.6000000000003
 21
84.56305339804138
 31
0
  0
LINE
  8
1
 62
7
 10
313.6000000000003
 20
109.4465220827082
 30
0
 11
313.6000000000003
 21
84.56305339804138
 31
0
  0
LINE
  8
1
 62
7
 10
-235.1074193097918
 20
64.70613035329201
 30
0
 11
-233.9253362469942
 21
69.11772440241956
 31
0
  0
LINE
  8
1
 62
7
 10
-243.1177244024191
 20
59.92533624699433
 30
0
 11
-238.7061303532917
 21
61.10741930979201
 31
0
  0
LINE
  8
1
 62
7
 10
-248.4249521784493
 20
65.23256402302449
 30
0
 11
-243.1177244024191
 21
59.92533624699433
 31
0
  0
LINE
  8
1
 62
7
 10
-246.482371988752
 20
72.48237198875218
 30
0
 11
-248.4249521784493
 21
65.23256402302449
 31
0
  0
LINE
  8
1
 62
7
 10
-239.2325640230245
 20
74.42495217844972
 30
0
 11
-246.482371988752
 21
72.48237198875218
 31
0
  0
LINE
  8
1
 62
7
 10
-233.9253362469942
 20
69.11772440241956
 30
0
 11
-239.2325640230245
 21
74.42495217844972
 31
0
  0
LINE
  8
1
 62
7
 10
-238.7061303532919
 20
-61.10741930979194
 30
0
 11
-243.1177244024193
 21
-59.92533624699434
 31
0
  0
LINE
  8
1
 62
7
 10
-248.4249521784495
 20
-65.23256402302464
 30
0
 11
-246.482371988752
 21
-72.48237198875223
 31
0
  0
LINE
  8
1
 62
7
 10
-243.1177244024193
 20
-59.92533624699434
 30
0
 11
-248.4249521784495
 21
-65.23256402302464
 31
0
  0
LINE
  8
1
 62
7
 10
-233.925336246994
 20
-69.11772440241943
 30
0
 11
-235.1074193097916
 21
-64.70613035329212
 31
0
  0
LINE
  8
1
 62
7
 10
-239.2325640230242
 20
-74.42495217844963
 30
0
 11
-233.925336246994
 21
-69.11772440241943
 31
0
  0
LINE
  8
1
 62
7
 10
-246.482371988752
 20
-72.48237198875223
 30
0
 11
-239.2325640230242
 21
-74.42495217844963
 31
0
  0
LINE
  8
1
 62
7
 10
-112.8925806902078
 20
-64.70613035329201
 30
0
 11
-114.0746637530054
 21
-69.11772440241943
 31
0
  0
LINE
  8
1
 62
7
 10
-108.7674359769752
 20
-74.42495217844963
 30
0
 11
-101.5176280112476
 21
-72.48237198875223
 31
0
  0
LINE
  8
1
 62
7
 10
-114.0746637530054
 20
-69.11772440241943
 30
0
 11
-108.7674359769752
 21
-74.42495217844963
 31
0
  0
LINE
  8
1
 62
7
 10
-104.8822755975804
 20
-59.92533624699434
 30
0
 11
-109.2938696467078
 21
-61.10741930979191
 31
0
  0
LINE
  8
1
 62
7
 10
-99.57504782155013
 20
-65.23256402302452
 30
0
 11
-104.8822755975804
 21
-59.92533624699434
 31
0
  0
LINE
  8
1
 62
7
 10
-101.5176280112476
 20
-72.48237198875223
 30
0
 11
-99.57504782155013
 21
-65.23256402302452
 31
0
  0
LINE
  8
1
 62
7
 10
-109.2938696467077
 20
61.10741930979199
 30
0
 11
-104.8822755975804
 21
59.92533624699435
 31
0
  0
LINE
  8
1
 62
7
 10
-99.57504782155013
 20
65.23256402302455
 30
0
 11
-101.5176280112476
 21
72.48237198875221
 31
0
  0
LINE
  8
1
 62
7
 10
-104.8822755975804
 20
59.92533624699435
 30
0
 11
-99.57504782155013
 21
65.23256402302455
 31
0
  0
LINE
  8
1
 62
7
 10
-114.0746637530054
 20
69.11772440241951
 30
0
 11
-112.8925806902078
 21
64.70613035329208
 31
0
  0
LINE
  8
1
 62
7
 10
-108.7674359769752
 20
74.42495217844969
 30
0
 11
-114.0746637530054
 21
69.11772440241951
 31
0
  0
LINE
  8
1
 62
7
 10
-101.5176280112476
 20
72.48237198875221
 30
0
 11
-108.7674359769752
 21
74.42495217844969
 31
0
  0
LINE
  8
1
 62
7
 10
241.9822755975813
 20
59.92533624699415
 30
0
 11
249.2320835633089
 21
61.8679164366915
 31
0
  0
LINE
  8
1
 62
7
 10
236.6750478215511
 20
65.23256402302442
 30
0
 11
241.9822755975813
 21
59.92533624699415
 31
0
  0
LINE
  8
1
 62
7
 10
238.6176280112486
 20
72.48237198875208
 30
0
 11
236.6750478215511
 21
65.23256402302442
 31
0
  0
LINE
  8
1
 62
7
 10
245.8674359769763
 20
74.42495217844945
 30
0
 11
238.6176280112486
 21
72.48237198875208
 31
0
  0
LINE
  8
1
 62
7
 10
251.1746637530065
 20
69.11772440241916
 30
0
 11
245.8674359769763
 21
74.42495217844945
 31
0
  0
LINE
  8
1
 62
7
 10
249.2320835633089
 20
61.8679164366915
 30
0
 11
251.1746637530065
 21
69.11772440241916
 31
0
  0
LINE
  8
1
 62
7
 10
371.0253362469949
 20
69.11772440241987
 30
0
 11
372.9679164366922
 21
61.86791643669217
 31
0
  0
LINE
  8
1
 62
7
 10
376.3325640230253
 20
74.42495217844999
 30
0
 11
371.0253362469949
 21
69.11772440241987
 31
0
  0
LINE
  8
1
 62
7
 10
383.5823719887529
 20
72.48237198875236
 30
0
 11
376.3325640230253
 21
74.42495217844999
 31
0
  0
LINE
  8
1
 62
7
 10
385.5249521784502
 20
65.23256402302465
 30
0
 11
383.5823719887529
 21
72.48237198875236
 31
0
  0
LINE
  8
1
 62
7
 10
380.2177244024198
 20
59.92533624699456
 30
0
 11
385.5249521784502
 21
65.23256402302465
 31
0
  0
LINE
  8
1
 62
7
 10
372.9679164366922
 20
61.86791643669217
 30
0
 11
380.2177244024198
 21
59.92533624699456
 31
0
  0
LINE
  8
1
 62
7
 10
251.1746637530062
 20
-69.11772440241941
 30
0
 11
249.2320835633087
 21
-61.86791643669174
 31
0
  0
LINE
  8
1
 62
7
 10
245.8674359769761
 20
-74.42495217844962
 30
0
 11
251.1746637530062
 21
-69.11772440241941
 31
0
  0
LINE
  8
1
 62
7
 10
238.6176280112483
 20
-72.48237198875233
 30
0
 11
245.8674359769761
 21
-74.42495217844962
 31
0
  0
LINE
  8
1
 62
7
 10
236.6750478215508
 20
-65.23256402302462
 30
0
 11
238.6176280112483
 21
-72.48237198875233
 31
0
  0
LINE
  8
1
 62
7
 10
241.982275597581
 20
-59.92533624699438
 30
0
 11
236.6750478215508
 21
-65.23256402302462
 31
0
  0
LINE
  8
1
 62
7
 10
249.2320835633087
 20
-61.86791643669174
 30
0
 11
241.982275597581
 21
-59.92533624699438
 31
0
  0
LINE
  8
1
 62
7
 10
380.2177244024196
 20
-59.92533624699428
 30
0
 11
372.967916436692
 21
-61.86791643669195
 31
0
  0
LINE
  8
1
 62
7
 10
385.52495217845
 20
-65.23256402302431
 30
0
 11
380.2177244024196
 21
-59.92533624699428
 31
0
  0
LINE
  8
1
 62
7
 10
383.5823719887528
 20
-72.48237198875202
 30
0
 11
385.52495217845
 21
-65.23256402302431
 31
0
  0
LINE
  8
1
 62
7
 10
376.3325640230252
 20
-74.42495217844973
 30
0
 11
383.5823719887528
 21
-72.48237198875202
 31
0
  0
LINE
  8
1
 62
7
 10
371.0253362469948
 20
-69.11772440241973
 30
0
 11
376.3325640230252
 21
-74.42495217844973
 31
0
  0
LINE
  8
1
 62
7
 10
372.967916436692
 20
-61.86791643669195
 30
0
 11
371.0253362469948
 21
-69.11772440241973
 31
0
  0
LINE
  8
1
 62
7
 10
233.1000000000003
 20
-72.99332280952413
 30
0
 11
238.1000000000003
 21
-77.99332280952413
 31
0
  0
LINE
  8
1
 62
7
 10
233.1000000000003
 20
-72.99332280952413
 30
0
 11
233.1000000000003
 21
-32.75912086732484
 31
0
  0
LINE
  8
1
 62
7
 10
384.1000000000003
 20
-77.99999999999999
 30
0
 11
343.8591208673251
 21
-77.99999999999999
 31
0
  0
LINE
  8
1
 62
7
 10
389.1000000000003
 20
-72.99999999999999
 30
0
 11
384.1000000000003
 21
-77.99999999999999
 31
0
  0
LINE
  8
1
 62
7
 10
298.1000000000003
 20
141.9999999999999
 30
0
 11
288.9045018441139
 21
137
 31
0
  0
LINE
  8
1
 62
7
 10
324.1000000000003
 20
141.9999999999999
 30
0
 11
333.2954981558868
 21
137
 31
0
  0
LINE
  8
1
 62
7
 10
324.1000000000003
 20
141.9999999999999
 30
0
 11
298.1000000000003
 21
141.9999999999999
 31
0
  0
LINE
  8
1
 62
3
  6
DASHDOT
 10
-173.9999999999998
 20
11.74019344289401
 30
0
 11
-173.9999999999998
 21
-11.74019344289398
 31
0
  0
LINE
  8
1
 62
3
  6
DASHDOT
 10
-162.2598065571058
 20
1.4210854715202e-014
 30
0
 11
-185.7401934428938
 21
1.4210854715202e-014
 31
0
  0
LINE
  8
1
 62
7
 10
-115.9831469785256
 20
35.22809651705214
 30
0
 11
-119.5771676282675
 21
33.15308772745065
 31
0
  0
LINE
  8
1
 62
7
 10
-125.9997839176
 20
29.4449884839028
 30
0
 11
-129.5938045673417
 21
27.3699796943013
 31
0
  0
LINE
  8
1
 62
7
 10
-128.0938045673417
 20
24.77190348294793
 30
0
 11
-124.4997839176
 21
26.84691227254942
 31
0
  0
LINE
  8
1
 62
7
 10
-114.4831469785256
 20
32.63002030569877
 30
0
 11
-118.0771676282674
 21
30.55501151609727
 31
0
  0
LINE
  8
1
 62
7
 10
-233.5168530214748
 20
32.63002030569883
 30
0
 11
-229.9228323717327
 21
30.55501151609727
 31
0
  0
LINE
  8
1
 62
7
 10
-223.5002160823997
 20
26.84691227254948
 30
0
 11
-219.9061954326578
 21
24.77190348294799
 31
0
  0
LINE
  8
1
 62
7
 10
-218.4061954326578
 20
27.3699796943013
 30
0
 11
-222.0002160823997
 21
29.44498848390285
 31
0
  0
LINE
  8
1
 62
7
 10
-232.0168530214748
 20
35.2280965170522
 30
0
 11
-228.4228323717327
 21
33.15308772745065
 31
0
  0
LINE
  8
1
 62
7
 10
-172.4999999999998
 20
-67.85811682275083
 30
0
 11
-172.4999999999998
 21
-63.70809924354783
 31
0
  0
LINE
  8
1
 62
7
 10
-172.4999999999998
 20
-56.29190075645217
 30
0
 11
-172.4999999999998
 21
-52.14188317724915
 31
0
  0
LINE
  8
1
 62
7
 10
-175.4999999999998
 20
-52.14188317724915
 30
0
 11
-175.4999999999998
 21
-56.29190075645217
 31
0
  0
LINE
  8
1
 62
7
 10
-175.4999999999998
 20
-67.85811682275083
 30
0
 11
-175.4999999999998
 21
-63.70809924354783
 31
0
  0
LINE
  8
1
 62
7
 10
-131.1397620165268
 20
78.00000000000001
 30
0
 11
-102.9630377901758
 21
78.00000000000001
 31
0
  0
LINE
  8
1
 62
7
 10
-96
 20
71.03696220982427
 30
0
 11
-96
 21
42.8602379834737
 31
0
  0
LINE
  8
1
 62
7
 10
-216.8602379834738
 20
78.00000000000001
 30
0
 11
-245.0369622098237
 21
78.00000000000001
 31
0
  0
LINE
  8
1
 62
7
 10
-251.9999999999998
 20
71.03696220982427
 30
0
 11
-251.9999999999998
 21
42.8602379834737
 31
0
  0
LINE
  8
1
 62
7
 10
-96
 20
-73.00000000000001
 30
0
 11
-96
 21
-42.86023798347366
 31
0
  0
LINE
  8
1
 62
7
 10
-101
 20
-78.00000000000001
 30
0
 11
-131.1397620165268
 21
-78.00000000000001
 31
0
  0
LINE
  8
1
 62
7
 10
-101
 20
-78.00000000000001
 30
0
 11
-96
 21
-73.00000000000001
 31
0
  0
LINE
  8
1
 62
7
 10
-251.9999999999998
 20
-73.00000000000001
 30
0
 11
-251.9999999999998
 21
-42.86023798347366
 31
0
  0
LINE
  8
1
 62
7
 10
-246.9999999999998
 20
-78.00000000000001
 30
0
 11
-216.8602379834738
 21
-78.00000000000001
 31
0
  0
LINE
  8
1
 62
7
 10
-246.9999999999998
 20
-78.00000000000001
 30
0
 11
-251.9999999999998
 21
-73.00000000000001
 31
0
  0
LINE
  8
1
 62
3
  6
DASHDOT
 10
-169.1359247649439
 20
125
 30
0
 11
-178.8640752350557
 21
125
 31
0
  0
LINE
  8
1
 62
3
  6
DASHDOT
 10
-173.9999999999998
 20
129.8640752350561
 30
0
 11
-173.9999999999998
 21
120.1359247649439
 31
0
  0
LINE
  8
1
 62
7
 10
-104.8149224981859
 20
81.00000000000001
 30
0
 11
-137.1218221708288
 21
81.00000000000001
 31
0
  0
LINE
  8
1
 62
7
 10
-210.8781778291718
 20
81.00000000000001
 30
0
 11
-243.1850775018138
 21
81.00000000000001
 31
0
  0
LINE
  8
1
 62
3
  6
CENTER
 10
298.1096189432341
 20
-7.500000000000064
 30
0
 11
299.8944161013612
 21
-6.469546880306474
 31
0
  0
LINE
  8
1
 62
7
  6
DASHED
 10
285.8532124826833
 20
-18.27128129211028
 30
0
 11
300.0086643728894
 21
-10.09862733279918
 31
0
  0
LINE
  8
1
 62
7
  6
DASHED
 10
282.6532124826833
 20
-12.72871870788988
 30
0
 11
296.8086643728882
 21
-4.55606474857877
 31
0
  0
LINE
  8
1
 62
7
  6
DASHED
 10
286.7532124826832
 20
-19.83012701892228
 30
0
 11
281.7532124826832
 21
-11.16987298107788
 31
0
  0
LINE
  8
1
 62
3
  6
DASHDOT
 10
281.6551362713292
 20
-17.00000000000006
 30
0
 11
298.1096189432341
 21
-7.500000000000064
 31
0
  0
LINE
  8
1
 62
7
  6
DASHED
 10
263.3403325244212
 20
-21.80055418153646
 30
0
 11
281.7532124826832
 21
-11.16987298107788
 31
0
  0
LINE
  8
1
 62
3
  6
DASHDOT
 10
286.8192076756943
 20
-14.01852198457549
 30
0
 11
263.4557385791533
 21
-27.50742715666696
 31
0
  0
LINE
  8
1
 62
7
  6
DASHED
 10
286.7532124826832
 20
-19.83012701892228
 30
0
 11
268.3403325244212
 21
-30.46080821938086
 31
0
  0
LINE
  8
1
 62
3
  6
DASHED
 10
307.1000000000003
 20
18.00000000000005
 30
0
 11
307.1000000000003
 21
31.00000000000005
 31
0
  0
LINE
  8
1
 62
3
  6
DASHED
 10
315.1000000000003
 20
18.00000000000005
 30
0
 11
314.6000000000003
 21
17.13397459621552
 31
0
  0
LINE
  8
1
 62
7
  6
DASHED
 10
316.1000000000003
 20
52.26136240091722
 30
0
 11
316.1000000000003
 21
31.00000000000005
 31
0
  0
LINE
  8
1
 62
3
  6
DASHED
 10
314.6000000000003
 20
18.00000000000005
 30
0
 11
315.1000000000003
 21
18.00000000000005
 31
0
  0
LINE
  8
1
 62
7
  6
DASHED
 10
306.1000000000003
 20
31.00000000000005
 30
0
 11
316.1000000000003
 21
31.00000000000005
 31
0
  0
LINE
  8
1
 62
3
  6
DASHDOT
 10
311.1000000000003
 20
-9.708743895559749
 30
0
 11
311.1000000000003
 21
55.01485431333395
 31
0
  0
LINE
  8
1
 62
7
  6
DASHED
 10
306.1000000000003
 20
31.00000000000005
 30
0
 11
306.1000000000003
 21
52.26136240091722
 31
0
  0
LINE
  8
1
 62
3
  6
DASHED
 10
315.1000000000003
 20
31.00000000000005
 30
0
 11
315.1000000000003
 21
18.00000000000005
 31
0
  0
LINE
  8
1
 62
7
  6
DASHED
 10
314.3000000000001
 20
31.00000000000005
 30
0
 11
314.3000000000001
 21
18.00000000000005
 31
0
  0
LINE
  8
1
 62
7
  6
DASHED
 10
307.9000000000003
 20
18.00000000000005
 30
0
 11
307.9000000000003
 21
31.00000000000005
 31
0
  0
LINE
  8
1
 62
3
  6
DASHDOT
 10
320.8087438955572
 20
1.4210854715202e-014
 30
0
 11
301.3912561044433
 21
1.4210854715202e-014
 31
0
  0
LINE
  8
1
 62
7
 10
309.6000000000003
 20
-56.29190075645216
 30
0
 11
309.6000000000003
 21
-52.14188317724916
 31
0
  0
LINE
  8
1
 62
7
 10
382.1369622098245
 20
78.00000000000006
 30
0
 11
343.859120867325
 21
78.00000000000006
 31
0
  0
LINE
  8
1
 62
7
 10
308.6000000000003
 20
109.4465220827082
 30
0
 11
313.6000000000003
 21
109.4465220827082
 31
0
  0
LINE
  8
1
 62
7
 10
312.6000000000003
 20
-52.14188317724916
 30
0
 11
312.6000000000003
 21
-56.29190075645216
 31
0
  0
LINE
  8
1
 62
7
 10
312.6000000000003
 20
-63.70809924354783
 30
0
 11
312.6000000000003
 21
-67.85811682275093
 31
0
  0
LINE
  8
1
 62
7
 10
309.6000000000003
 20
-63.70809924354783
 30
0
 11
309.6000000000003
 21
-67.85811682275093
 31
0
  0
LINE
  8
1
 62
7
 10
255.1771676282683
 20
30.55501151609734
 30
0
 11
251.5831469785262
 21
32.63002030569884
 31
0
  0
LINE
  8
1
 62
7
 10
256.6771676282683
 20
33.1530877274506
 30
0
 11
253.0831469785262
 21
35.22809651705216
 31
0
  0
LINE
  8
1
 62
7
 10
266.6938045673423
 20
27.36997969430126
 30
0
 11
263.0997839176002
 21
29.44498848390275
 31
0
  0
LINE
  8
1
 62
7
 10
265.1938045673423
 20
24.77190348294794
 30
0
 11
261.5997839176002
 21
26.84691227254955
 31
0
  0
LINE
  8
1
 62
7
 10
367.0228323717333
 20
30.55501151609723
 30
0
 11
370.6168530214752
 21
32.63002030569873
 31
0
  0
LINE
  8
1
 62
7
 10
357.0061954326593
 20
24.77190348294794
 30
0
 11
360.6002160824002
 21
26.84691227254944
 31
0
  0
LINE
  8
1
 62
7
 10
365.5228323717333
 20
33.15308772745055
 30
0
 11
369.1168530214752
 21
35.22809651705216
 31
0
  0
LINE
  8
1
 62
7
 10
355.5061954326593
 20
27.36997969430126
 30
0
 11
359.1002160824002
 21
29.44498848390275
 31
0
  0
LINE
  8
1
 62
7
 10
314.6000000000003
 20
18.00000000000005
 30
0
 11
314.6000000000003
 21
14.58595214581481
 31
0
  0
LINE
  8
1
 62
7
 10
307.6000000000003
 20
18.00000000000005
 30
0
 11
314.6000000000003
 21
18.00000000000005
 31
0
  0
LINE
  8
1
 62
7
 10
307.6000000000003
 20
14.58595214581481
 30
0
 11
307.6000000000003
 21
18.00000000000005
 31
0
  0
LINE
  8
1
 62
7
 10
233.1000000000003
 20
71.03696220982427
 30
0
 11
233.1000000000003
 21
32.75912086732487
 31
0
  0
LINE
  8
1
 62
7
 10
278.3408791326756
 20
78.00000000000006
 30
0
 11
240.0630377901761
 21
78.00000000000006
 31
0
  0
LINE
  8
1
 62
7
 10
389.1000000000003
 20
32.75912086732487
 30
0
 11
389.1000000000003
 21
71.03696220982428
 31
0
  0
LINE
  8
1
 62
7
 10
389.1000000000003
 20
-32.75912086732485
 30
0
 11
389.1000000000003
 21
-72.99999999999999
 31
0
  0
LINE
  8
1
 62
7
 10
278.3408791326756
 20
-78.00000000000003
 30
0
 11
238.1000000000003
 21
-78.00000000000003
 31
0
  0
LINE
  8
1
 62
3
  6
DASHED
 10
307.6000000000003
 20
17.13397459621552
 30
0
 11
307.1000000000003
 21
18.00000000000005
 31
0
  0
LINE
  8
1
 62
3
  6
DASHED
 10
296.5800159744513
 20
-3.76431453226278
 30
0
 11
282.2532124826832
 21
-12.03589838486227
 31
0
  0
LINE
  8
1
 62
3
  6
DASHED
 10
300.5800159744513
 20
-10.69251776253828
 30
0
 11
286.2532124826832
 21
-18.96410161513777
 31
0
  0
LINE
  8
1
 62
3
  6
DASHDOT
 10
65.29999999999984
 20
125
 30
0
 11
85.29999999999984
 21
125
 31
0
  0
LINE
  8
1
 62
7
 10
55.59999999999968
 20
84.50000000000001
 30
0
 11
55.59999999999968
 21
109.4465220827082
 31
0
  0
LINE
  8
1
 62
7
 10
107.2999999999998
 20
84.50000000000001
 30
0
 11
89.29999999999984
 21
84.50000000000001
 31
0
  0
LINE
  8
1
 62
7
 10
57.99999999999989
 20
109.4465220827082
 30
0
 11
57.99999999999989
 21
84.50000000000001
 31
0
  0
LINE
  8
1
 62
7
 10
57.39999999999975
 20
114.4465220827082
 30
0
 11
57.39999999999975
 21
109.4465220827082
 31
0
  0
LINE
  8
1
 62
7
 10
56.79999999999973
 20
109.4465220827082
 30
0
 11
56.79999999999973
 21
114.4465220827082
 31
0
  0
LINE
  8
1
 62
7
 10
56.1999999999997
 20
114.4465220827082
 30
0
 11
56.1999999999997
 21
109.4465220827082
 31
0
  0
LINE
  8
1
 62
7
 10
55.59999999999968
 20
109.4465220827082
 30
0
 11
57.99999999999989
 21
109.4465220827082
 31
0
  0
LINE
  8
1
 62
7
 10
91.42429819099755
 20
109.4465220827082
 30
0
 11
91.42429819099755
 21
84.50000000000001
 31
0
  0
LINE
  8
1
 62
7
 10
93.82429819099764
 20
109.4465220827082
 30
0
 11
93.82429819099764
 21
84.50000000000001
 31
0
  0
LINE
  8
1
 62
7
 10
93.22429819099762
 20
114.4465220827082
 30
0
 11
93.22429819099762
 21
109.4465220827082
 31
0
  0
LINE
  8
1
 62
7
 10
92.62429819099759
 20
109.4465220827082
 30
0
 11
92.62429819099759
 21
114.4465220827082
 31
0
  0
LINE
  8
1
 62
7
 10
92.02429819099768
 20
114.4465220827082
 30
0
 11
92.02429819099768
 21
109.4465220827082
 31
0
  0
LINE
  8
1
 62
7
 10
35.5999999999998
 20
37.25000000000001
 30
0
 11
35.5999999999998
 21
42.00000000000002
 31
0
  0
LINE
  8
1
 62
7
 10
35.5999999999998
 20
42.00000000000002
 30
0
 11
33.79999999999981
 21
42
 31
0
  0
LINE
  8
1
 62
7
 10
33.2999999999998
 20
20.00000000000001
 30
0
 11
33.2999999999998
 21
84.59999999999999
 31
0
  0
LINE
  8
1
 62
7
 10
25.89999999999994
 20
41.50000000000001
 30
0
 11
33.2999999999998
 21
41.50000000000001
 31
0
  0
LINE
  8
1
 62
7
 10
26.8999999999997
 20
60.00000000000001
 30
0
 11
26.8999999999997
 21
84.59999999999999
 31
0
  0
LINE
  8
1
 62
7
 10
25.8999999999997
 20
60.00000000000001
 30
0
 11
26.8999999999997
 21
60.00000000000001
 31
0
  0
LINE
  8
1
 62
7
 10
25.89999999999994
 20
20.00000000000001
 30
0
 11
25.8999999999997
 21
60.00000000000001
 31
0
  0
LINE
  8
1
 62
7
 10
25.69999999999978
 20
84
 30
0
 11
26.8999999999997
 21
84
 31
0
  0
LINE
  8
1
 62
7
 10
25.69999999999978
 20
63.89003380467385
 30
0
 11
25.69999999999978
 21
84
 31
0
  0
LINE
  8
1
 62
7
 10
24.69999999999978
 20
60.15798299710498
 30
0
 11
25.69999999999978
 21
63.89003380467385
 31
0
  0
LINE
  8
1
 62
7
 10
24.69999999999978
 20
20.00000000000001
 30
0
 11
24.69999999999978
 21
60.15798299710498
 31
0
  0
LINE
  8
1
 62
7
 10
25.8999999999997
 20
60.00000000000001
 30
0
 11
26.8999999999997
 21
63.73205080756888
 31
0
  0
LINE
  8
1
 62
7
 10
22.3999999999997
 20
82.5
 30
0
 11
25.69999999999978
 21
82.5
 31
0
  0
LINE
  8
1
 62
7
 10
21.8999999999997
 20
82
 30
0
 11
21.8999999999997
 21
69
 31
0
  0
LINE
  8
1
 62
7
 10
22.3999999999997
 20
68.5
 30
0
 11
25.69999999999978
 21
68.5
 31
0
  0
LINE
  8
1
 62
7
 10
24.69999999999978
 20
68.5
 30
0
 11
24.69999999999978
 21
82.5
 31
0
  0
LINE
  8
1
 62
7
 10
21.8999999999997
 20
69
 30
0
 11
22.3999999999997
 21
68.5
 31
0
  0
LINE
  8
1
 62
7
 10
22.3999999999997
 20
82.5
 30
0
 11
21.8999999999997
 21
82
 31
0
  0
LINE
  8
1
 62
7
 10
25.69999999999978
 20
67
 30
0
 11
26.8999999999997
 21
67
 31
0
  0
LINE
  8
1
 62
7
 10
33.2999999999998
 20
-41.49999999999999
 30
0
 11
25.89999999999994
 21
-41.49999999999999
 31
0
  0
LINE
  8
1
 62
7
 10
24.69999999999978
 20
-83.99999999999997
 30
0
 11
25.8999999999997
 21
-83.99999999999997
 31
0
  0
LINE
  8
1
 62
7
 10
33.2999999999998
 20
-20
 30
0
 11
33.2999999999998
 21
-84.60000000000008
 31
0
  0
LINE
  8
1
 62
7
 10
24.69999999999978
 20
-73.32981656940066
 30
0
 11
25.8999999999997
 21
-73.32981656940066
 31
0
  0
LINE
  8
1
 62
7
 10
24.69999999999978
 20
-49.49999999999999
 30
0
 11
25.8999999999997
 21
-49.49999999999999
 31
0
  0
LINE
  8
1
 62
7
 10
54.79999999999984
 20
84.50000000000001
 30
0
 11
60.49999999999984
 21
84.50000000000001
 31
0
  0
LINE
  8
1
 62
7
 10
54.79999999999984
 20
-84.49999999999997
 30
0
 11
54.79999999999984
 21
-84.34999999999997
 31
0
  0
LINE
  8
1
 62
7
 10
54.79999999999984
 20
-84.34999999999997
 30
0
 11
43.29999999999984
 21
-84.34999999999997
 31
0
  0
LINE
  8
1
 62
7
 10
54.79999999999984
 20
-84.49999999999997
 30
0
 11
60.49999999999984
 21
-84.49999999999997
 31
0
  0
LINE
  8
1
 62
7
 10
43.29999999999984
 20
42.50000000000002
 30
0
 11
43.29999999999984
 21
84.35000000000002
 31
0
  0
LINE
  8
1
 62
7
 10
43.29999999999984
 20
84.35000000000002
 30
0
 11
54.79999999999984
 21
84.35000000000002
 31
0
  0
LINE
  8
1
 62
7
 10
54.79999999999984
 20
84.35000000000002
 30
0
 11
54.79999999999984
 21
84.50000000000001
 31
0
  0
LINE
  8
1
 62
7
 10
40.79999999999981
 20
85.25
 30
0
 11
40.79999999999981
 21
41.60000000000001
 31
0
  0
LINE
  8
1
 62
7
 10
52.29999999999993
 20
85.25
 30
0
 11
40.79999999999981
 21
85.25
 31
0
  0
LINE
  8
1
 62
7
 10
52.29999999999993
 20
89
 30
0
 11
52.29999999999993
 21
85.25
 31
0
  0
LINE
  8
1
 62
7
 10
38.89807621135329
 20
89
 30
0
 11
52.29999999999993
 21
89
 31
0
  0
LINE
  8
1
 62
7
 10
36.29999999999981
 20
84.5
 30
0
 11
38.89807621135329
 21
89
 31
0
  0
LINE
  8
1
 62
7
 10
33.79999999999981
 20
84.5
 30
0
 11
36.29999999999981
 21
84.5
 31
0
  0
LINE
  8
1
 62
7
 10
33.79999999999981
 20
42
 30
0
 11
33.79999999999981
 21
84.5
 31
0
  0
LINE
  8
1
 62
7
 10
35.5999999999998
 20
-42.00000000000002
 30
0
 11
35.5999999999998
 21
-37.25000000000001
 31
0
  0
LINE
  8
1
 62
7
 10
33.79999999999981
 20
-42.00000000000002
 30
0
 11
35.5999999999998
 21
-42.00000000000002
 31
0
  0
LINE
  8
1
 62
7
 10
36.29999999999981
 20
-84.50000000000009
 30
0
 11
33.79999999999981
 21
-84.50000000000009
 31
0
  0
LINE
  8
1
 62
7
 10
38.89807621135329
 20
-89.00000000000009
 30
0
 11
36.29999999999981
 21
-84.50000000000009
 31
0
  0
LINE
  8
1
 62
7
 10
52.29999999999993
 20
-89.00000000000009
 30
0
 11
38.89807621135329
 21
-89.00000000000009
 31
0
  0
LINE
  8
1
 62
7
 10
33.99999999999984
 20
-37.25000000000001
 30
0
 11
33.99999999999984
 21
37.25000000000001
 31
0
  0
LINE
  8
1
 62
7
 10
52.29999999999993
 20
-85.25000000000009
 30
0
 11
52.29999999999993
 21
-89.00000000000009
 31
0
  0
LINE
  8
1
 62
7
 10
40.79999999999981
 20
-85.25000000000009
 30
0
 11
52.29999999999993
 21
-85.25000000000009
 31
0
  0
LINE
  8
1
 62
7
 10
40.79999999999981
 20
-41.59999999999999
 30
0
 11
40.79999999999981
 21
-85.25000000000009
 31
0
  0
LINE
  8
1
 62
7
 10
43.29999999999984
 20
-84.34999999999997
 30
0
 11
43.29999999999984
 21
-42.49999999999996
 31
0
  0
LINE
  8
1
 62
7
 10
33.79999999999981
 20
-84.50000000000009
 30
0
 11
33.79999999999981
 21
-42.00000000000002
 31
0
  0
LINE
  8
1
 62
7
 10
68.49999999999984
 20
-78.00000000000009
 30
0
 11
68.49999999999984
 21
-42.50000000000001
 31
0
  0
LINE
  8
1
 62
7
 10
23.49999999999978
 20
-51.99999999999999
 30
0
 11
24.69999999999978
 21
-51.99999999999999
 31
0
  0
LINE
  8
1
 62
7
 10
24.69999999999978
 20
-68.00000000000009
 30
0
 11
23.49999999999978
 21
-68.00000000000009
 31
0
  0
LINE
  8
1
 62
7
 10
23.49999999999978
 20
-73.75000000000009
 30
0
 11
23.49999999999978
 21
-46.25000000000001
 31
0
  0
LINE
  8
1
 62
7
 10
15.99999999999978
 20
-74.75000000000009
 30
0
 11
22.49999999999978
 21
-74.75000000000009
 31
0
  0
LINE
  8
1
 62
7
 10
15.49999999999977
 20
-76.00000000000009
 30
0
 11
15.49999999999977
 21
-75.25000000000009
 31
0
  0
LINE
  8
1
 62
7
 10
5.499999999999773
 20
-76.50000000000009
 30
0
 11
14.99999999999977
 21
-76.50000000000009
 31
0
  0
LINE
  8
1
 62
7
 10
4.999999999999773
 20
-75.25000000000009
 30
0
 11
4.999999999999773
 21
-76.00000000000009
 31
0
  0
LINE
  8
1
 62
7
 10
1.999999999999773
 20
-74.75000000000009
 30
0
 11
4.499999999999773
 21
-74.75000000000009
 31
0
  0
LINE
  8
1
 62
7
 10
15.49999999999977
 20
-45.25000000000001
 30
0
 11
22.49999999999978
 21
-45.25000000000001
 31
0
  0
LINE
  8
1
 62
7
 10
1.799999999999841
 20
52.5
 30
0
 11
14.49999999999977
 21
52.5
 31
0
  0
LINE
  8
1
 62
7
 10
22.49999999999978
 20
44.75000000000001
 30
0
 11
15.49999999999977
 21
44.75000000000001
 31
0
  0
LINE
  8
1
 62
7
 10
23.49999999999978
 20
20.00000000000001
 30
0
 11
23.49999999999978
 21
43.75000000000001
 31
0
  0
LINE
  8
1
 62
7
 10
24.69999999999978
 20
38.00000000000001
 30
0
 11
23.49999999999978
 21
38.00000000000001
 31
0
  0
LINE
  8
1
 62
7
 10
24.69999999999978
 20
22
 30
0
 11
23.49999999999978
 21
22
 31
0
  0
LINE
  8
1
 62
7
 10
-2.273736754432321e-013
 20
-42.00006515592036
 30
0
 11
-2.273736754432321e-013
 21
-72.75000000000009
 31
0
  0
LINE
  8
1
 62
7
 10
-0.2000000000001592
 20
50.5
 30
0
 11
-0.2000000000001592
 21
-42.00006515592036
 31
0
  0
LINE
  8
1
 62
3
  6
DASHDOT
 10
-8.200000000000159
 20
0
 30
0
 11
-0.2000000000000455
 21
0
 31
0
  0
LINE
  8
1
 62
7
 10
3.799999999999841
 20
31
 30
0
 11
-0.2000000000001592
 21
31
 31
0
  0
LINE
  8
1
 62
7
 10
15.49999999999977
 20
26.5
 30
0
 11
3.799999999999841
 21
26.5
 31
0
  0
LINE
  8
1
 62
7
 10
3.799999999999841
 20
-31.00000000000001
 30
0
 11
-0.2000000000001592
 21
-31.00000000000001
 31
0
  0
LINE
  8
1
 62
7
 10
15.49999999999977
 20
-26.5
 30
0
 11
3.799999999999841
 21
-26.5
 31
0
  0
LINE
  8
1
 62
7
 10
33.99999999999984
 20
-20
 30
0
 11
3.799999999999841
 21
-20
 31
0
  0
LINE
  8
1
 62
7
 10
25.89999999999994
 20
-20
 30
0
 11
25.8999999999997
 21
-83.99999999999997
 31
0
  0
LINE
  8
1
 62
7
 10
15.49999999999977
 20
20.00000000000001
 30
0
 11
15.49999999999977
 21
51.50000000000001
 31
0
  0
LINE
  8
1
 62
7
 10
15.49999999999977
 20
-20
 30
0
 11
15.49999999999977
 21
-45.25000000000001
 31
0
  0
LINE
  8
1
 62
3
 10
15.49999999999977
 20
37.5
 30
0
 11
-0.2000000000001592
 21
37.5
 31
0
  0
LINE
  8
1
 62
3
 10
-0.2000000000001592
 20
47.5
 30
0
 11
15.49999999999977
 21
47.5
 31
0
  0
LINE
  8
1
 62
7
 10
15.49999999999977
 20
38.5
 30
0
 11
-0.2000000000001592
 21
38.5
 31
0
  0
LINE
  8
1
 62
7
 10
-0.2000000000001592
 20
46.5
 30
0
 11
15.49999999999977
 21
46.5
 31
0
  0
LINE
  8
1
 62
3
  6
DASHDOT
 10
18.49999999999978
 20
42.5
 30
0
 11
-3.200000000000159
 21
42.5
 31
0
  0
LINE
  8
1
 62
7
 10
115.1999999999998
 20
-59.99999999999998
 30
0
 11
114.1999999999998
 21
-59.99999999999998
 31
0
  0
LINE
  8
1
 62
7
 10
114.1999999999998
 20
-59.99999999999998
 30
0
 11
114.1999999999998
 21
-84.60000000000008
 31
0
  0
LINE
  8
1
 62
3
  6
DASHDOT
 10
141.2999999999998
 20
1.4210854715202e-014
 30
0
 11
149.2999999999998
 21
1.4210854715202e-014
 31
0
  0
LINE
  8
1
 62
7
 10
119.7999999999998
 20
31.00000000000014
 30
0
 11
129.7999999999998
 21
31.00000000000014
 31
0
  0
LINE
  8
1
 62
7
 10
119.7999999999998
 20
31.00000000000014
 30
0
 11
119.7999999999998
 21
52.50000000000013
 31
0
  0
LINE
  8
1
 62
7
 10
129.7999999999998
 20
52.50000000000013
 30
0
 11
129.7999999999998
 21
31.00000000000014
 31
0
  0
LINE
  8
1
 62
7
 10
121.5999999999997
 20
18.00000000000013
 30
0
 11
121.5999999999997
 21
31.00000000000014
 31
0
  0
LINE
  8
1
 62
7
 10
127.9999999999999
 20
31.00000000000014
 30
0
 11
127.9999999999999
 21
18.00000000000013
 31
0
  0
LINE
  8
1
 62
3
 10
120.7999999999998
 20
18.00000000000013
 30
0
 11
120.7999999999998
 21
31.00000000000014
 31
0
  0
LINE
  8
1
 62
3
 10
128.7999999999998
 20
31.00000000000014
 30
0
 11
128.7999999999998
 21
18.00000000000013
 31
0
  0
LINE
  8
1
 62
7
 10
116.5999999999997
 20
51.50000000000013
 30
0
 11
116.5999999999997
 21
37.00000000000014
 31
0
  0
LINE
  8
1
 62
7
 10
132.0999999999997
 20
52.50000000000013
 30
0
 11
117.5999999999997
 21
52.50000000000013
 31
0
  0
LINE
  8
1
 62
7
 10
133.0999999999997
 20
37.00000000000014
 30
0
 11
133.0999999999997
 21
51.50000000000013
 31
0
  0
LINE
  8
1
 62
7
 10
140.2999999999998
 20
36.00000000000014
 30
0
 11
134.0999999999997
 21
36.00000000000014
 31
0
  0
LINE
  8
1
 62
7
 10
133.0999999999997
 20
-36.99999999999998
 30
0
 11
133.0999999999997
 21
-44.24999999999989
 31
0
  0
LINE
  8
1
 62
7
 10
140.2999999999998
 20
-35.99999999999998
 30
0
 11
134.0999999999997
 21
-35.99999999999998
 31
0
  0
LINE
  8
1
 62
7
 10
116.3999999999999
 20
-67.99999999999997
 30
0
 11
117.5999999999997
 21
-67.99999999999997
 31
0
  0
LINE
  8
1
 62
7
 10
116.3999999999999
 20
-51.99999999999998
 30
0
 11
117.5999999999997
 21
-51.99999999999998
 31
0
  0
LINE
  8
1
 62
7
 10
117.5999999999997
 20
-73.74999999999997
 30
0
 11
117.5999999999997
 21
-36.99999999999998
 31
0
  0
LINE
  8
1
 62
7
 10
121.5999999999997
 20
-74.74999999999997
 30
0
 11
118.5999999999997
 21
-74.74999999999997
 31
0
  0
LINE
  8
1
 62
7
 10
122.5999999999997
 20
-76.99999999999997
 30
0
 11
122.5999999999997
 21
-75.74999999999997
 31
0
  0
LINE
  8
1
 62
7
 10
132.0999999999997
 20
-77.99999999999997
 30
0
 11
123.5999999999997
 21
-77.99999999999997
 31
0
  0
LINE
  8
1
 62
7
 10
133.0999999999997
 20
-75.74999999999997
 30
0
 11
133.0999999999997
 21
-76.99999999999997
 31
0
  0
LINE
  8
1
 62
7
 10
140.0999999999997
 20
-74.74999999999997
 30
0
 11
134.0999999999997
 21
-74.74999999999997
 31
0
  0
LINE
  8
1
 62
7
 10
134.0999999999997
 20
-45.24999999999989
 30
0
 11
140.0999999999997
 21
-45.24999999999989
 31
0
  0
LINE
  8
1
 62
7
 10
111.2999999999998
 20
-35.99999999999998
 30
0
 11
116.5999999999997
 21
-35.99999999999998
 31
0
  0
LINE
  8
1
 62
7
 10
111.2999999999998
 20
36.00000000000014
 30
0
 11
115.5999999999997
 21
36.00000000000014
 31
0
  0
LINE
  8
1
 62
7
 10
110.2999999999998
 20
-30.99999999999998
 30
0
 11
110.2999999999998
 21
-34.99999999999998
 31
0
  0
LINE
  8
1
 62
7
 10
110.2999999999998
 20
31.00000000000014
 30
0
 11
110.2999999999998
 21
35.00000000000014
 31
0
  0
LINE
  8
1
 62
7
 10
141.2999999999998
 20
-34.99999999999998
 30
0
 11
141.2999999999998
 21
35.00000000000014
 31
0
  0
LINE
  8
1
 62
7
 10
3.799999999999841
 20
-15
 30
0
 11
141.2999999999998
 21
-14.9999999999999
 31
0
  0
LINE
  8
1
 62
7
 10
115.1999999999998
 20
-83.99999999999997
 30
0
 11
115.1999999999997
 21
-35.99999999999999
 31
0
  0
LINE
  8
1
 62
7
 10
91.42429819099755
 20
109.4465220827082
 30
0
 11
93.82429819099764
 21
109.4465220827082
 31
0
  0
LINE
  8
1
 62
7
 10
107.2999999999998
 20
42.00000000000002
 30
0
 11
97.79999999999984
 21
42.00000000000002
 31
0
  0
LINE
  8
1
 62
7
 10
89.29999999999984
 20
-84.50000000000017
 30
0
 11
107.2999999999998
 21
-84.50000000000017
 31
0
  0
LINE
  8
1
 62
7
 10
107.7999999999996
 20
41.50000000000014
 30
0
 11
115.1999999999997
 21
41.50000000000014
 31
0
  0
LINE
  8
1
 62
7
 10
114.1999999999997
 20
60.00000000000001
 30
0
 11
115.1999999999997
 21
60.00000000000001
 31
0
  0
LINE
  8
1
 62
7
 10
115.1999999999997
 20
60.00000000000001
 30
0
 11
115.1999999999997
 21
36.00000000000014
 31
0
  0
LINE
  8
1
 62
7
 10
114.1999999999997
 20
84.00000000000001
 30
0
 11
115.3999999999998
 21
84.00000000000001
 31
0
  0
LINE
  8
1
 62
7
 10
115.3999999999998
 20
63.89003380467393
 30
0
 11
116.3999999999998
 21
60.15798299710504
 31
0
  0
LINE
  8
1
 62
7
 10
116.3999999999998
 20
60.15798299710504
 30
0
 11
116.3999999999998
 21
36.40000000000023
 31
0
  0
LINE
  8
1
 62
7
 10
114.1999999999997
 20
63.73205080756892
 30
0
 11
115.1999999999997
 21
60.00000000000001
 31
0
  0
LINE
  8
1
 62
7
 10
115.3999999999998
 20
82.50000000000001
 30
0
 11
118.6999999999997
 21
82.50000000000001
 31
0
  0
LINE
  8
1
 62
7
 10
119.1999999999997
 20
69.00000000000001
 30
0
 11
119.1999999999997
 21
82.00000000000001
 31
0
  0
LINE
  8
1
 62
7
 10
115.3999999999998
 20
68.50000000000001
 30
0
 11
118.6999999999997
 21
68.50000000000001
 31
0
  0
LINE
  8
1
 62
7
 10
116.3999999999998
 20
82.50000000000001
 30
0
 11
116.3999999999998
 21
68.50000000000001
 31
0
  0
LINE
  8
1
 62
7
 10
118.6999999999997
 20
68.50000000000001
 30
0
 11
119.1999999999997
 21
69.00000000000001
 31
0
  0
LINE
  8
1
 62
7
 10
119.1999999999997
 20
82.00000000000001
 30
0
 11
118.6999999999997
 21
82.50000000000001
 31
0
  0
LINE
  8
1
 62
7
 10
114.1999999999997
 20
67.00000000000001
 30
0
 11
115.3999999999998
 21
67.00000000000001
 31
0
  0
LINE
  8
1
 62
7
 10
115.1999999999998
 20
-41.49999999999998
 30
0
 11
107.7999999999997
 21
-41.49999999999998
 31
0
  0
LINE
  8
1
 62
7
 10
115.1999999999998
 20
-83.99999999999997
 30
0
 11
116.3999999999999
 21
-83.99999999999997
 31
0
  0
LINE
  8
1
 62
7
 10
115.1999999999998
 20
-73.32981656940046
 30
0
 11
116.3999999999999
 21
-73.32981656940046
 31
0
  0
LINE
  8
1
 62
7
 10
115.1999999999998
 20
-49.49999999999998
 30
0
 11
116.3999999999999
 21
-49.49999999999998
 31
0
  0
LINE
  8
1
 62
7
 10
116.3999999999999
 20
-83.99999999999997
 30
0
 11
116.3999999999999
 21
-35.99999999999999
 31
0
  0
LINE
  8
1
 62
7
 10
71.19999999999993
 20
78
 30
0
 11
68.49999999999984
 21
78
 31
0
  0
LINE
  8
1
 62
7
 10
68.49999999999984
 20
78
 30
0
 11
68.49999999999984
 21
42.50000000000001
 31
0
  0
LINE
  8
1
 62
7
 10
70.29999999999984
 20
78
 30
0
 11
70.29999999999984
 21
141.9999999999999
 31
0
  0
LINE
  8
1
 62
7
 10
70.29999999999984
 20
141.9999999999999
 30
0
 11
80.29999999999984
 21
141.9999999999999
 31
0
  0
LINE
  8
1
 62
7
 10
70.29999999999984
 20
133
 30
0
 11
80.29999999999984
 21
133
 31
0
  0
LINE
  8
1
 62
7
 10
80.29999999999984
 20
117
 30
0
 11
70.29999999999984
 21
117
 31
0
  0
LINE
  8
1
 62
7
 10
82.99999999999966
 20
81.4305172142484
 30
0
 11
82.99999999999966
 21
33.50000000000002
 31
0
  0
LINE
  8
1
 62
7
 10
80.29999999999984
 20
141.9999999999999
 30
0
 11
80.29999999999984
 21
33.50000000000002
 31
0
  0
LINE
  8
1
 62
7
 10
71.19999999999993
 20
-38.75000000000001
 30
0
 11
80.29999999999984
 21
-38.75000000000001
 31
0
  0
LINE
  8
1
 62
7
 10
68.49999999999984
 20
-78.00000000000009
 30
0
 11
82.99999999999966
 21
-78.00000000000009
 31
0
  0
LINE
  8
1
 62
7
 10
82.99999999999966
 20
78
 30
0
 11
80.29999999999984
 21
78
 31
0
  0
LINE
  8
1
 62
7
 10
80.29999999999984
 20
38.74999999999999
 30
0
 11
71.19999999999993
 21
38.74999999999999
 31
0
  0
LINE
  8
1
 62
7
 10
97.79999999999981
 20
-41.99999999999998
 30
0
 11
107.2999999999998
 21
-41.99999999999998
 31
0
  0
LINE
  8
1
 62
7
 10
83.69999999999993
 20
33.50000000000001
 30
0
 11
71.19999999999993
 21
33.50000000000002
 31
0
  0
LINE
  8
1
 62
7
 10
83.69999999999993
 20
-33.49999999999998
 30
0
 11
71.19999999999993
 21
-33.49999999999998
 31
0
  0
LINE
  8
1
 62
7
 10
58.19999999999993
 20
-33.50000000000001
 30
0
 11
52.29999999999993
 21
-33.50000000000001
 31
0
  0
LINE
  8
1
 62
7
 10
52.29999999999993
 20
33.50000000000001
 30
0
 11
58.19999999999994
 21
33.50000000000001
 31
0
  0
LINE
  8
1
 62
7
 10
52.29999999999993
 20
41.60000000000001
 30
0
 11
40.79999999999981
 21
41.60000000000001
 31
0
  0
LINE
  8
1
 62
7
 10
52.29999999999993
 20
41.60000000000001
 30
0
 11
52.29999999999993
 21
33.50000000000001
 31
0
  0
LINE
  8
1
 62
7
 10
52.29999999999993
 20
-41.59999999999999
 30
0
 11
52.29999999999993
 21
-33.50000000000001
 31
0
  0
LINE
  8
1
 62
7
 10
141.2999999999998
 20
18.00000000000013
 30
0
 11
33.99999999999987
 21
18.00000000000001
 31
0
  0
LINE
  8
1
 62
7
 10
26.8999999999997
 20
-84.60000000000008
 30
0
 11
33.2999999999998
 21
-84.60000000000008
 31
0
  0
LINE
  8
1
 62
7
 10
24.69999999999978
 20
-83.99999999999997
 30
0
 11
24.69999999999978
 21
-20
 31
0
  0
LINE
  8
1
 62
7
 10
25.8999999999997
 20
-60.00000000000001
 30
0
 11
26.8999999999997
 21
-60.00000000000001
 31
0
  0
LINE
  8
1
 62
7
 10
26.8999999999997
 20
-60.00000000000001
 30
0
 11
26.8999999999997
 21
-84.60000000000008
 31
0
  0
LINE
  8
1
 62
7
 10
114.1999999999998
 20
-84.60000000000008
 30
0
 11
107.7999999999997
 21
-84.60000000000008
 31
0
  0
LINE
  8
1
 62
7
 10
107.7999999999997
 20
-84.60000000000008
 30
0
 11
107.7999999999997
 21
-29.99999999999998
 31
0
  0
LINE
  8
1
 62
7
 10
114.1999999999997
 20
84.59999999999999
 30
0
 11
107.7999999999996
 21
84.59999999999999
 31
0
  0
LINE
  8
1
 62
7
 10
107.7999999999996
 20
84.59999999999999
 30
0
 11
107.7999999999997
 21
30.00000000000016
 31
0
  0
LINE
  8
1
 62
7
 10
33.2999999999998
 20
84.59999999999999
 30
0
 11
26.8999999999997
 21
84.59999999999999
 31
0
  0
LINE
  8
1
 62
7
 10
1.999999999999773
 20
-43.00003257849064
 30
0
 11
1.999999999999773
 21
-44.25000000000004
 31
0
  0
LINE
  8
1
 62
7
 10
0.9999999999997726
 20
-45.25000000000004
 30
0
 11
-2.273736754432321e-013
 21
-45.25000000000004
 31
0
  0
LINE
  8
1
 62
7
 10
58.19999999999993
 20
30
 30
0
 11
96.69999999999993
 21
30
 31
0
  0
LINE
  8
1
 62
7
 10
58.19999999999993
 20
-30.00000000000001
 30
0
 11
96.69999999999993
 21
-30.00000000000001
 31
0
  0
LINE
  8
1
 62
7
 10
71.19999999999993
 20
-30.00000000000001
 30
0
 11
71.19999999999993
 21
-78.00000000000009
 31
0
  0
LINE
  8
1
 62
7
 10
82.99999999999966
 20
-81.43051721424837
 30
0
 11
82.99999999999989
 21
-33.49999999999998
 31
0
  0
LINE
  8
1
 62
7
 10
3.799999999999841
 20
20.00000000000001
 30
0
 11
33.99999999999984
 21
20.00000000000001
 31
0
  0
LINE
  8
1
 62
7
 10
3.999999999999886
 20
15.00000000000001
 30
0
 11
141.2999999999998
 21
14.99999999999991
 31
0
  0
LINE
  8
1
 62
7
 10
3.799999999999841
 20
31
 30
0
 11
3.799999999999841
 21
-31.00000000000001
 31
0
  0
LINE
  8
1
 62
7
 10
80.29999999999984
 20
42.50000000000001
 30
0
 11
82.99999999999966
 21
42.50000000000001
 31
0
  0
LINE
  8
1
 62
7
 10
58.19999999999993
 20
37.25000000000002
 30
0
 11
56.19999999999993
 21
37.25000000000002
 31
0
  0
LINE
  8
1
 62
7
 10
56.19999999999993
 20
44.25000000000002
 30
0
 11
56.19999999999993
 21
34.70138642001313
 31
0
  0
LINE
  8
1
 62
7
 10
56.19999999999993
 20
44.25000000000002
 30
0
 11
58.19999999999993
 21
44.25000000000002
 31
0
  0
LINE
  8
1
 62
7
 10
56.19999999999993
 20
42.5
 30
0
 11
43.29999999999984
 21
42.50000000000002
 31
0
  0
LINE
  8
1
 62
7
 10
58.19999999999993
 20
-30.00000000000001
 30
0
 11
58.19999999999993
 21
-44.24999999999998
 31
0
  0
LINE
  8
1
 62
7
 10
58.19999999999993
 20
-44.24999999999998
 30
0
 11
56.19999999999993
 21
-44.24999999999998
 31
0
  0
LINE
  8
1
 62
7
 10
56.19999999999993
 20
-37.24999999999998
 30
0
 11
58.19999999999993
 21
-37.24999999999998
 31
0
  0
LINE
  8
1
 62
7
 10
56.19999999999993
 20
-42.49999999999998
 30
0
 11
43.29999999999984
 21
-42.49999999999996
 31
0
  0
LINE
  8
1
 62
7
 10
56.19999999999993
 20
-34.37379610612543
 30
0
 11
56.19999999999993
 21
-44.24999999999998
 31
0
  0
LINE
  8
1
 62
7
 10
96.69999999999993
 20
32.50000000000003
 30
0
 11
97.94999999999993
 21
32.50000000000002
 31
0
  0
LINE
  8
1
 62
7
 10
97.94999999999993
 20
32.50000000000002
 30
0
 11
97.94999999999993
 21
29.00000000000002
 31
0
  0
LINE
  8
1
 62
7
 10
96.69999999999993
 20
29.00000000000003
 30
0
 11
97.94999999999993
 21
29.00000000000002
 31
0
  0
LINE
  8
1
 62
7
 10
97.94999999999993
 20
30.00000000000005
 30
0
 11
109.2999999999998
 21
30.00000000000014
 31
0
  0
LINE
  8
1
 62
7
 10
96.69999999999993
 20
-28.99999999999997
 30
0
 11
97.94999999999993
 21
-28.99999999999998
 31
0
  0
LINE
  8
1
 62
7
 10
97.94999999999993
 20
-28.99999999999998
 30
0
 11
97.94999999999993
 21
-32.49999999999998
 31
0
  0
LINE
  8
1
 62
7
 10
97.94999999999993
 20
-32.49999999999998
 30
0
 11
96.69999999999993
 21
-32.49999999999997
 31
0
  0
LINE
  8
1
 62
7
 10
97.94999999999993
 20
-30.00000000000001
 30
0
 11
109.2999999999998
 21
-29.99999999999998
 31
0
  0
LINE
  8
1
 62
7
 10
80.29999999999984
 20
-42.50000000000001
 30
0
 11
82.99999999999966
 21
-42.50000000000001
 31
0
  0
LINE
  8
1
 62
7
 10
80.29999999999984
 20
-33.49999999999998
 30
0
 11
80.29999999999984
 21
-78.00000000000009
 31
0
  0
LINE
  8
1
 62
7
 10
68.50000000000011
 20
383.8177547927767
 30
0
 11
66.50000000000011
 21
381.8177547927767
 31
0
  0
LINE
  8
1
 62
7
 10
68.50000000000011
 20
385.8177547927767
 30
0
 11
66.50000000000011
 21
383.8177547927767
 31
0
  0
LINE
  8
1
 62
7
 10
68.50000000000011
 20
376.1177547927769
 30
0
 11
66.50000000000011
 21
376.1177547927769
 31
0
  0
LINE
  8
1
 62
7
 10
66.50000000000011
 20
391.5177547927767
 30
0
 11
68.50000000000011
 21
391.5177547927767
 31
0
  0
LINE
  8
1
 62
7
 10
68.50000000000011
 20
249.4674663673327
 30
0
 11
66.50000000000011
 21
247.4674663673327
 31
0
  0
LINE
  8
1
 62
7
 10
68.50000000000011
 20
251.4674663673327
 30
0
 11
66.50000000000011
 21
249.4674663673327
 31
0
  0
LINE
  8
1
 62
7
 10
68.50000000000011
 20
241.7674663673327
 30
0
 11
66.50000000000011
 21
241.7674663673327
 31
0
  0
LINE
  8
1
 62
7
 10
66.50000000000011
 20
257.1674663673327
 30
0
 11
68.50000000000011
 21
257.1674663673327
 31
0
  0
LINE
  8
1
 62
7
 10
311.1000000000003
 20
109.4465220827082
 30
0
 11
311.1000000000003
 21
84.59999999999998
 31
0
  0
ARC
  8
1
 62
7
 10
311.1000000000003
 20
1.4210854715202e-014
 30
0
 40
105.5
 50
42.32507442037279
 51
47.67492557962726
  0
ARC
  8
1
 62
7
 10
311.1000000000003
 20
1.4210854715202e-014
 30
0
 40
105.5
 50
132.3250744203727
 51
137.6749255796272
  0
ARC
  8
1
 62
7
 10
311.1000000000003
 20
1.4210854715202e-014
 30
0
 40
105.5
 50
222.3250744203728
 51
227.6749255796273
  0
ARC
  8
1
 62
7
 10
311.1000000000003
 20
1.4210854715202e-014
 30
0
 40
105.5
 50
312.3250744203728
 51
317.6749255796272
  0
ARC
  8
1
 62
7
 10
259.1384757729343
 20
30.00000000000005
 30
0
 40
17.99999999999991
 50
60.98481970206447
 51
239.0151802979347
  0
ARC
  8
1
 62
7
 10
363.0615242270673
 20
30.00000000000005
 30
0
 40
17.99999999999963
 50
300.9848197020617
 51
119.0151802979364
  0
ARC
  8
1
 62
7
 10
311.1000000000003
 20
1.4210854715202e-014
 30
0
 40
52.50000000000018
 50
300.7013294009987
 51
359.2986705990015
  0
ARC
  8
1
 62
7
 10
311.1000000000003
 20
-59.99999999999998
 30
0
 40
17.99999999999938
 50
180.9848197020638
 51
359.0151802979362
  0
ARC
  8
1
 62
7
 10
62.79654036638738
 20
389.4427547927767
 30
0
 40
2.796540366387262
 50
137.8965511292544
 51
222.1034488707456
  0
ARC
  8
1
 62
7
 10
70.1036297108185
 20
383.8177547927767
 30
0
 40
10.10362971081838
 50
158.2132107017381
 51
201.786789298262
  0
ARC
  8
1
 62
7
 10
62.79654036638738
 20
378.1927547927767
 30
0
 40
2.796540366387262
 50
137.8965511292544
 51
222.1034488707456
  0
ARC
  8
1
 62
7
 10
85.61640603833689
 20
378.1927547927767
 30
0
 40
2.883593961663336
 50
319.4410366046747
 51
40.55896339532532
  0
ARC
  8
1
 62
7
 10
78.00485463788834
 20
383.8177547927767
 30
0
 40
10.49514536211189
 50
339.0650336481454
 51
20.93496635185467
  0
ARC
  8
1
 62
7
 10
85.61640603833689
 20
389.4427547927767
 30
0
 40
2.883593961663336
 50
319.4410366046747
 51
40.55896339532532
  0
ARC
  8
1
 62
7
 10
62.79654036638738
 20
255.0924663673327
 30
0
 40
2.796540366387262
 50
137.8965511292544
 51
222.1034488707456
  0
ARC
  8
1
 62
7
 10
70.1036297108185
 20
249.4674663673327
 30
0
 40
10.10362971081838
 50
158.2132107017381
 51
201.786789298262
  0
ARC
  8
1
 62
7
 10
62.79654036638738
 20
243.8424663673327
 30
0
 40
2.796540366387262
 50
137.8965511292544
 51
222.1034488707456
  0
ARC
  8
1
 62
7
 10
85.61640603833689
 20
243.8424663673327
 30
0
 40
2.883593961663336
 50
319.4410366046747
 51
40.55896339532532
  0
ARC
  8
1
 62
7
 10
78.00485463788834
 20
249.4674663673327
 30
0
 40
10.49514536211189
 50
339.0650336481454
 51
20.93496635185467
  0
ARC
  8
1
 62
7
 10
85.61640603833689
 20
255.0924663673327
 30
0
 40
2.883593961663336
 50
319.4410366046747
 51
40.55896339532532
  0
ARC
  8
1
 62
7
 10
-241.1751442127218
 20
67.17514421272203
 30
0
 40
6.500000000000027
 50
336.8536547231929
 51
293.1463452768095
  0
ARC
  8
1
 62
7
 10
-241.1751442127218
 20
-67.17514421272203
 30
0
 40
6.500000000000135
 50
66.85365472319097
 51
23.14634527680735
  0
ARC
  8
1
 62
7
 10
-106.8248557872778
 20
-67.17514421272203
 30
0
 40
6.499999999999957
 50
156.8536547231921
 51
113.1463452768066
  0
ARC
  8
1
 62
7
 10
-106.8248557872778
 20
67.17514421272203
 30
0
 40
6.499999999999965
 50
246.8536547231932
 51
203.1463452768079
  0
ARC
  8
1
 62
7
 10
-85.66540881398726
 20
50.99999999999999
 30
0
 40
28.67018343059935
 50
230.074852048045
 51
232.6998381686426
  0
ARC
  8
1
 62
7
 10
-127
 20
-2.131628207280301e-014
 30
0
 40
37
 50
359.9999999999999
 51
49.64006324378049
  0
ARC
  8
1
 62
7
 10
-173.9999999999998
 20
1.4210854715202e-014
 30
0
 40
83.99999999999999
 50
299.9999999999998
 51
359.9999999999999
  0
ARC
  8
1
 62
7
 10
-173.9999999999998
 20
1.4210854715202e-014
 30
0
 40
66.99999999999994
 50
304.9999999999999
 51
354.9999999999999
  0
ARC
  8
1
 62
7
 10
-173.9999999999998
 20
1.4210854715202e-014
 30
0
 40
84.00000000000001
 50
60.00000000000001
 51
120
  0
ARC
  8
1
 62
7
 10
-154.9821782216688
 20
40.78385041664927
 30
0
 40
22.00000000000061
 50
9.932990929466115
 51
64.99999999999859
  0
ARC
  8
1
 62
7
 10
-150.4999999999998
 20
40.70319397786864
 30
0
 40
36.99999999999972
 50
10.35993675621953
 51
60.00000000000001
  0
ARC
  8
1
 62
7
 10
-173.9999999999998
 20
-102.0000000000001
 30
0
 40
28.67018343059947
 50
110.0748520480449
 51
112.6998381686433
  0
ARC
  8
1
 62
7
 10
-197.4999999999998
 20
-40.70319397786859
 30
0
 40
37
 50
240
 51
289.6400632437799
  0
ARC
  8
1
 62
7
 10
-173.9999999999998
 20
1.4210854715202e-014
 30
0
 40
67.00000000000036
 50
185
 51
235
  0
ARC
  8
1
 62
7
 10
-148.1890603642028
 20
-36.86184199300461
 30
0
 40
21.99999999999986
 50
249.9329909294674
 51
304.9999999999997
  0
ARC
  8
1
 62
7
 10
-150.4999999999998
 20
-40.70319397786859
 30
0
 40
37.00000000000017
 50
250.3599367562188
 51
299.9999999999997
  0
ARC
  8
1
 62
7
 10
-220.9999999999998
 20
0
 30
0
 40
37.00000000000037
 50
130.3599367562201
 51
180
  0
ARC
  8
1
 62
7
 10
-218.8287614141288
 20
-3.922008423644612
 30
0
 40
21.99999999999994
 50
129.932990929466
 51
185.0000000000001
  0
ARC
  8
1
 62
7
 10
-173.9999999999998
 20
1.4210854715202e-014
 30
0
 40
84.00000000000043
 50
180
 51
240
  0
ARC
  8
1
 62
7
 10
-173.9999999999998
 20
1.4210854715202e-014
 30
0
 40
67.0000000000001
 50
64.9999999999999
 51
115
  0
ARC
  8
1
 62
7
 10
-197.4999999999998
 20
40.70319397786864
 30
0
 40
37.00000000000001
 50
120
 51
169.6400632437805
  0
ARC
  8
1
 62
7
 10
-262.3345911860126
 20
51.00000000000226
 30
0
 40
28.67018343059968
 50
350.0748520480403
 51
352.6998381686382
  0
ARC
  8
1
 62
7
 10
-122.0384757729337
 20
30.00000000000001
 30
0
 40
18.0000000000001
 50
56.78442709140492
 51
119.0151802979364
  0
ARC
  8
1
 62
7
 10
-225.9615242270668
 20
30.00000000000002
 30
0
 40
17.99999999999959
 50
176.7844270914079
 51
239.0151802979381
  0
ARC
  8
1
 62
7
 10
-173.9999999999998
 20
-59.99999999999999
 30
0
 40
17.99999999999932
 50
296.7844270914005
 51
359.015180297936
  0
ARC
  8
1
 62
7
 10
-173.9999999999998
 20
-59.99999999999999
 30
0
 40
17.99999999999984
 50
59.071850655022
 51
120.9281493449806
  0
ARC
  8
1
 62
7
 10
-85.66540881398726
 20
50.99999999999999
 30
0
 40
28.67018343059946
 50
187.3001618313574
 51
189.9251479519549
  0
ARC
  8
1
 62
7
 10
-129.1712385858717
 20
-3.922008423644627
 30
0
 40
22.00000000000029
 50
354.9999999999998
 51
50.06700907053349
  0
ARC
  8
1
 62
7
 10
-173.9999999999998
 20
1.4210854715202e-014
 30
0
 40
59.99999999999987
 50
287.7943629479913
 51
12.2056370520084
  0
ARC
  8
1
 62
7
 10
-173.9999999999998
 20
-102.0000000000001
 30
0
 40
28.67018343059931
 50
67.3001618313584
 51
69.925147951955
  0
ARC
  8
1
 62
7
 10
-173.9999999999998
 20
1.4210854715202e-014
 30
0
 40
59.99999999999974
 50
167.7943629479915
 51
252.2056370520079
  0
ARC
  8
1
 62
7
 10
-199.8109396357968
 20
-36.8618419930046
 30
0
 40
22.00000000000055
 50
234.9999999999998
 51
290.0670090705328
  0
ARC
  8
1
 62
7
 10
-193.0178217783318
 20
40.78385041664927
 30
0
 40
21.99999999999979
 50
114.9999999999988
 51
170.0670090705334
  0
ARC
  8
1
 62
7
 10
-173.9999999999998
 20
1.4210854715202e-014
 30
0
 40
60.00000000000016
 50
47.7943629479915
 51
132.2056370520084
  0
ARC
  8
1
 62
7
 10
-262.3345911860129
 20
51.00000000000001
 30
0
 40
28.67018343059926
 50
307.3001618313572
 51
309.9251479519556
  0
ARC
  8
1
 62
7
 10
-173.9999999999998
 20
1.4210854715202e-014
 30
0
 40
105.4999999999999
 50
42.32507442037286
 51
47.67492557962731
  0
ARC
  8
1
 62
7
 10
-173.9999999999998
 20
1.4210854715202e-014
 30
0
 40
105.4999999999998
 50
312.3250744203726
 51
317.6749255796271
  0
ARC
  8
1
 62
7
 10
-173.9999999999998
 20
1.4210854715202e-014
 30
0
 40
105.5
 50
222.3250744203728
 51
227.6749255796274
  0
ARC
  8
1
 62
7
 10
-174.0000000000016
 20
-1.719513420539442e-012
 30
0
 40
105.4999999999998
 50
132.3250744203713
 51
137.6749255796259
  0
ARC
  8
1
 62
7
 10
285.2890603642033
 20
-36.86184199300457
 30
0
 40
21.99999999999998
 50
235
 51
290.0670090705328
  0
ARC
  8
1
 62
7
 10
311.1000000000003
 20
1.4210854715202e-014
 30
0
 40
59.99999999999974
 50
167.7943629479916
 51
252.2056370520087
  0
ARC
  8
1
 62
7
 10
311.1000000000003
 20
-102.0000000000001
 30
0
 40
28.67018343059976
 50
67.3001618313568
 51
69.92514795195559
  0
ARC
  8
1
 62
7
 10
292.0821782216692
 20
40.78385041664921
 30
0
 40
22.00000000000039
 50
115.0000000000014
 51
170.0670090705335
  0
ARC
  8
1
 62
7
 10
311.1000000000003
 20
1.4210854715202e-014
 30
0
 40
59.99999999999998
 50
47.79436294799175
 51
132.2056370520078
  0
ARC
  8
1
 62
7
 10
222.7654088139882
 20
51.00000000000004
 30
0
 40
28.67018343059919
 50
307.300161831357
 51
309.9251479519555
  0
ARC
  8
1
 62
7
 10
355.9287614141292
 20
-3.92200842364457
 30
0
 40
21.99999999999961
 50
354.9999999999998
 51
50.06700907053337
  0
ARC
  8
1
 62
7
 10
399.4345911860135
 20
50.99999999999831
 30
0
 40
28.67018343059962
 50
187.3001618313539
 51
189.9251479519515
  0
ARC
  8
1
 62
7
 10
399.4345911860117
 20
51.00000000000127
 30
0
 40
28.67018343059952
 50
230.0748520480488
 51
232.6998381686468
  0
ARC
  8
1
 62
7
 10
358.1000000000003
 20
1.4210854715202e-014
 30
0
 40
37
 50
359.9999999999999
 51
49.64006324378008
  0
ARC
  8
1
 62
7
 10
330.1178217783322
 20
40.78385041664921
 30
0
 40
21.99999999999979
 50
9.932990929466717
 51
65.00000000000108
  0
ARC
  8
1
 62
7
 10
334.6000000000003
 20
40.70319397786863
 30
0
 40
37
 50
10.35993675621953
 51
60.00000000000009
  0
ARC
  8
1
 62
7
 10
311.1000000000003
 20
-102.0000000000001
 30
0
 40
28.67018343059955
 50
110.0748520480448
 51
112.6998381686414
  0
ARC
  8
1
 62
7
 10
287.6000000000003
 20
-40.70319397786856
 30
0
 40
36.99999999999993
 50
239.9999999999999
 51
289.6400632437814
  0
ARC
  8
1
 62
7
 10
311.1000000000003
 20
1.4210854715202e-014
 30
0
 40
66.99999999999992
 50
304.9999999999999
 51
355
  0
ARC
  8
1
 62
7
 10
311.1000000000003
 20
1.4210854715202e-014
 30
0
 40
83.99999999999992
 50
300.0000000000001
 51
359.9999999999999
  0
ARC
  8
1
 62
7
 10
336.9109396357973
 20
-36.86184199300457
 30
0
 40
21.99999999999995
 50
249.9329909294668
 51
304.9999999999996
  0
ARC
  8
1
 62
7
 10
334.6000000000003
 20
-40.70319397786856
 30
0
 40
36.99999999999979
 50
250.3599367562201
 51
300.0000000000001
  0
ARC
  8
1
 62
7
 10
264.1000000000003
 20
1.4210854715202e-014
 30
0
 40
36.99999999999982
 50
130.359936756219
 51
180
  0
ARC
  8
1
 62
7
 10
266.2712385858722
 20
-3.92200842364457
 30
0
 40
21.99999999999986
 50
129.9329909294662
 51
184.9999999999999
  0
ARC
  8
1
 62
7
 10
311.1000000000003
 20
1.4210854715202e-014
 30
0
 40
83.9999999999998
 50
180
 51
240
  0
ARC
  8
1
 62
7
 10
311.1000000000003
 20
1.4210854715202e-014
 30
0
 40
66.99999999999945
 50
184.9999999999999
 51
235
  0
ARC
  8
1
 62
7
 10
311.1000000000003
 20
1.4210854715202e-014
 30
0
 40
67.0000000000001
 50
65.00000000000001
 51
115.0000000000002
  0
ARC
  8
1
 62
7
 10
311.1000000000003
 20
1.4210854715202e-014
 30
0
 40
84.00000000000009
 50
60.00000000000003
 51
120
  0
ARC
  8
1
 62
7
 10
287.6000000000003
 20
40.70319397786874
 30
0
 40
36.99999999999994
 50
120
 51
169.6400632437807
  0
ARC
  8
1
 62
7
 10
222.7654088139857
 20
50.99999999998364
 30
0
 40
28.67018343059914
 50
350.074852048078
 51
352.6998381686755
  0
ARC
  8
1
 62
7
 10
311.1000000000003
 20
1.4210854715202e-014
 30
0
 40
60.00000000000015
 50
287.7943629479922
 51
12.20563705200824
  0
ARC
  8
1
 62
7
 10
311.1000000000003
 20
1.4210854715202e-014
 30
0
 40
52.50000000000031
 50
60.7013294009978
 51
119.2986705990012
  0
ARC
  8
1
 62
7
 10
240.6052814421293
 20
-0.8629342075021498
 30
0
 40
17.99999999999931
 50
0.7013294009984965
 51
59.01518029793833
  0
ARC
  8
1
 62
7
 10
276.5999636665562
 20
61.48168420750221
 30
0
 40
18.00000000000002
 50
240.9848197020634
 51
299.298670599002
  0
ARC
  8
1
 62
7
 10
345.6000363334453
 20
61.48168420750221
 30
0
 40
18.00000000000005
 50
240.7013294009984
 51
299.0151802979361
  0
ARC
  8
1
 62
7
 10
381.5947185578723
 20
-0.8629342075021498
 30
0
 40
18.00000000000024
 50
120.984819702065
 51
179.2986705990018
  0
ARC
  8
1
 62
7
 10
347.0946822244282
 20
-60.61874999999996
 30
0
 40
18.00000000000012
 50
120.7013294009995
 51
179.0151802979363
  0
ARC
  8
1
 62
7
 10
311.1000000000003
 20
1.4210854715202e-014
 30
0
 40
52.50000000000012
 50
180.7013294009984
 51
239.298670599002
  0
ARC
  8
1
 62
7
 10
275.1053177755732
 20
-60.61874999999996
 30
0
 40
18.00000000000046
 50
0.9848197020637722
 51
59.29867059900068
  0
ARC
  8
1
 62
7
 10
-122.0384757729337
 20
30.00000000000001
 30
0
 40
17.99999999999994
 50
300.9848197020638
 51
3.21557290859533
  0
ARC
  8
1
 62
7
 10
-173.9999999999998
 20
1.4210854715202e-014
 30
0
 40
76.50000000000007
 50
23.74447009093926
 51
36.08661310783974
  0
ARC
  8
1
 62
7
 10
-173.9999999999998
 20
1.4210854715202e-014
 30
0
 40
76.49999999999994
 50
263.9133868921616
 51
276.0866131078385
  0
ARC
  8
1
 62
7
 10
-173.9999999999998
 20
-59.99999999999999
 30
0
 40
18.00000000000026
 50
180.9848197020637
 51
243.2155729085997
  0
ARC
  8
1
 62
7
 10
-225.9615242270668
 20
30.00000000000002
 30
0
 40
17.99999999999997
 50
60.98481970206416
 51
123.2155729085927
  0
ARC
  8
1
 62
7
 10
-173.999999999999
 20
1.413980044162599e-012
 30
0
 40
76.50000000000017
 50
143.9133868921614
 51
156.0866131078416
  0
ARC
  8
1
 62
7
 10
311.1000000000003
 20
1.4210854715202e-014
 30
0
 40
14.99999999999998
 50
103.4933988215517
 51
76.50660117844828
  0
ARC
  8
1
 62
7
 10
60.49999999999984
 20
-49.99999999999996
 30
0
 40
8.000000000000007
 50
0
 51
69.63586519368207
  0
ARC
  8
1
 62
7
 10
60.49999999999984
 20
50
 30
0
 40
7.999999999999988
 50
290.364134806318
 51
0
  0
ARC
  8
1
 62
7
 10
1.999999999999883
 20
243.8926105800547
 30
0
 40
2
 50
180
 51
270
  0
ARC
  8
1
 62
7
 10
60.50000000000011
 20
240.1426105800548
 30
0
 40
8
 50
270
 51
0
  0
ARC
  8
1
 62
7
 10
60.50000000000011
 20
393.1426105800548
 30
0
 40
8.000000000000007
 50
0
 51
90
  0
ARC
  8
1
 62
7
 10
22.49999999999989
 20
360.3926105800548
 30
0
 40
1
 50
0
 51
90
  0
ARC
  8
1
 62
7
 10
14.49999999999989
 20
368.1426105800548
 30
0
 40
1
 50
0
 51
90
  0
ARC
  8
1
 62
7
 10
22.49999999999989
 20
270.3926105800547
 30
0
 40
1
 50
0
 51
90
  0
ARC
  8
1
 62
7
 10
22.49999999999989
 20
242.8926105800547
 30
0
 40
1
 50
270
 51
0
  0
ARC
  8
1
 62
7
 10
14.99999999999989
 20
240.6426105800547
 30
0
 40
0.5
 50
270
 51
0
  0
ARC
  8
1
 62
7
 10
5.499999999999881
 20
240.6426105800547
 30
0
 40
0.5
 50
180
 51
270
  0
ARC
  8
1
 62
7
 10
15.99999999999989
 20
241.3926105800547
 30
0
 40
0.5
 50
90
 51
180
  0
ARC
  8
1
 62
7
 10
4.499999999999881
 20
241.3926105800547
 30
0
 40
0.5
 50
0
 51
90
  0
ARC
  8
1
 62
7
 10
1.799999999999841
 20
367.1426105800548
 30
0
 40
2
 50
90
 51
180
  0
ARC
  8
1
 62
7
 10
22.49999999999989
 20
332.8926105800548
 30
0
 40
1
 50
270
 51
0
  0
ARC
  8
1
 62
7
 10
5.999999999999881
 20
363.616565918241
 30
0
 40
1
 50
90
 51
180
  0
ARC
  8
1
 62
7
 10
0.9999999999998828
 20
360.3926105800548
 30
0
 40
1
 50
90
 51
180
  0
ARC
  8
1
 62
7
 10
14.49999999999989
 20
363.616565918241
 30
0
 40
1
 50
0
 51
90
  0
ARC
  8
1
 62
7
 10
89.30000000000018
 20
393.1426105800548
 30
0
 40
8
 50
90
 51
141.9524925463799
  0
ARC
  8
1
 62
7
 10
89.30000000000018
 20
240.1426105800546
 30
0
 40
7.99999999999988
 50
218.0475074536193
 51
270
  0
ARC
  8
1
 62
7
 10
0.9999999999998828
 20
273.6425454241344
 30
0
 40
1
 50
0
 51
90
  0
ARC
  8
1
 62
7
 10
0.9999999999998828
 20
272.3926105800547
 30
0
 40
1
 50
270
 51
0
  0
ARC
  8
1
 62
7
 10
117.0999999999999
 20
368.6426105800549
 30
0
 40
0.5
 50
90
 51
180
  0
ARC
  8
1
 62
7
 10
116.3
 20
329.6278680966677
 30
0
 40
0.2999999999998422
 50
289.4712206344627
 51
0
  0
ARC
  8
1
 62
7
 10
117.0999999999999
 20
329.8278680966677
 30
0
 40
0.5
 50
180
 51
270
  0
ARC
  8
1
 62
7
 10
122.0999999999999
 20
328.8278680966677
 30
0
 40
0.5
 50
0
 51
90
  0
ARC
  8
1
 62
7
 10
140.7999999999998
 20
329.8278680966677
 30
0
 40
0.5
 50
270
 51
0
  0
ARC
  8
1
 62
7
 10
133.5999999999999
 20
328.8278680966677
 30
0
 40
0.5
 50
90
 51
180
  0
ARC
  8
1
 62
7
 10
122.0999999999999
 20
365.1004952151316
 30
0
 40
0.5
 50
270
 51
0
  0
ARC
  8
1
 62
7
 10
123.0999999999999
 20
368.6426105800549
 30
0
 40
0.5
 50
90
 51
180
  0
ARC
  8
1
 62
7
 10
117.0999999999999
 20
307.5112481521087
 30
0
 40
0.5
 50
0
 51
90
  0
ARC
  8
1
 62
7
 10
140.2999999999998
 20
363.6004952151316
 30
0
 40
1
 50
0
 51
90
  0
ARC
  8
1
 62
7
 10
132.0999999999999
 20
368.1426105800549
 30
0
 40
1
 50
0
 51
90
  0
ARC
  8
1
 62
7
 10
117.5999999999999
 20
363.6004952151316
 30
0
 40
1
 50
90
 51
180
  0
ARC
  8
1
 62
7
 10
140.2999999999998
 20
281.6426105800547
 30
0
 40
1
 50
270
 51
0
  0
ARC
  8
1
 62
7
 10
140.0999999999999
 20
270.3926105800548
 30
0
 40
1
 50
0
 51
90
  0
ARC
  8
1
 62
7
 10
140.0999999999999
 20
242.8926105800548
 30
0
 40
1
 50
270
 51
0
  0
ARC
  8
1
 62
7
 10
132.0999999999999
 20
239.6426105800548
 30
0
 40
1
 50
270
 51
0
  0
ARC
  8
1
 62
7
 10
123.5999999999999
 20
239.6426105800548
 30
0
 40
1
 50
180
 51
270
  0
ARC
  8
1
 62
7
 10
118.5999999999999
 20
242.8926105800548
 30
0
 40
1
 50
180
 51
270
  0
ARC
  8
1
 62
7
 10
134.0999999999999
 20
279.6426105800547
 30
0
 40
1
 50
90
 51
180
  0
ARC
  8
1
 62
7
 10
134.0999999999999
 20
272.3926105800548
 30
0
 40
1
 50
180
 51
270
  0
ARC
  8
1
 62
7
 10
134.0999999999999
 20
240.8926105800548
 30
0
 40
1
 50
90
 51
180
  0
ARC
  8
1
 62
7
 10
121.5999999999999
 20
240.8926105800548
 30
0
 40
1
 50
0
 51
90
  0
ARC
  8
1
 62
7
 10
116.5999999999999
 20
279.6426105800547
 30
0
 40
1
 50
0
 51
90
  0
ARC
  8
1
 62
7
 10
115.5999999999999
 20
353.6426105800549
 30
0
 40
0.9999999999999772
 50
323.1301023541493
 51
0
  0
ARC
  8
1
 62
7
 10
134.0999999999999
 20
365.6004952151316
 30
0
 40
1
 50
180
 51
270
  0
ARC
  8
1
 62
7
 10
118.5999999999999
 20
298.5334544577888
 30
0
 40
1
 50
90
 51
180
  0
ARC
  8
1
 62
7
 10
118.5999999999999
 20
283.2129463821001
 30
0
 40
1
 50
180
 51
270
  0
ARC
  8
1
 62
7
 10
121.5999999999999
 20
281.2129463821001
 30
0
 40
1
 50
0
 51
90
  0
ARC
  8
1
 62
7
 10
121.5999999999999
 20
300.5334544577888
 30
0
 40
1
 50
270
 51
0
  0
ARC
  8
1
 62
7
 10
-103.5052814421284
 20
-0.8629342075021427
 30
0
 40
18.00000000000006
 50
120.9848197020639
 51
179.2986705990015
  0
ARC
  8
1
 62
7
 10
-244.4947185578717
 20
-0.8629342075020858
 30
0
 40
18.00000000000036
 50
0.7013294009983195
 51
59.01518029793516
  0
ARC
  8
1
 62
7
 10
-138.0053177755727
 20
-60.61875
 30
0
 40
18.0000000000002
 50
120.7013294009997
 51
179.0151802979364
  0
ARC
  8
1
 62
7
 10
-209.9946822244278
 20
-60.61874999999997
 30
0
 40
18.00000000000048
 50
0.9848197020637708
 51
59.29867059900086
  0
ARC
  8
1
 62
7
 10
1.999999999999773
 20
-72.75000000000009
 30
0
 40
2
 50
180
 51
270
  0
ARC
  8
1
 62
7
 10
60.49999999999984
 20
-76.49999999999997
 30
0
 40
8
 50
270
 51
0
  0
ARC
  8
1
 62
7
 10
60.49999999999984
 20
76.50000000000001
 30
0
 40
8.000000000000007
 50
0
 51
90
  0
ARC
  8
1
 62
7
 10
22.49999999999978
 20
43.75000000000001
 30
0
 40
1
 50
0
 51
90
  0
ARC
  8
1
 62
7
 10
14.49999999999977
 20
51.50000000000001
 30
0
 40
1
 50
0
 51
90
  0
ARC
  8
1
 62
7
 10
22.49999999999978
 20
-46.25000000000001
 30
0
 40
1
 50
0
 51
90
  0
ARC
  8
1
 62
7
 10
22.49999999999978
 20
-73.75000000000009
 30
0
 40
1
 50
270
 51
0
  0
ARC
  8
1
 62
7
 10
14.99999999999977
 20
-76.00000000000009
 30
0
 40
0.5
 50
270
 51
0
  0
ARC
  8
1
 62
7
 10
5.499999999999773
 20
-76.00000000000009
 30
0
 40
0.5
 50
180
 51
270
  0
ARC
  8
1
 62
7
 10
15.99999999999978
 20
-75.25000000000009
 30
0
 40
0.5
 50
90
 51
180
  0
ARC
  8
1
 62
7
 10
4.499999999999773
 20
-75.25000000000009
 30
0
 40
0.5
 50
0
 51
90
  0
ARC
  8
1
 62
7
 10
1.799999999999841
 20
50.5
 30
0
 40
2
 50
90
 51
180
  0
ARC
  8
1
 62
7
 10
109.2999999999998
 20
31.00000000000014
 30
0
 40
1
 50
270
 51
0
  0
ARC
  8
1
 62
7
 10
109.2999999999998
 20
-30.99999999999998
 30
0
 40
1
 50
0
 51
90
  0
ARC
  8
1
 62
7
 10
134.0999999999997
 20
37.00000000000014
 30
0
 40
1
 50
180
 51
270
  0
ARC
  8
1
 62
7
 10
115.5999999999997
 20
37.00000000000014
 30
0
 40
1
 50
270
 51
0
  0
ARC
  8
1
 62
7
 10
116.5999999999997
 20
-36.99999999999998
 30
0
 40
1
 50
0
 51
90
  0
ARC
  8
1
 62
7
 10
121.5999999999997
 20
-75.74999999999997
 30
0
 40
1
 50
0
 51
90
  0
ARC
  8
1
 62
7
 10
134.0999999999997
 20
-75.74999999999997
 30
0
 40
1
 50
90
 51
180
  0
ARC
  8
1
 62
7
 10
134.0999999999997
 20
-44.24999999999989
 30
0
 40
1
 50
180
 51
270
  0
ARC
  8
1
 62
7
 10
134.0999999999997
 20
-36.99999999999998
 30
0
 40
1
 50
90
 51
180
  0
ARC
  8
1
 62
7
 10
111.2999999999998
 20
-34.99999999999998
 30
0
 40
1
 50
180
 51
270
  0
ARC
  8
1
 62
7
 10
118.5999999999997
 20
-73.74999999999997
 30
0
 40
1
 50
180
 51
270
  0
ARC
  8
1
 62
7
 10
123.5999999999997
 20
-76.99999999999997
 30
0
 40
1
 50
180
 51
270
  0
ARC
  8
1
 62
7
 10
132.0999999999997
 20
-76.99999999999997
 30
0
 40
1
 50
270
 51
0
  0
ARC
  8
1
 62
7
 10
140.0999999999997
 20
-73.74999999999997
 30
0
 40
1
 50
270
 51
0
  0
ARC
  8
1
 62
7
 10
140.0999999999997
 20
-46.24999999999989
 30
0
 40
1
 50
0
 51
90
  0
ARC
  8
1
 62
7
 10
140.2999999999998
 20
-34.99999999999998
 30
0
 40
1
 50
270
 51
0
  0
ARC
  8
1
 62
7
 10
111.2999999999998
 20
35.00000000000014
 30
0
 40
1
 50
90
 51
180
  0
ARC
  8
1
 62
7
 10
117.5999999999997
 20
51.50000000000013
 30
0
 40
1
 50
90
 51
180
  0
ARC
  8
1
 62
7
 10
132.0999999999997
 20
51.50000000000013
 30
0
 40
1
 50
0
 51
90
  0
ARC
  8
1
 62
7
 10
140.2999999999998
 20
35.00000000000014
 30
0
 40
1
 50
0
 51
90
  0
ARC
  8
1
 62
7
 10
89.29999999999984
 20
76.50000000000001
 30
0
 40
8
 50
90
 51
141.9524925463811
  0
ARC
  8
1
 62
7
 10
89.29999999999984
 20
-76.50000000000017
 30
0
 40
8.000000000000007
 50
218.0475074536178
 51
270
  0
ARC
  8
1
 62
7
 10
89.29999999999984
 20
-49.99999999999998
 30
0
 40
8.00000000000014
 50
110.3641348063211
 51
141.9524925463811
  0
ARC
  8
1
 62
7
 10
89.29999999999984
 20
50.00000000000003
 30
0
 40
8.000000000000147
 50
218.0475074536191
 51
249.6358651936828
  0
ARC
  8
1
 62
7
 10
0.9999999999997726
 20
-43.00003257849064
 30
0
 40
1
 50
0
 51
90.0018665796354
  0
ARC
  8
1
 62
7
 10
0.9999999999997726
 20
-44.25000000000004
 30
0
 40
1
 50
270
 51
0
  0
ARC
  8
1
 62
7
 10
-155.4973407738917
 20
-29.11875
 30
0
 40
17.99999999999993
 50
239.0718506550217
 51
297.3814675608239
  0
ARC
  8
1
 62
7
 10
-192.5026592261088
 20
-29.11875
 30
0
 40
17.99999999999955
 50
242.6185324391786
 51
300.928149344978
  0
ARC
  8
1
 62
7
 10
-158.0337523866099
 20
30.58314792737511
 30
0
 40
17.99999999999995
 50
359.0718506550218
 51
57.38146756082369
  0
ARC
  8
1
 62
7
 10
-122.0384757729376
 20
29.99999999999896
 30
0
 40
17.99999999999987
 50
179.071850655022
 51
240.9281493449805
  0
ARC
  8
1
 62
7
 10
-139.5310931605013
 20
-1.464397927377945
 30
0
 40
17.99999999999956
 50
2.618532439178599
 51
60.92814934497812
  0
ARC
  8
1
 62
7
 10
-208.4689068395032
 20
-1.464397927380219
 30
0
 40
17.99999999999989
 50
119.0718506550216
 51
177.3814675608238
  0
ARC
  8
1
 62
7
 10
-225.9615242270673
 20
29.99999999999591
 30
0
 40
17.99999999999984
 50
299.071850655022
 51
0.9281493449806361
  0
ARC
  8
1
 62
7
 10
-189.9662476133946
 20
30.58314792737282
 30
0
 40
17.99999999999956
 50
122.6185324391787
 51
180.9281493449781
  0
ARC
  8
1
 62
7
 10
-173.999999999998
 20
-1.719513420539442e-012
 30
0
 40
52.49999999999732
 50
300.7013294009971
 51
359.2986705990035
  0
ARC
  8
1
 62
7
 10
-139.4999636665596
 20
61.48168420750099
 30
0
 40
18.0000000000002
 50
240.7013294009997
 51
299.0151802979366
  0
ARC
  8
1
 62
7
 10
-208.5000363334482
 20
61.48168420750099
 30
0
 40
18.00000000000007
 50
240.9848197020639
 51
299.2986705990016
  0
ARC
  8
1
 62
7
 10
-173.999999999998
 20
-1.719513420539442e-012
 30
0
 40
52.49999999999738
 50
60.70132940100391
 51
119.2986705990069
  0
ARC
  8
1
 62
7
 10
-173.999999999998
 20
-1.719513420539442e-012
 30
0
 40
52.50000000000173
 50
180.7013294009965
 51
239.2986705989985
  0
CIRCLE
  8
1
 62
7
 10
90.19999999999993
 20
-36.25
 30
0
 40
3.75
  0
CIRCLE
  8
1
 62
7
 10
90.19999999999993
 20
36.25
 30
0
 40
3.75
  0
CIRCLE
  8
1
 62
7
 10
64.69999999999993
 20
-36.25
 30
0
 40
3.75
  0
CIRCLE
  8
1
 62
7
 10
64.69999999999993
 20
36.25
 30
0
 40
3.75
  0
CIRCLE
  8
1
 62
7
 10
311.1000000000003
 20
1.4210854715202e-014
 30
0
 40
84.59999999999997
  0
CIRCLE
  8
1
 62
7
 10
57.00000000000011
 20
317.8426105800548
 30
0
 40
1.200000000000046
  0
CIRCLE
  8
1
 62
7
 10
57.00000000000011
 20
315.4426105800549
 30
0
 40
1.200000000000046
  0
CIRCLE
  8
1
 62
7
 10
93.00000000000023
 20
315.4426105800549
 30
0
 40
1.200000000000046
  0
CIRCLE
  8
1
 62
7
 10
93.00000000000023
 20
317.8426105800548
 30
0
 40
1.200000000000046
  0
CIRCLE
  8
1
 62
7
 10
311.1000000000003
 20
124.9999999999999
 30
0
 40
8
  0
CIRCLE
  8
1
 62
7
 10
-241.1751442127218
 20
67.17514421272203
 30
0
 40
3.199999999999989
  0
CIRCLE
  8
1
 62
3
 10
-241.1751442127218
 20
67.17514421272203
 30
0
 40
4
  0
CIRCLE
  8
1
 62
7
 10
-241.1751442127218
 20
-67.17514421272203
 30
0
 40
3.199999999999989
  0
CIRCLE
  8
1
 62
3
 10
-241.1751442127218
 20
-67.17514421272203
 30
0
 40
4
  0
CIRCLE
  8
1
 62
7
 10
-106.8248557872778
 20
-67.17514421272203
 30
0
 40
3.200000000000003
  0
CIRCLE
  8
1
 62
3
 10
-106.8248557872778
 20
-67.17514421272203
 30
0
 40
4
  0
CIRCLE
  8
1
 62
7
 10
-106.8248557872778
 20
67.17514421272203
 30
0
 40
3.200000000000003
  0
CIRCLE
  8
1
 62
3
 10
-106.8248557872778
 20
67.17514421272203
 30
0
 40
4
  0
CIRCLE
  8
1
 62
7
 10
243.9248557872783
 20
67.17514421272205
 30
0
 40
6.499999999999517
  0
CIRCLE
  8
1
 62
7
 10
378.2751442127223
 20
67.17514421272205
 30
0
 40
6.49999999999983
  0
CIRCLE
  8
1
 62
7
 10
243.9248557872783
 20
-67.17514421272193
 30
0
 40
6.499999999999801
  0
CIRCLE
  8
1
 62
7
 10
378.2751442127223
 20
-67.17514421272193
 30
0
 40
6.499999999999886
  0
CIRCLE
  8
1
 62
7
 10
-122.0384757729337
 20
30.00000000000001
 30
0
 40
4
  0
CIRCLE
  8
1
 62
7
 10
-173.9999999999998
 20
-59.99999999999999
 30
0
 40
4
  0
CIRCLE
  8
1
 62
7
 10
-122.0384757729337
 20
30.00000000000001
 30
0
 40
8
  0
CIRCLE
  8
1
 62
7
 10
-173.9999999999998
 20
-59.99999999999999
 30
0
 40
8
  0
CIRCLE
  8
1
 62
7
 10
-108.6150820142749
 20
-37.75000000000002
 30
0
 40
6.649999999999906
  0
CIRCLE
  8
1
 62
7
 10
-239.3849179857248
 20
-37.74999999999998
 30
0
 40
6.650000000000006
  0
CIRCLE
  8
1
 62
7
 10
-225.9615242270668
 20
30.00000000000002
 30
0
 40
4
  0
CIRCLE
  8
1
 62
7
 10
-225.9615242270668
 20
30.00000000000002
 30
0
 40
8
  0
CIRCLE
  8
1
 62
7
 10
-173.9999999999998
 20
75.50000000000001
 30
0
 40
6.650000000000091
  0
CIRCLE
  8
1
 62
7
 10
-173.9999999999998
 20
1.4210854715202e-014
 30
0
 40
88.9999999999998
  0
CIRCLE
  8
1
 62
7
 10
-122.0384757729337
 20
30.00000000000001
 30
0
 40
14.75
  0
CIRCLE
  8
1
 62
7
 10
-122.0384757729337
 20
30.00000000000001
 30
0
 40
11
  0
CIRCLE
  8
1
 62
7
 10
-122.0384757729337
 20
30.00000000000001
 30
0
 40
8
  0
CIRCLE
  8
1
 62
7
 10
-122.0384757729337
 20
30.00000000000001
 30
0
 40
4
  0
CIRCLE
  8
1
 62
7
 10
-225.9615242270668
 20
30.00000000000002
 30
0
 40
14.75
  0
CIRCLE
  8
1
 62
7
 10
-225.9615242270668
 20
30.00000000000002
 30
0
 40
11
  0
CIRCLE
  8
1
 62
7
 10
-225.9615242270668
 20
30.00000000000002
 30
0
 40
8
  0
CIRCLE
  8
1
 62
7
 10
-225.9615242270668
 20
30.00000000000002
 30
0
 40
4
  0
CIRCLE
  8
1
 62
7
 10
-173.9999999999998
 20
-59.99999999999999
 30
0
 40
14.75
  0
CIRCLE
  8
1
 62
7
 10
-173.9999999999998
 20
-59.99999999999999
 30
0
 40
11
  0
CIRCLE
  8
1
 62
7
 10
-173.9999999999998
 20
-59.99999999999999
 30
0
 40
8
  0
CIRCLE
  8
1
 62
7
 10
-173.9999999999998
 20
-59.99999999999999
 30
0
 40
4
  0
CIRCLE
  8
1
 62
7
 10
-152.7499999999998
 20
36.80607966083867
 30
0
 40
4
  0
CIRCLE
  8
1
 62
3
 10
-152.7499999999998
 20
36.80607966083867
 30
0
 40
5
  0
CIRCLE
  8
1
 62
7
 10
-195.2499999999998
 20
36.80607966083867
 30
0
 40
4
  0
CIRCLE
  8
1
 62
3
 10
-195.2499999999998
 20
36.80607966083867
 30
0
 40
5
  0
CIRCLE
  8
1
 62
7
 10
-216.4999999999998
 20
9.947598300641403e-014
 30
0
 40
4
  0
CIRCLE
  8
1
 62
3
 10
-216.4999999999998
 20
9.947598300641403e-014
 30
0
 40
5
  0
CIRCLE
  8
1
 62
7
 10
-195.2499999999998
 20
-36.80607966083848
 30
0
 40
4
  0
CIRCLE
  8
1
 62
3
 10
-195.2499999999998
 20
-36.80607966083848
 30
0
 40
5
  0
CIRCLE
  8
1
 62
7
 10
-152.7499999999998
 20
-36.80607966083854
 30
0
 40
4
  0
CIRCLE
  8
1
 62
3
 10
-152.7499999999998
 20
-36.80607966083854
 30
0
 40
5
  0
CIRCLE
  8
1
 62
7
 10
-131.4999999999998
 20
-2.131628207280301e-014
 30
0
 40
4
  0
CIRCLE
  8
1
 62
3
 10
-131.4999999999998
 20
-2.131628207280301e-014
 30
0
 40
5
  0
CIRCLE
  8
1
 62
7
 10
-173.9999999999998
 20
1.4210854715202e-014
 30
0
 40
15
  0
CIRCLE
  8
1
 62
7
 10
-173.9999999999998
 20
1.4210854715202e-014
 30
0
 40
20
  0
CIRCLE
  8
1
 62
7
 10
-173.9999999999998
 20
1.4210854715202e-014
 30
0
 40
26.5
  0
CIRCLE
  8
1
 62
7
 10
-173.9999999999998
 20
1.4210854715202e-014
 30
0
 40
31
  0
CIRCLE
  8
1
 62
7
 10
-173.9999999999998
 20
125
 30
0
 40
8
  0
CIRCLE
  8
1
 62
7
 10
376.4849179857262
 20
-37.74999999999998
 30
0
 40
6.650000000000091
  0
CIRCLE
  8
1
 62
7
 10
245.7150820142753
 20
-37.74999999999998
 30
0
 40
6.649999999999892
  0
CIRCLE
  8
1
 62
7
 10
311.1000000000003
 20
75.50000000000006
 30
0
 40
6.649999999999977
  0
CIRCLE
  8
1
 62
7
 10
311.1000000000003
 20
-59.99999999999998
 30
0
 40
4
  0
CIRCLE
  8
1
 62
7
 10
259.1384757729343
 20
30.00000000000005
 30
0
 40
4.000000000000057
  0
CIRCLE
  8
1
 62
7
 10
363.0615242270673
 20
30.00000000000005
 30
0
 40
4
  0
CIRCLE
  8
1
 62
7
 10
259.1384757729343
 20
30.00000000000005
 30
0
 40
14.75000000000006
  0
CIRCLE
  8
1
 62
7
 10
259.1384757729343
 20
30.00000000000005
 30
0
 40
11.00000000000006
  0
CIRCLE
  8
1
 62
7
 10
259.1384757729343
 20
30.00000000000005
 30
0
 40
8.000000000000057
  0
CIRCLE
  8
1
 62
7
 10
363.0615242270673
 20
30.00000000000005
 30
0
 40
14.75000000000011
  0
CIRCLE
  8
1
 62
7
 10
363.0615242270673
 20
30.00000000000005
 30
0
 40
11
  0
CIRCLE
  8
1
 62
7
 10
363.0615242270673
 20
30.00000000000005
 30
0
 40
8
  0
CIRCLE
  8
1
 62
7
 10
311.1000000000003
 20
-59.99999999999998
 30
0
 40
14.75
  0
CIRCLE
  8
1
 62
7
 10
311.1000000000003
 20
-59.99999999999998
 30
0
 40
11
  0
CIRCLE
  8
1
 62
7
 10
311.1000000000003
 20
-59.99999999999998
 30
0
 40
8
  0
CIRCLE
  8
1
 62
3
 10
331.8846096908273
 20
-11.99999999999999
 30
0
 40
3
  0
CIRCLE
  8
1
 62
7
 10
331.8846096908273
 20
-11.99999999999999
 30
0
 40
2.39999999999992
  0
CIRCLE
  8
1
 62
3
 10
290.3153903091743
 20
12.00000000000005
 30
0
 40
3
  0
CIRCLE
  8
1
 62
7
 10
290.3153903091743
 20
12.00000000000005
 30
0
 40
2.400000000000034
  0
CIRCLE
  8
1
 62
7
 10
311.1000000000003
 20
1.4210854715202e-014
 30
0
 40
36
  0
CIRCLE
  8
1
 62
7
 10
-173.9999999999998
 20
1.4210854715202e-014
 30
0
 40
84.59999999999999
  0
TEXT
  8
1
 62
7
 10
-205.2121953334238
 20
349.67327619957
 30
0
 40
10
  1
TMAT 10
 41
0.9
  7
SIMPLEX
  0
TEXT
  8
1
 62
7
 10
-205.2121953334238
 20
334.67327619957
 30
0
 40
10
  1
DC2409
 41
0.9
  7
SIMPLEX
  0
ENDSEC
  0
EOF
