  0
SECTION
  2
HEADER
  9
$ACADVER
  1
AC1009
  9
$INSBASE
 10
0
 20
0
  9
$EXTMIN
 10
-196.8636251680494
 20
-67.2984332647663
  9
$EXTMAX
 10
160.4038133312506
 20
209.1010509539293
  9
$LIMMIN
 10
-196.8636251680494
 20
-67.2984332647663
  9
$LIMMAX
 10
160.4038133312506
 20
209.1010509539293
  9
$VIEWCTR
 10
10
 20
10
  9
$VIEWSIZE
 40
10
  9
$SNAPMODE
 70
0
  9
$SNAPUNIT
 10
1
 20
1
  9
$SNAPBASE
 10
0
 20
0
  9
$SNAPANG
 50
0
  9
$SNAPSTYLE
 70
0
  9
$SNAPISOPAIR
 70
0
  9
$GRIDMODE
 70
0
  9
$GRIDUNIT
 10
0
 20
0
  9
$ORTHOMODE
 70
0
  9
$REGENMODE
 70
1
  9
$FILLMODE
 70
1
  9
$QTEXTMODE
 70
0
  9
$DRAGMODE
 70
2
  9
$LTSCALE
 40
1
  9
$OSMODE
 70
0
  9
$ATTMODE
 70
1
  9
$TEXTSIZE
 40
3.5
  9
$TRACEWID
 40
0.5
  9
$TEXTSTYLE
  7
STANDARD
  9
$CLAYER
  8
0
  9
$CELTYPE
  6
BYLAYER
  9
$CECOLOR
 62
256
  9
$DIMSCALE
 40
1
  9
$DIMASZ
 40
0.18
  9
$DIMEXO
 40
0.0625
  9
$DIMDLI
 40
0.38
  9
$DIMRND
 40
0
  9
$DIMDLE
 40
0
  9
$DIMEXE
 40
0.18
  9
$DIMTP
 40
0
  9
$DIMTM
 40
0
  9
$DIMTXT
 40
0.18
  9
$DIMCEN
 40
0.09
  9
$DIMTSZ
 40
0
  9
$DIMTOL
 70
0
  9
$DIMLIM
 70
0
  9
$DIMTIH
 70
1
  9
$DIMTOH
 70
1
  9
$DIMSE1
 70
0
  9
$DIMSE2
 70
0
  9
$DIMTAD
 70
0
  9
$DIMZIN
 70
0
  9
$DIMBLK
  1

  9
$DIMASO
 70
1
  9
$DIMSHO
 70
1
  9
$DIMPOST
  1

  9
$DIMAPOST
  1

  9
$DIMALT
 70
0
  9
$DIMALTD
 70
2
  9
$DIMALTF
 40
25.4
  9
$DIMLFAC
 40
1
  9
$DIMTOFL
 70
0
  9
$DIMTVP
 40
0
  9
$DIMTIX
 70
0
  9
$DIMSOXD
 70
0
  9
$DIMSAH
 70
0
  9
$DIMBLK1
  1

  9
$DIMBLK2
  1

  9
$DIMSTYLE
  2
*UNNAMED
  9
$DIMCLRD
 70
0
  9
$DIMCLRE
 70
0
  9
$DIMCLRT
 70
0
  9
$DIMTFAC
 40
1
  9
$DIMGAP
 40
0.09
  9
$LUNITS
 70
2
  9
$LUPREC
 70
4
  9
$AXISMODE
 70
0
  9
$AXISUNIT
 10
0
 20
0
  9
$SKETCHINC
 40
0.1
  9
$FILLETRAD
 40
2
  9
$AUNITS
 70
0
  9
$AUPREC
 70
0
  9
$MENU
  1
ACAD
  9
$ELEVATION
 40
0
  9
$THICKNESS
 40
0
  9
$VIEWDIR
 10
0
 20
0
 30
1
  9
$LIMCHECK
 70
0
  9
$BLIPMODE
 70
1
  9
$CHAMFERA
 40
0
  9
$CHAMFERB
 40
0
  9
$FASTZOOM
 70
1
  9
$SKPOLY
 70
0
  9
$ANGBASE
 50
0
  9
$ANGDIR
 70
0
  9
$PDMODE
 70
0
  9
$PDSIZE
 40
0
  9
$PLINEWID
 40
0
  9
$COORDS
 70
2
  0
ENDSEC
  0
SECTION
  2
TABLES
  0
TABLE
  2
DIMSTYLE
 70
0
  0
ENDTAB
  0
TABLE
  2
LTYPE
 70
9
  0
LTYPE
  2
CONTINUOUS
 70
64
  3
Solid line
 72
65
 73
0
 40
0
  0
LTYPE
  2
BORDER
 70
64
  3
__ __ . __ __ .
 72
65
 73
6
 40
16.4531057203625
 49
4.700887348675
 49
-2.3504436743375
 49
4.700887348675
 49
-2.3504436743375
 49
0
 49
-2.3504436743375
  0
LTYPE
  2
CENTER
 70
64
  3
____ _ ____ _
 72
65
 73
4
 40
18.8035493947
 49
11.7522183716875
 49
-2.3504436743375
 49
2.3504436743375
 49
-2.3504436743375
  0
LTYPE
  2
DASHDOT
 70
64
  3
__ . __ . __ .
 72
65
 73
4
 40
9.40177469735
 49
4.700887348675
 49
-2.3504436743375
 49
0
 49
-2.3504436743375
  0
LTYPE
  2
DASHED
 70
64
  3
__ __ __ __ __
 72
65
 73
2
 40
7.0513310230125
 49
4.700887348675
 49
-2.3504436743375
  0
LTYPE
  2
DIVIDE
 70
64
  3
__ . . __ . . 
 72
65
 73
6
 40
11.7522183716875
 49
4.700887348675
 49
-2.3504436743375
 49
0
 49
-2.3504436743375
 49
0
 49
-2.3504436743375
  0
LTYPE
  2
DOT
 70
64
  3
..............
 72
65
 73
4
 40
4.700887348675
 49
0
 49
-2.3504436743375
 49
0
 49
-2.3504436743375
  0
LTYPE
  2
HIDDEN
 70
64
  3
_ _ _ _ _ _ _
 72
65
 73
2
 40
3.52566551150625
 49
2.3504436743375
 49
-1.17522183716875
  0
LTYPE
  2
PHANTOM
 70
64
  3
_____ _ _ _____ _ _ 
 72
65
 73
6
 40
23.504436743375
 49
11.7522183716875
 49
-2.3504436743375
 49
2.3504436743375
 49
-2.3504436743375
 49
2.3504436743375
 49
-2.3504436743375
  0
ENDTAB
  0
TABLE
  2
LAYER
 70
3
  0
LAYER
  2
1
 70
0
 62
7
  6
CONTINUOUS
  0
LAYER
  2
0
 70
0
 62
7
  6
CONTINUOUS
  0
ENDTAB
  0
TABLE
  2
STYLE
 70
4
  0
STYLE
  2
STANDARD
 70
0
 40
0
 41
1
 50
0
 71
0
 42
3.5
  3
txt
  4

  0
STYLE
  2
SIMPLEX
 70
0
 40
0
 41
1
 50
0
 71
0
 42
3.5
  3
simplex
  4

  0
STYLE
  2
COMPLEX
 70
0
 40
0
 41
1
 50
0
 71
0
 42
3.5
  3
complex
  4

  0
STYLE
  2
ITALIC
 70
0
 40
0
 41
1
 50
0
 71
0
 42
3.5
  3
italic
  4

  0
ENDTAB
  0
TABLE
  2
VIEW
 70
0
  0
ENDTAB
  0
ENDSEC
  0
SECTION
  2
BLOCKS
  0
ENDSEC
  0
SECTION
  2
ENTITIES
  0
LINE
  8
1
 62
3
  6
DASHDOT
 10
-135.752300801037
 20
126.6010509539293
 30
0
 11
-143.771302029221
 21
126.6010509539293
 31
0
  0
LINE
  8
1
 62
3
  6
DASHDOT
 10
-46.12707632519542
 20
126.6010509539293
 30
0
 11
-54.1460775533794
 21
126.6010509539293
 31
0
  0
LINE
  8
1
 62
3
  6
DASHDOT
 10
-143.771302029221
 20
191.6010509539293
 30
0
 11
-135.752300801037
 21
191.6010509539293
 31
0
  0
LINE
  8
1
 62
3
  6
DASHDOT
 10
-54.1460775533794
 20
191.6010509539293
 30
0
 11
-46.12707632519542
 21
191.6010509539293
 31
0
  0
LINE
  8
1
 62
7
 10
-131.956171471812
 20
50
 30
0
 11
-58.45617147181201
 21
50
 31
0
  0
LINE
  8
1
 62
7
 10
-133.956171471812
 20
-48
 30
0
 11
-133.956171471812
 21
48
 31
0
  0
LINE
  8
1
 62
7
 10
-132.206171471812
 20
-55
 30
0
 11
-145.706171471812
 21
-55
 31
0
  0
LINE
  8
1
 62
7
 10
-147.706171471812
 20
-57
 30
0
 11
-147.706171471812
 21
-65
 31
0
  0
LINE
  8
1
 62
7
 10
-147.706171471812
 20
-65
 30
0
 11
-124.206171471812
 21
-65
 31
0
  0
LINE
  8
1
 62
7
 10
-122.206171471812
 20
-63
 30
0
 11
-68.20617147181201
 21
-63
 31
0
  0
LINE
  8
1
 62
7
 10
-135.956171471812
 20
34
 30
0
 11
-141.456171471812
 21
34
 31
0
  0
LINE
  8
1
 62
7
 10
-143.456171471812
 20
32
 30
0
 11
-143.456171471812
 21
-32
 31
0
  0
LINE
  8
1
 62
7
 10
-145.456171471812
 20
22
 30
0
 11
-159.456171471812
 21
22
 31
0
  0
LINE
  8
1
 62
7
 10
-161.456171471812
 20
20
 30
0
 11
-161.456171471812
 21
-20
 31
0
  0
LINE
  8
1
 62
7
 10
-162.456171471812
 20
9.25
 30
0
 11
-161.456171471812
 21
9.25
 31
0
  0
LINE
  8
1
 62
7
 10
-161.456171471812
 20
-10.49846922834953
 30
0
 11
-162.456171471812
 21
-10.49846922834953
 31
0
  0
LINE
  8
1
 62
7
 10
-162.456171471812
 20
-10.49846922834953
 30
0
 11
-162.456171471812
 21
9.25
 31
0
  0
LINE
  8
1
 62
7
 10
-162.456171471812
 20
7.5
 30
0
 11
-163.706171471812
 21
7.5
 31
0
  0
LINE
  8
1
 62
7
 10
-163.706171471812
 20
7.5
 30
0
 11
-163.706171471812
 21
-7.5
 31
0
  0
LINE
  8
1
 62
7
 10
-163.706171471812
 20
-7.5
 30
0
 11
-162.456171471812
 21
-7.5
 31
0
  0
LINE
  8
1
 62
7
 10
-163.706171471812
 20
5.5
 30
0
 11
-168.706171471812
 21
5.5
 31
0
  0
LINE
  8
1
 62
7
 10
-168.706171471812
 20
5.5
 30
0
 11
-168.706171471812
 21
7
 31
0
  0
LINE
  8
1
 62
7
 10
-168.706171471812
 20
7
 30
0
 11
-188.706171471812
 21
7
 31
0
  0
LINE
  8
1
 62
7
 10
-188.206171471812
 20
-5.500000000000002
 30
0
 11
-163.706171471812
 21
-5.500000000000002
 31
0
  0
LINE
  8
1
 62
7
  6
DASHED
 10
-188.706171471812
 20
1.4
 30
0
 11
-177.906171471812
 21
1.4
 31
0
  0
LINE
  8
1
 62
7
  6
DASHED
 10
-177.906171471812
 20
1.4
 30
0
 11
-177.906171471812
 21
-1.400000000000002
 31
0
  0
LINE
  8
1
 62
7
  6
DASHED
 10
-177.906171471812
 20
-1.400000000000002
 30
0
 11
-188.706171471812
 21
-1.400000000000002
 31
0
  0
LINE
  8
1
 62
7
  6
DASHED
 10
-177.906171471812
 20
1.4
 30
0
 11
-176.7514709334328
 21
0
 31
0
  0
LINE
  8
1
 62
7
  6
DASHED
 10
-176.7514709334328
 20
0
 30
0
 11
-177.906171471812
 21
-1.400000000000002
 31
0
  0
LINE
  8
1
 62
3
  6
DASHED
 10
-188.706171471812
 20
2
 30
0
 11
-180.706171471812
 21
2
 31
0
  0
LINE
  8
1
 62
3
  6
DASHED
 10
-180.706171471812
 20
2
 30
0
 11
-180.706171471812
 21
-2.000000000000002
 31
0
  0
LINE
  8
1
 62
3
  6
DASHED
 10
-180.706171471812
 20
-2.000000000000002
 30
0
 11
-188.706171471812
 21
-2.000000000000002
 31
0
  0
LINE
  8
1
 62
3
  6
DASHED
 10
-180.706171471812
 20
2
 30
0
 11
-179.6669409872707
 21
1.4
 31
0
  0
LINE
  8
1
 62
3
  6
DASHED
 10
-180.706171471812
 20
-2.000000000000002
 30
0
 11
-179.6669409872707
 21
-1.400000000000002
 31
0
  0
LINE
  8
1
 62
3
  6
DASHDOT
 10
-191.706171471812
 20
0
 30
0
 11
-172.8978810949465
 21
0
 31
0
  0
LINE
  8
1
 62
7
 10
-141.456171471812
 20
-34
 30
0
 11
-135.956171471812
 21
-34
 31
0
  0
LINE
  8
1
 62
7
 10
-159.456171471812
 20
-22
 30
0
 11
-145.456171471812
 21
-22
 31
0
  0
LINE
  8
1
 62
7
 10
-131.206171471812
 20
-50
 30
0
 11
-131.956171471812
 21
-50
 31
0
  0
LINE
  8
1
 62
7
 10
108.4038133312506
 20
7
 30
0
 11
112.4038133312506
 21
7
 31
0
  0
LINE
  8
1
 62
7
 10
112.4038133312506
 20
7
 30
0
 11
112.4038133312506
 21
3
 31
0
  0
LINE
  8
1
 62
7
 10
112.4038133312506
 20
3
 30
0
 11
108.4038133312506
 21
3
 31
0
  0
LINE
  8
1
 62
7
 10
108.4038133312506
 20
3
 30
0
 11
108.4038133312506
 21
7
 31
0
  0
LINE
  8
1
 62
7
 10
-188.206171471812
 20
5.123475382979792
 30
0
 11
-170.706171471812
 21
5.123475382979792
 31
0
  0
LINE
  8
1
 62
7
 10
115.3038133312506
 20
-8.798469228349532
 30
0
 11
115.3038133312506
 21
-7.815473623811751
 31
0
  0
LINE
  8
1
 62
7
 10
105.5038133312506
 20
-8.798469228349543
 30
0
 11
105.5038133312506
 21
-7.815473623811773
 31
0
  0
LINE
  8
1
 62
7
 10
111.9038133312506
 20
-7.348469228349533
 30
0
 11
111.9038133312506
 21
-10.49846922834953
 31
0
  0
LINE
  8
1
 62
7
 10
111.9038133312506
 20
-10.49846922834953
 30
0
 11
113.6038133312506
 21
-10.49846922834953
 31
0
  0
LINE
  8
1
 62
7
 10
108.9038133312506
 20
-7.348469228349533
 30
0
 11
108.9038133312506
 21
-10.49846922834954
 31
0
  0
LINE
  8
1
 62
7
 10
108.9038133312506
 20
-10.49846922834954
 30
0
 11
107.2038133312506
 21
-10.49846922834954
 31
0
  0
LINE
  8
1
 62
7
 10
140.9734896218839
 20
30.56967629063332
 30
0
 11
139.3004570144082
 21
31.01796402671734
 31
0
  0
LINE
  8
1
 62
7
 10
139.3004570144082
 20
31.01796402671734
 30
0
 11
138.0757121430167
 21
29.79321915532576
 31
0
  0
LINE
  8
1
 62
7
 10
138.0757121430167
 20
29.79321915532576
 30
0
 11
138.5239998791007
 21
28.12018654785013
 31
0
  0
LINE
  8
1
 62
7
 10
138.5239998791007
 20
28.12018654785013
 30
0
 11
140.1970324865763
 21
27.67189881176611
 31
0
  0
LINE
  8
1
 62
7
 10
140.1970324865763
 20
27.67189881176611
 30
0
 11
141.4217773579679
 21
28.8966436831577
 31
0
  0
LINE
  8
1
 62
7
 10
141.4217773579679
 20
28.8966436831577
 30
0
 11
140.9734896218839
 21
30.56967629063332
 31
0
  0
LINE
  8
1
 62
7
 10
79.83413704061718
 20
30.56967629063331
 30
0
 11
79.38584930453317
 21
28.89664368315769
 31
0
  0
LINE
  8
1
 62
7
 10
79.38584930453317
 20
28.89664368315769
 30
0
 11
80.6105941759248
 21
27.67189881176611
 31
0
  0
LINE
  8
1
 62
7
 10
80.6105941759248
 20
27.67189881176611
 30
0
 11
82.28362678340039
 21
28.12018654785013
 31
0
  0
LINE
  8
1
 62
7
 10
82.28362678340039
 20
28.12018654785013
 30
0
 11
82.73191451948441
 21
29.79321915532576
 31
0
  0
LINE
  8
1
 62
7
 10
82.73191451948441
 20
29.79321915532576
 30
0
 11
81.50716964809288
 21
31.01796402671734
 31
0
  0
LINE
  8
1
 62
7
 10
81.50716964809288
 20
31.01796402671734
 30
0
 11
79.83413704061718
 21
30.56967629063331
 31
0
  0
LINE
  8
1
 62
7
 10
79.83413704061718
 20
-30.56967629063332
 30
0
 11
81.50716964809288
 21
-31.01796402671734
 31
0
  0
LINE
  8
1
 62
7
 10
81.50716964809288
 20
-31.01796402671734
 30
0
 11
82.73191451948441
 21
-29.79321915532576
 31
0
  0
LINE
  8
1
 62
7
 10
82.73191451948441
 20
-29.79321915532576
 30
0
 11
82.28362678340039
 21
-28.12018654785013
 31
0
  0
LINE
  8
1
 62
7
 10
82.28362678340039
 20
-28.12018654785013
 30
0
 11
80.6105941759248
 21
-27.67189881176611
 31
0
  0
LINE
  8
1
 62
7
 10
80.6105941759248
 20
-27.67189881176611
 30
0
 11
79.38584930453317
 21
-28.8966436831577
 31
0
  0
LINE
  8
1
 62
7
 10
79.38584930453317
 20
-28.8966436831577
 30
0
 11
79.83413704061718
 21
-30.56967629063332
 31
0
  0
LINE
  8
1
 62
7
 10
140.9734896218839
 20
-30.56967629063332
 30
0
 11
141.4217773579679
 21
-28.8966436831577
 31
0
  0
LINE
  8
1
 62
7
 10
141.4217773579679
 20
-28.8966436831577
 30
0
 11
140.1970324865763
 21
-27.67189881176612
 31
0
  0
LINE
  8
1
 62
7
 10
140.1970324865763
 20
-27.67189881176612
 30
0
 11
138.5239998791007
 21
-28.12018654785012
 31
0
  0
LINE
  8
1
 62
7
 10
138.5239998791007
 20
-28.12018654785012
 30
0
 11
138.0757121430167
 21
-29.79321915532576
 31
0
  0
LINE
  8
1
 62
7
 10
138.0757121430167
 20
-29.79321915532576
 30
0
 11
139.3004570144082
 21
-31.01796402671734
 31
0
  0
LINE
  8
1
 62
7
 10
139.3004570144082
 20
-31.01796402671734
 30
0
 11
140.9734896218839
 21
-30.56967629063332
 31
0
  0
LINE
  8
1
 62
7
 10
65.40381333125058
 20
-65
 30
0
 11
93.4038133312506
 21
-65
 31
0
  0
LINE
  8
1
 62
7
 10
91.4038133312506
 20
-55
 30
0
 11
67.4038133312506
 21
-55
 31
0
  0
LINE
  8
1
 62
7
 10
65.40381333125058
 20
-65
 30
0
 11
65.40381333125058
 21
-21.7944947177034
 31
0
  0
LINE
  8
1
 62
7
 10
95.4038133312506
 20
-63
 30
0
 11
125.4038133312506
 21
-63
 31
0
  0
LINE
  8
1
 62
7
 10
93.4038133312506
 20
-57
 30
0
 11
93.4038133312506
 21
-65
 31
0
  0
LINE
  8
1
 62
7
 10
-129.206171471812
 20
-52
 30
0
 11
-129.206171471812
 21
-23.7944947177034
 31
0
  0
LINE
  8
1
 62
7
 10
-133.956171471812
 20
-29.34493141924173
 30
0
 11
-134.956171471812
 21
-30.34493141924173
 31
0
  0
LINE
  8
1
 62
7
 10
-133.956171471812
 20
-28.34493141924173
 30
0
 11
-134.956171471812
 21
-29.34493141924173
 31
0
  0
LINE
  8
1
 62
7
 10
-133.956171471812
 20
-33.14493141924173
 30
0
 11
-134.956171471812
 21
-33.14493141924173
 31
0
  0
LINE
  8
1
 62
7
 10
-134.956171471812
 20
-33.14493141924173
 30
0
 11
-134.956171471812
 21
-25.54493141924173
 31
0
  0
LINE
  8
1
 62
7
 10
-134.956171471812
 20
-25.54493141924173
 30
0
 11
-133.956171471812
 21
-25.54493141924173
 31
0
  0
LINE
  8
1
 62
7
 10
-134.956171471812
 20
-32.84493141924173
 30
0
 11
-138.656171471812
 21
-32.84493141924172
 31
0
  0
LINE
  8
1
 62
7
 10
-138.656171471812
 20
-32.84493141924172
 30
0
 11
-138.956171471812
 21
-32.32531617697106
 31
0
  0
LINE
  8
1
 62
7
 10
-138.956171471812
 20
-32.32531617697106
 30
0
 11
-138.956171471812
 21
-26.36454666151238
 31
0
  0
LINE
  8
1
 62
7
 10
-138.956171471812
 20
-26.36454666151238
 30
0
 11
-138.656171471812
 21
-25.84493141924172
 31
0
  0
LINE
  8
1
 62
7
 10
-138.656171471812
 20
-25.84493141924172
 30
0
 11
-134.956171471812
 21
-25.84493141924173
 31
0
  0
LINE
  8
1
 62
7
 10
-138.656171471812
 20
-32.84493141924172
 30
0
 11
-138.656171471812
 21
-25.84493141924172
 31
0
  0
LINE
  8
1
 62
7
 10
-134.956171471812
 20
30.34493141924173
 30
0
 11
-133.956171471812
 21
29.34493141924173
 31
0
  0
LINE
  8
1
 62
7
 10
-134.956171471812
 20
29.34493141924173
 30
0
 11
-133.956171471812
 21
28.34493141924173
 31
0
  0
LINE
  8
1
 62
7
 10
-134.956171471812
 20
33.14493141924173
 30
0
 11
-133.956171471812
 21
33.14493141924173
 31
0
  0
LINE
  8
1
 62
7
 10
-134.956171471812
 20
25.54493141924173
 30
0
 11
-134.956171471812
 21
33.14493141924173
 31
0
  0
LINE
  8
1
 62
7
 10
-133.956171471812
 20
25.54493141924174
 30
0
 11
-134.956171471812
 21
25.54493141924173
 31
0
  0
LINE
  8
1
 62
7
 10
-138.656171471812
 20
32.84493141924173
 30
0
 11
-134.956171471812
 21
32.84493141924173
 31
0
  0
LINE
  8
1
 62
7
 10
-138.956171471812
 20
32.32531617697106
 30
0
 11
-138.656171471812
 21
32.84493141924173
 31
0
  0
LINE
  8
1
 62
7
 10
-138.956171471812
 20
26.36454666151239
 30
0
 11
-138.956171471812
 21
32.32531617697106
 31
0
  0
LINE
  8
1
 62
7
 10
-138.656171471812
 20
25.84493141924173
 30
0
 11
-138.956171471812
 21
26.36454666151239
 31
0
  0
LINE
  8
1
 62
7
 10
-134.956171471812
 20
25.84493141924173
 30
0
 11
-138.656171471812
 21
25.84493141924173
 31
0
  0
LINE
  8
1
 62
7
 10
-138.656171471812
 20
25.84493141924173
 30
0
 11
-138.656171471812
 21
32.84493141924173
 31
0
  0
LINE
  8
1
 62
7
 10
108.4038133312506
 20
23.66431913239847
 30
0
 11
108.4038133312506
 21
31.74901573277509
 31
0
  0
LINE
  8
1
 62
7
 10
112.4038133312506
 20
31.74901573277509
 30
0
 11
112.4038133312506
 21
23.66431913239847
 31
0
  0
LINE
  8
1
 62
7
 10
90.90991179933127
 20
-13.56421037376809
 30
0
 11
83.90835916151548
 21
-17.6065586739564
 31
0
  0
LINE
  8
1
 62
7
 10
81.90835916151548
 20
-14.14245705881862
 30
0
 11
88.90991179933127
 21
-10.10010875863031
 31
0
  0
LINE
  8
1
 62
7
 10
131.8977148631697
 20
-10.10010875863036
 30
0
 11
138.8992675009856
 21
-14.14245705881868
 31
0
  0
LINE
  8
1
 62
7
 10
136.8992675009855
 20
-17.60655867395646
 30
0
 11
129.8977148631697
 21
-13.56421037376814
 31
0
  0
LINE
  8
1
 62
7
 10
-159.456171471812
 20
22
 30
0
 11
-143.456171471812
 21
32
 31
0
  0
LINE
  8
1
 62
7
 10
-161.456171471812
 20
-8.018407238238751
 30
0
 11
-161.456171471812
 21
-7.103654500897772
 31
0
  0
LINE
  8
1
 62
7
 10
-147.456171471812
 20
-10.10010875863036
 30
0
 11
-158.7742430136
 21
-10.10010875863036
 31
0
  0
LINE
  8
1
 62
7
 10
-158.1787645895373
 20
-13.93304776942614
 30
0
 11
-144.9013577072626
 21
-17.76675513667412
 31
0
  0
LINE
  8
1
 62
7
 10
-146.0109852363614
 20
-13.98226059610101
 30
0
 11
-158.0109852363614
 21
-10.51739062451103
 31
0
  0
LINE
  8
1
 62
7
 10
-112.706171471812
 20
-21.5
 30
0
 11
-105.456171471812
 21
-21.5
 31
0
  0
LINE
  8
1
 62
7
 10
-105.456171471812
 20
-21.5
 30
0
 11
-105.456171471812
 21
-26.17157287525381
 31
0
  0
LINE
  8
1
 62
7
 10
-105.456171471812
 20
-36.5
 30
0
 11
-112.706171471812
 21
-36.5
 31
0
  0
LINE
  8
1
 62
7
 10
-112.706171471812
 20
-36.5
 30
0
 11
-112.706171471812
 21
-21.5
 31
0
  0
LINE
  8
1
 62
7
 10
-103.456171471812
 20
-21.5
 30
0
 11
-96.20617147181203
 21
-21.5
 31
0
  0
LINE
  8
1
 62
7
 10
-96.20617147181203
 20
-21.5
 30
0
 11
-96.20617147181203
 21
-36.5
 31
0
  0
LINE
  8
1
 62
7
 10
-96.20617147181203
 20
-36.5
 30
0
 11
-103.456171471812
 21
-36.5
 31
0
  0
LINE
  8
1
 62
3
 10
-104.193671471812
 20
-27.25
 30
0
 11
-104.718671471812
 21
-27.25
 31
0
  0
LINE
  8
1
 62
3
 10
-106.206171471812
 20
-28.7375
 30
0
 11
-106.206171471812
 21
-29.2625
 31
0
  0
LINE
  8
1
 62
3
 10
-104.718671471812
 20
-30.75
 30
0
 11
-104.193671471812
 21
-30.75
 31
0
  0
LINE
  8
1
 62
3
 10
-102.706171471812
 20
-29.2625
 30
0
 11
-102.706171471812
 21
-28.7375
 31
0
  0
LINE
  8
1
 62
7
 10
-103.456171471812
 20
-21.5
 30
0
 11
-103.456171471812
 21
-26.17157287525381
 31
0
  0
LINE
  8
1
 62
7
 10
-105.456171471812
 20
-22.5
 30
0
 11
-103.456171471812
 21
-22.5
 31
0
  0
LINE
  8
1
 62
7
 10
-105.456171471812
 20
-35.5
 30
0
 11
-103.456171471812
 21
-35.5
 31
0
  0
LINE
  8
1
 62
7
 10
-103.456171471812
 20
-36.5
 30
0
 11
-103.456171471812
 21
-31.82842712474618
 31
0
  0
LINE
  8
1
 62
7
 10
-105.456171471812
 20
-31.82842712474618
 30
0
 11
-105.456171471812
 21
-36.5
 31
0
  0
LINE
  8
1
 62
3
 10
-110.6474161299208
 20
-26.07692150578631
 30
0
 11
-108.0149268137032
 21
-24.55705309042925
 31
0
  0
LINE
  8
1
 62
3
 10
-107.5149268137032
 20
-25.42307849421368
 30
0
 11
-110.1474161299208
 21
-26.94294690957075
 31
0
  0
LINE
  8
1
 62
3
 10
-108.0149268137032
 20
-33.44294690957076
 30
0
 11
-110.6474161299208
 21
-31.9230784942137
 31
0
  0
LINE
  8
1
 62
3
 10
-110.1474161299208
 20
-31.05705309042926
 30
0
 11
-107.5149268137032
 21
-32.57692150578633
 31
0
  0
LINE
  8
1
 62
3
 10
-100.8974161299208
 20
-24.55705309042925
 30
0
 11
-98.26492681370318
 21
-26.07692150578631
 31
0
  0
LINE
  8
1
 62
3
 10
-98.76492681370318
 20
-26.94294690957075
 30
0
 11
-101.3974161299208
 21
-25.42307849421368
 31
0
  0
LINE
  8
1
 62
3
 10
-98.26492681370318
 20
-31.9230784942137
 30
0
 11
-100.8974161299208
 21
-33.44294690957076
 31
0
  0
LINE
  8
1
 62
3
 10
-101.3974161299208
 20
-32.57692150578633
 30
0
 11
-98.76492681370318
 21
-31.05705309042926
 31
0
  0
LINE
  8
1
 62
7
 10
-96.20617147181203
 20
-22.5
 30
0
 11
-94.20617147181198
 21
-22.5
 31
0
  0
LINE
  8
1
 62
7
 10
-96.20617147181203
 20
-35.5
 30
0
 11
-94.20617147181198
 21
-35.5
 31
0
  0
LINE
  8
1
 62
7
 10
-110.081171471812
 20
-21.5
 30
0
 11
-110.081171471812
 21
-2.000000000000002
 31
0
  0
LINE
  8
1
 62
7
 10
-113.081171471812
 20
1
 30
0
 11
-122.706171471812
 21
1
 31
0
  0
LINE
  8
1
 62
7
 10
-122.706171471812
 20
3
 30
0
 11
-103.831171471812
 21
3
 31
0
  0
LINE
  8
1
 62
7
 10
-108.081171471812
 20
-2.000000000000002
 30
0
 11
-108.081171471812
 21
-21.5
 31
0
  0
LINE
  8
1
 62
7
 10
-98.83117147181203
 20
-2.000000000000002
 30
0
 11
-98.83117147181203
 21
-21.5
 31
0
  0
LINE
  8
1
 62
7
 10
-100.831171471812
 20
-21.5
 30
0
 11
-100.831171471812
 21
-2.000000000000002
 31
0
  0
LINE
  8
1
 62
7
 10
-103.831171471812
 20
1
 30
0
 11
-109.081171471812
 21
1
 31
0
  0
LINE
  8
1
 62
7
 10
-122.706171471812
 20
3.25
 30
0
 11
-117.706171471812
 21
3.25
 31
0
  0
LINE
  8
1
 62
7
 10
-122.706171471812
 20
0.75
 30
0
 11
-117.706171471812
 21
0.75
 31
0
  0
LINE
  8
1
 62
7
 10
127.4038133312506
 20
-65
 30
0
 11
155.4038133312506
 21
-65
 31
0
  0
LINE
  8
1
 62
7
 10
153.4038133312506
 20
-55
 30
0
 11
129.4038133312506
 21
-55
 31
0
  0
LINE
  8
1
 62
7
 10
127.4038133312506
 20
-65
 30
0
 11
127.4038133312506
 21
-57
 31
0
  0
LINE
  8
1
 62
7
 10
155.4038133312506
 20
-21.7944947177034
 30
0
 11
155.4038133312506
 21
-65
 31
0
  0
LINE
  8
1
 62
7
 10
57.6462303048325
 20
7.115998398718721
 30
0
 11
60.6251317146091
 21
7
 31
0
  0
LINE
  8
1
 62
7
 10
57.24623030483238
 20
-2.875998398718721
 30
0
 11
57.6462303048325
 21
7.115998398718721
 31
0
  0
LINE
  8
1
 62
7
 10
60.22467692353158
 20
-2.995231688283541
 30
0
 11
57.24623030483238
 21
-2.875998398718721
 31
0
  0
LINE
  8
1
 62
7
 10
60.6251317146091
 20
7
 30
0
 11
60.22467692353158
 21
-2.995231688283541
 31
0
  0
LINE
  8
1
 62
7
 10
49.40381333125077
 20
-21.5
 30
0
 11
63.40381333125089
 21
-21.5
 31
0
  0
LINE
  8
1
 62
7
 10
49.40381333125077
 20
-36.5
 30
0
 11
49.40381333125077
 21
-21.5
 31
0
  0
LINE
  8
1
 62
7
 10
63.40381333125089
 20
-36.5
 30
0
 11
49.40381333125077
 21
-36.5
 31
0
  0
LINE
  8
1
 62
7
 10
63.40381333125089
 20
-34.4
 30
0
 11
63.40381333125089
 21
-36.5
 31
0
  0
LINE
  8
1
 62
7
 10
63.40381333125089
 20
-23.6
 30
0
 11
65.40381333125089
 21
-23.6
 31
0
  0
LINE
  8
1
 62
7
 10
65.40381333125089
 20
-34.4
 30
0
 11
63.40381333125089
 21
-34.4
 31
0
  0
LINE
  8
1
 62
7
 10
55.4298795399248
 20
1
 30
0
 11
57.40139442176698
 21
1
 31
0
  0
LINE
  8
1
 62
7
 10
60.40381333125089
 20
-18.57106781186548
 30
0
 11
60.40381333125089
 21
-21.5
 31
0
  0
LINE
  8
1
 62
7
 10
58.40381333125089
 20
-18.57106781186547
 30
0
 11
58.40381333125089
 21
-21.5
 31
0
  0
LINE
  8
1
 62
7
 10
57.48145849866958
 20
3
 30
0
 11
55.4298795399248
 21
3
 31
0
  0
LINE
  8
1
 62
7
 10
52.4298795399248
 20
-1.999999999999991
 30
0
 11
52.4298795399248
 21
-4.257359312880711
 31
0
  0
LINE
  8
1
 62
7
 10
50.4298795399248
 20
-2.000000000000002
 30
0
 11
50.4298795399248
 21
-4.257359312880721
 31
0
  0
LINE
  8
1
 62
7
 10
53.30855919636508
 20
-6.378679656440362
 30
0
 11
58.9393472371836
 21
-15.03553390593274
 31
0
  0
LINE
  8
1
 62
7
 10
51.89434563399197
 20
-7.79289321881345
 30
0
 11
57.52513367481049
 21
-16.44974746830583
 31
0
  0
LINE
  8
1
 62
7
 10
63.40381333125089
 20
-21.5
 30
0
 11
63.40381333125089
 21
-23.6
 31
0
  0
LINE
  8
1
 62
7
 10
-56.45617147181201
 20
48
 30
0
 11
-56.45617147181201
 21
-48
 31
0
  0
LINE
  8
1
 62
7
 10
-44.70617147181201
 20
-55
 30
0
 11
-58.20617147181201
 21
-55
 31
0
  0
LINE
  8
1
 62
7
 10
-42.70617147181201
 20
-65
 30
0
 11
-42.70617147181201
 21
-57
 31
0
  0
LINE
  8
1
 62
7
 10
-66.20617147181201
 20
-65
 30
0
 11
-42.70617147181201
 21
-65
 31
0
  0
LINE
  8
1
 62
7
 10
-48.95617147181201
 20
34
 30
0
 11
-54.45617147181201
 21
34
 31
0
  0
LINE
  8
1
 62
7
 10
-46.95617147181201
 20
-32
 30
0
 11
-46.95617147181201
 21
32
 31
0
  0
LINE
  8
1
 62
7
 10
-30.95617147181201
 20
22
 30
0
 11
-44.95617147181201
 21
22
 31
0
  0
LINE
  8
1
 62
7
 10
-28.95617147181201
 20
-20
 30
0
 11
-28.95617147181201
 21
20
 31
0
  0
LINE
  8
1
 62
7
 10
-28.95617147181201
 20
9.25
 30
0
 11
-27.95617147181201
 21
9.25
 31
0
  0
LINE
  8
1
 62
7
 10
-27.95617147181201
 20
-10.49846922834953
 30
0
 11
-28.95617147181201
 21
-10.49846922834953
 31
0
  0
LINE
  8
1
 62
7
 10
-27.95617147181201
 20
9.25
 30
0
 11
-27.95617147181201
 21
-10.49846922834953
 31
0
  0
LINE
  8
1
 62
7
 10
-26.70617147181201
 20
7.5
 30
0
 11
-27.95617147181201
 21
7.5
 31
0
  0
LINE
  8
1
 62
7
 10
-26.70617147181201
 20
-7.5
 30
0
 11
-26.70617147181201
 21
7.5
 31
0
  0
LINE
  8
1
 62
7
 10
-27.95617147181201
 20
-7.5
 30
0
 11
-26.70617147181201
 21
-7.5
 31
0
  0
LINE
  8
1
 62
7
 10
-21.70617147181201
 20
5.5
 30
0
 11
-26.70617147181201
 21
5.5
 31
0
  0
LINE
  8
1
 62
7
 10
-21.70617147181201
 20
7
 30
0
 11
-21.70617147181201
 21
5.5
 31
0
  0
LINE
  8
1
 62
7
 10
-1.706171471812013
 20
7
 30
0
 11
-21.70617147181201
 21
7
 31
0
  0
LINE
  8
1
 62
7
 10
-26.70617147181201
 20
-5.500000000000002
 30
0
 11
-2.206171471812013
 21
-5.500000000000002
 31
0
  0
LINE
  8
1
 62
7
  6
DASHED
 10
-12.50617147181202
 20
1.4
 30
0
 11
-1.706171471812013
 21
1.4
 31
0
  0
LINE
  8
1
 62
7
  6
DASHED
 10
-12.50617147181202
 20
-1.400000000000002
 30
0
 11
-12.50617147181202
 21
1.4
 31
0
  0
LINE
  8
1
 62
7
  6
DASHED
 10
-1.706171471812013
 20
-1.400000000000002
 30
0
 11
-12.50617147181202
 21
-1.400000000000002
 31
0
  0
LINE
  8
1
 62
7
  6
DASHED
 10
-13.66087201019121
 20
0
 30
0
 11
-12.50617147181202
 21
1.4
 31
0
  0
LINE
  8
1
 62
7
  6
DASHED
 10
-12.50617147181202
 20
-1.400000000000002
 30
0
 11
-13.66087201019121
 21
0
 31
0
  0
LINE
  8
1
 62
3
  6
DASHED
 10
-9.706171471812013
 20
2
 30
0
 11
-1.706171471812013
 21
2
 31
0
  0
LINE
  8
1
 62
3
  6
DASHED
 10
-9.706171471812013
 20
-2.000000000000002
 30
0
 11
-9.706171471812013
 21
2
 31
0
  0
LINE
  8
1
 62
3
  6
DASHED
 10
-1.706171471812013
 20
-2.000000000000002
 30
0
 11
-9.706171471812013
 21
-2.000000000000002
 31
0
  0
LINE
  8
1
 62
3
  6
DASHED
 10
-10.74540195635331
 20
1.4
 30
0
 11
-9.706171471812013
 21
2
 31
0
  0
LINE
  8
1
 62
3
  6
DASHED
 10
-10.74540195635331
 20
-1.400000000000002
 30
0
 11
-9.706171471812013
 21
-2.000000000000002
 31
0
  0
LINE
  8
1
 62
3
  6
DASHDOT
 10
-17.51446184867751
 20
0
 30
0
 11
1.293828528187987
 21
0
 31
0
  0
LINE
  8
1
 62
7
 10
-54.45617147181201
 20
-34
 30
0
 11
-48.95617147181201
 21
-34
 31
0
  0
LINE
  8
1
 62
7
 10
-44.95617147181201
 20
-22
 30
0
 11
-30.95617147181201
 21
-22
 31
0
  0
LINE
  8
1
 62
7
 10
-58.45617147181201
 20
-50
 30
0
 11
-59.20617147181201
 21
-50
 31
0
  0
LINE
  8
1
 62
7
 10
-19.70617147181201
 20
5.123475382979792
 30
0
 11
-2.206171471812013
 21
5.123475382979792
 31
0
  0
LINE
  8
1
 62
7
 10
-61.20617147181201
 20
-23.7944947177034
 30
0
 11
-61.20617147181201
 21
-52
 31
0
  0
LINE
  8
1
 62
7
 10
-55.45617147181201
 20
-30.34493141924173
 30
0
 11
-56.45617147181201
 21
-29.34493141924173
 31
0
  0
LINE
  8
1
 62
7
 10
-55.45617147181201
 20
-29.34493141924173
 30
0
 11
-56.45617147181201
 21
-28.34493141924173
 31
0
  0
LINE
  8
1
 62
7
 10
-55.45617147181201
 20
-33.14493141924173
 30
0
 11
-56.45617147181201
 21
-33.14493141924173
 31
0
  0
LINE
  8
1
 62
7
 10
-55.45617147181201
 20
-25.54493141924173
 30
0
 11
-55.45617147181201
 21
-33.14493141924173
 31
0
  0
LINE
  8
1
 62
7
 10
-56.45617147181201
 20
-25.54493141924173
 30
0
 11
-55.45617147181201
 21
-25.54493141924173
 31
0
  0
LINE
  8
1
 62
7
 10
-51.75617147181202
 20
-32.84493141924172
 30
0
 11
-55.45617147181201
 21
-32.84493141924173
 31
0
  0
LINE
  8
1
 62
7
 10
-51.45617147181201
 20
-32.32531617697106
 30
0
 11
-51.75617147181202
 21
-32.84493141924172
 31
0
  0
LINE
  8
1
 62
7
 10
-51.45617147181201
 20
-26.36454666151238
 30
0
 11
-51.45617147181201
 21
-32.32531617697106
 31
0
  0
LINE
  8
1
 62
7
 10
-51.75617147181202
 20
-25.84493141924172
 30
0
 11
-51.45617147181201
 21
-26.36454666151238
 31
0
  0
LINE
  8
1
 62
7
 10
-55.45617147181201
 20
-25.84493141924173
 30
0
 11
-51.75617147181202
 21
-25.84493141924172
 31
0
  0
LINE
  8
1
 62
7
 10
-51.75617147181202
 20
-25.84493141924172
 30
0
 11
-51.75617147181202
 21
-32.84493141924172
 31
0
  0
LINE
  8
1
 62
7
 10
-56.45617147181201
 20
29.34493141924173
 30
0
 11
-55.45617147181201
 21
30.34493141924173
 31
0
  0
LINE
  8
1
 62
7
 10
-56.45617147181201
 20
28.34493141924173
 30
0
 11
-55.45617147181201
 21
29.34493141924173
 31
0
  0
LINE
  8
1
 62
7
 10
-56.45617147181201
 20
33.14493141924173
 30
0
 11
-55.45617147181201
 21
33.14493141924173
 31
0
  0
LINE
  8
1
 62
7
 10
-55.45617147181201
 20
33.14493141924173
 30
0
 11
-55.45617147181201
 21
25.54493141924173
 31
0
  0
LINE
  8
1
 62
7
 10
-55.45617147181201
 20
25.54493141924173
 30
0
 11
-56.45617147181201
 21
25.54493141924174
 31
0
  0
LINE
  8
1
 62
7
 10
-55.45617147181201
 20
32.84493141924173
 30
0
 11
-51.75617147181202
 21
32.84493141924173
 31
0
  0
LINE
  8
1
 62
7
 10
-51.75617147181202
 20
32.84493141924173
 30
0
 11
-51.45617147181201
 21
32.32531617697106
 31
0
  0
LINE
  8
1
 62
7
 10
-51.45617147181201
 20
32.32531617697106
 30
0
 11
-51.45617147181201
 21
26.36454666151239
 31
0
  0
LINE
  8
1
 62
7
 10
-51.45617147181201
 20
26.36454666151239
 30
0
 11
-51.75617147181202
 21
25.84493141924173
 31
0
  0
LINE
  8
1
 62
7
 10
-51.75617147181202
 20
25.84493141924173
 30
0
 11
-55.45617147181201
 21
25.84493141924173
 31
0
  0
LINE
  8
1
 62
7
 10
-51.75617147181202
 20
32.84493141924173
 30
0
 11
-51.75617147181202
 21
25.84493141924173
 31
0
  0
LINE
  8
1
 62
7
 10
-46.95617147181201
 20
32
 30
0
 11
-30.95617147181201
 21
22
 31
0
  0
LINE
  8
1
 62
7
 10
-28.95617147181201
 20
-7.103654500897772
 30
0
 11
-28.95617147181201
 21
-8.018407238238751
 31
0
  0
LINE
  8
1
 62
7
 10
-31.63809993002411
 20
-10.10010875863036
 30
0
 11
-42.95617147181201
 21
-10.10010875863036
 31
0
  0
LINE
  8
1
 62
7
 10
-45.51098523636142
 20
-17.76675513667412
 30
0
 11
-32.23357835408672
 21
-13.93304776942614
 31
0
  0
LINE
  8
1
 62
7
 10
-32.4013577072626
 20
-10.51739062451103
 30
0
 11
-44.4013577072626
 21
-13.98226059610101
 31
0
  0
LINE
  8
1
 62
7
 10
-84.95617147181201
 20
-21.5
 30
0
 11
-77.70617147181201
 21
-21.5
 31
0
  0
LINE
  8
1
 62
7
 10
-84.95617147181201
 20
-26.17157287525381
 30
0
 11
-84.95617147181201
 21
-21.5
 31
0
  0
LINE
  8
1
 62
7
 10
-77.70617147181201
 20
-36.5
 30
0
 11
-84.95617147181201
 21
-36.5
 31
0
  0
LINE
  8
1
 62
7
 10
-77.70617147181201
 20
-21.5
 30
0
 11
-77.70617147181201
 21
-36.5
 31
0
  0
LINE
  8
1
 62
7
 10
-94.20617147181198
 20
-21.5
 30
0
 11
-86.95617147181201
 21
-21.5
 31
0
  0
LINE
  8
1
 62
7
 10
-94.20617147181198
 20
-36.5
 30
0
 11
-94.20617147181198
 21
-21.5
 31
0
  0
LINE
  8
1
 62
7
 10
-86.95617147181201
 20
-36.5
 30
0
 11
-94.20617147181198
 21
-36.5
 31
0
  0
LINE
  8
1
 62
3
 10
-85.69367147181201
 20
-27.25
 30
0
 11
-86.21867147181202
 21
-27.25
 31
0
  0
LINE
  8
1
 62
3
 10
-84.20617147181201
 20
-29.2625
 30
0
 11
-84.20617147181201
 21
-28.7375
 31
0
  0
LINE
  8
1
 62
3
 10
-86.21867147181202
 20
-30.75
 30
0
 11
-85.69367147181201
 21
-30.75
 31
0
  0
LINE
  8
1
 62
3
 10
-87.70617147181201
 20
-28.7375
 30
0
 11
-87.70617147181201
 21
-29.2625
 31
0
  0
LINE
  8
1
 62
7
 10
-86.95617147181201
 20
-26.17157287525381
 30
0
 11
-86.95617147181201
 21
-21.5
 31
0
  0
LINE
  8
1
 62
7
 10
-86.95617147181201
 20
-22.5
 30
0
 11
-84.95617147181201
 21
-22.5
 31
0
  0
LINE
  8
1
 62
7
 10
-86.95617147181201
 20
-35.5
 30
0
 11
-84.95617147181201
 21
-35.5
 31
0
  0
LINE
  8
1
 62
7
 10
-86.95617147181201
 20
-31.82842712474618
 30
0
 11
-86.95617147181201
 21
-36.5
 31
0
  0
LINE
  8
1
 62
7
 10
-84.95617147181201
 20
-36.5
 30
0
 11
-84.95617147181201
 21
-31.82842712474618
 31
0
  0
LINE
  8
1
 62
3
 10
-82.39741612992081
 20
-24.55705309042925
 30
0
 11
-79.76492681370321
 21
-26.07692150578631
 31
0
  0
LINE
  8
1
 62
3
 10
-80.26492681370321
 20
-26.94294690957075
 30
0
 11
-82.89741612992081
 21
-25.42307849421368
 31
0
  0
LINE
  8
1
 62
3
 10
-79.76492681370321
 20
-31.9230784942137
 30
0
 11
-82.39741612992081
 21
-33.44294690957076
 31
0
  0
LINE
  8
1
 62
3
 10
-82.89741612992081
 20
-32.57692150578633
 30
0
 11
-80.26492681370321
 21
-31.05705309042926
 31
0
  0
LINE
  8
1
 62
3
 10
-92.14741612992083
 20
-26.07692150578631
 30
0
 11
-89.51492681370317
 21
-24.55705309042925
 31
0
  0
LINE
  8
1
 62
3
 10
-89.01492681370317
 20
-25.42307849421368
 30
0
 11
-91.64741612992083
 21
-26.94294690957075
 31
0
  0
LINE
  8
1
 62
3
 10
-89.51492681370317
 20
-33.44294690957076
 30
0
 11
-92.14741612992083
 21
-31.9230784942137
 31
0
  0
LINE
  8
1
 62
3
 10
-91.64741612992083
 20
-31.05705309042926
 30
0
 11
-89.01492681370317
 21
-32.57692150578633
 31
0
  0
LINE
  8
1
 62
7
 10
-80.33117147181201
 20
-2.000000000000002
 30
0
 11
-80.33117147181201
 21
-21.5
 31
0
  0
LINE
  8
1
 62
7
 10
-67.70617147181201
 20
1
 30
0
 11
-77.33117147181201
 21
1
 31
0
  0
LINE
  8
1
 62
7
 10
-86.58117147181201
 20
3
 30
0
 11
-67.70617147181201
 21
3
 31
0
  0
LINE
  8
1
 62
7
 10
-82.33117147181201
 20
-21.5
 30
0
 11
-82.33117147181201
 21
-2.000000000000002
 31
0
  0
LINE
  8
1
 62
7
 10
-91.58117147181198
 20
-21.5
 30
0
 11
-91.58117147181198
 21
-2.000000000000002
 31
0
  0
LINE
  8
1
 62
7
 10
-89.58117147181198
 20
-2.000000000000002
 30
0
 11
-89.58117147181198
 21
-21.5
 31
0
  0
LINE
  8
1
 62
7
 10
-81.33117147181201
 20
1
 30
0
 11
-86.58117147181201
 21
1
 31
0
  0
LINE
  8
1
 62
7
 10
-72.70617147181201
 20
3.25
 30
0
 11
-67.70617147181201
 21
3.25
 31
0
  0
LINE
  8
1
 62
7
 10
-72.70617147181201
 20
0.75
 30
0
 11
-67.70617147181201
 21
0.75
 31
0
  0
LINE
  8
1
 62
7
 10
-188.206171471812
 20
-5.500000000000002
 30
0
 11
-188.706171471812
 21
-5.000000000000002
 31
0
  0
LINE
  8
1
 62
7
 10
-188.706171471812
 20
-5.000000000000002
 30
0
 11
-188.706171471812
 21
7
 31
0
  0
LINE
  8
1
 62
7
 10
-188.706171471812
 20
4.623475382979792
 30
0
 11
-188.206171471812
 21
5.123475382979792
 31
0
  0
LINE
  8
1
 62
7
 10
-188.206171471812
 20
-5.500000000000002
 30
0
 11
-188.206171471812
 21
5.123475382979792
 31
0
  0
LINE
  8
1
 62
7
 10
-1.706171471812013
 20
-5.000000000000002
 30
0
 11
-2.206171471812013
 21
-5.500000000000002
 31
0
  0
LINE
  8
1
 62
7
 10
-2.206171471812013
 20
5.123475382979792
 30
0
 11
-1.706171471812013
 21
4.623475382979792
 31
0
  0
LINE
  8
1
 62
7
 10
-2.206171471812013
 20
5.123475382979792
 30
0
 11
-2.206171471812013
 21
-5.500000000000002
 31
0
  0
LINE
  8
1
 62
7
 10
-1.706171471812013
 20
-5.000000000000002
 30
0
 11
-1.706171471812013
 21
7
 31
0
  0
LINE
  8
1
 62
7
 10
-54.45617147181201
 20
193.1010509539395
 30
0
 11
-48.95617147181201
 21
193.1010509539395
 31
0
  0
LINE
  8
1
 62
7
 10
-44.95617147181201
 20
181.1010509539395
 30
0
 11
-30.95617147181201
 21
181.1010509539395
 31
0
  0
LINE
  8
1
 62
7
 10
-28.95617147181201
 20
179.1010509539395
 30
0
 11
-28.95617147181201
 21
159.1010509539499
 31
0
  0
LINE
  8
1
 62
7
 10
-30.95617147181201
 20
181.1010509539395
 30
0
 11
-45.51098523636142
 21
187.5965051236954
 31
0
  0
LINE
  8
1
 62
7
 10
-44.98414487744552
 20
161.1010509539395
 30
0
 11
-33.20715573903692
 21
161.1010509539395
 31
0
  0
LINE
  8
1
 62
7
 10
-56.45617147181201
 20
188.4459823731813
 30
0
 11
-55.45617147181201
 21
189.4459823731813
 31
0
  0
LINE
  8
1
 62
7
 10
-56.45617147181201
 20
187.4459823731813
 30
0
 11
-55.45617147181201
 21
188.4459823731813
 31
0
  0
LINE
  8
1
 62
7
 10
-56.45617147181201
 20
192.2459823731813
 30
0
 11
-55.45617147181201
 21
192.2459823731813
 31
0
  0
LINE
  8
1
 62
7
 10
-55.45617147181201
 20
192.2459823731813
 30
0
 11
-55.45617147181201
 21
184.6459823731813
 31
0
  0
LINE
  8
1
 62
7
 10
-55.45617147181201
 20
184.6459823731813
 30
0
 11
-56.45617147181201
 21
184.6459823731813
 31
0
  0
LINE
  8
1
 62
7
 10
-55.45617147181201
 20
191.9459823731813
 30
0
 11
-51.75617147181202
 21
191.9459823731813
 31
0
  0
LINE
  8
1
 62
7
 10
-51.75617147181202
 20
191.9459823731813
 30
0
 11
-51.45617147181201
 21
191.4263671309107
 31
0
  0
LINE
  8
1
 62
7
 10
-51.45617147181201
 20
191.4263671309107
 30
0
 11
-51.45617147181201
 21
185.465597615452
 31
0
  0
LINE
  8
1
 62
7
 10
-51.45617147181201
 20
185.465597615452
 30
0
 11
-51.75617147181202
 21
184.9459823731813
 31
0
  0
LINE
  8
1
 62
7
 10
-51.75617147181202
 20
184.9459823731813
 30
0
 11
-55.45617147181201
 21
184.9459823731813
 31
0
  0
LINE
  8
1
 62
7
 10
-51.75617147181202
 20
191.9459823731813
 30
0
 11
-51.75617147181202
 21
184.9459823731813
 31
0
  0
LINE
  8
1
 62
7
 10
-28.95617147181201
 20
168.3510509539293
 30
0
 11
-27.95617147181201
 21
168.3510509539293
 31
0
  0
LINE
  8
1
 62
7
 10
-27.95617147181201
 20
168.3510509539293
 30
0
 11
-27.95617147181201
 21
149.8510509539293
 31
0
  0
LINE
  8
1
 62
7
 10
-26.70617147181201
 20
166.6010509539293
 30
0
 11
-27.95617147181201
 21
166.6010509539293
 31
0
  0
LINE
  8
1
 62
7
 10
-26.70617147181201
 20
151.6010509539293
 30
0
 11
-26.70617147181201
 21
166.6010509539293
 31
0
  0
LINE
  8
1
 62
7
 10
-2.206171471812013
 20
164.6010509539293
 30
0
 11
-26.70617147181201
 21
164.6010509539293
 31
0
  0
LINE
  8
1
 62
7
 10
-2.206171471812013
 20
164.6010509539293
 30
0
 11
-1.706171471812013
 21
164.1010509539293
 31
0
  0
LINE
  8
1
 62
7
 10
-19.70617147181201
 20
161.1010509539293
 30
0
 11
-1.706171471812013
 21
161.1010509539293
 31
0
  0
LINE
  8
1
 62
7
 10
-56.45617147181201
 20
111.1010509539293
 30
0
 11
-56.45617147181201
 21
207.1010509539293
 31
0
  0
LINE
  8
1
 62
7
 10
-1.706171471812013
 20
164.1010509539293
 30
0
 11
-1.706171471812013
 21
154.1010509539294
 31
0
  0
LINE
  8
1
 62
7
 10
-56.45617147181201
 20
204.1010509539395
 30
0
 11
-44.70617147181201
 21
204.1010509539395
 31
0
  0
LINE
  8
1
 62
7
 10
-42.70617147181201
 20
202.1010509539395
 30
0
 11
-42.70617147181201
 21
186.3447859634883
 31
0
  0
LINE
  8
1
 62
7
 10
-48.95617147181201
 20
125.1010509539191
 30
0
 11
-54.45617147181201
 21
125.1010509539191
 31
0
  0
LINE
  8
1
 62
7
 10
-30.95617147181201
 20
137.1010509539191
 30
0
 11
-44.95617147181201
 21
137.1010509539191
 31
0
  0
LINE
  8
1
 62
7
 10
-28.95617147181201
 20
159.1010509539087
 30
0
 11
-28.95617147181201
 21
139.1010509539191
 31
0
  0
LINE
  8
1
 62
7
 10
-45.51098523636142
 20
130.6055967841633
 30
0
 11
-30.95617147181201
 21
137.1010509539191
 31
0
  0
LINE
  8
1
 62
7
 10
-33.20715573903692
 20
157.1010509539191
 30
0
 11
-44.98414487744552
 21
157.1010509539191
 31
0
  0
LINE
  8
1
 62
7
 10
-55.45617147181201
 20
128.7561195346773
 30
0
 11
-56.45617147181201
 21
129.7561195346773
 31
0
  0
LINE
  8
1
 62
7
 10
-55.45617147181201
 20
129.7561195346773
 30
0
 11
-56.45617147181201
 21
130.7561195346773
 31
0
  0
LINE
  8
1
 62
7
 10
-55.45617147181201
 20
125.9561195346773
 30
0
 11
-56.45617147181201
 21
125.9561195346773
 31
0
  0
LINE
  8
1
 62
7
 10
-55.45617147181201
 20
133.5561195346773
 30
0
 11
-55.45617147181201
 21
125.9561195346773
 31
0
  0
LINE
  8
1
 62
7
 10
-56.45617147181201
 20
133.5561195346773
 30
0
 11
-55.45617147181201
 21
133.5561195346773
 31
0
  0
LINE
  8
1
 62
7
 10
-51.75617147181202
 20
126.2561195346773
 30
0
 11
-55.45617147181201
 21
126.2561195346773
 31
0
  0
LINE
  8
1
 62
7
 10
-51.45617147181201
 20
126.775734776948
 30
0
 11
-51.75617147181202
 21
126.2561195346773
 31
0
  0
LINE
  8
1
 62
7
 10
-51.45617147181201
 20
132.7365042924067
 30
0
 11
-51.45617147181201
 21
126.775734776948
 31
0
  0
LINE
  8
1
 62
7
 10
-51.75617147181202
 20
133.2561195346773
 30
0
 11
-51.45617147181201
 21
132.7365042924067
 31
0
  0
LINE
  8
1
 62
7
 10
-55.45617147181201
 20
133.2561195346773
 30
0
 11
-51.75617147181202
 21
133.2561195346773
 31
0
  0
LINE
  8
1
 62
7
 10
-51.75617147181202
 20
133.2561195346773
 30
0
 11
-51.75617147181202
 21
126.2561195346773
 31
0
  0
LINE
  8
1
 62
7
 10
-27.95617147181201
 20
149.8510509539293
 30
0
 11
-28.95617147181201
 21
149.8510509539293
 31
0
  0
LINE
  8
1
 62
7
 10
-27.95617147181201
 20
151.6010509539293
 30
0
 11
-26.70617147181201
 21
151.6010509539293
 31
0
  0
LINE
  8
1
 62
7
 10
-26.70617147181201
 20
153.6010509539294
 30
0
 11
-2.206171471812013
 21
153.6010509539294
 31
0
  0
LINE
  8
1
 62
7
 10
-1.706171471812013
 20
154.1010509539294
 30
0
 11
-2.206171471812013
 21
153.6010509539294
 31
0
  0
LINE
  8
1
 62
7
 10
-1.706171471812013
 20
157.1010509539293
 30
0
 11
-19.70617147181201
 21
157.1010509539293
 31
0
  0
LINE
  8
1
 62
7
 10
-44.70617147181201
 20
114.1010509539191
 30
0
 11
-56.45617147181201
 21
114.1010509539191
 31
0
  0
LINE
  8
1
 62
7
 10
-42.70617147181201
 20
131.8573159443703
 30
0
 11
-42.70617147181201
 21
116.1010509539191
 31
0
  0
LINE
  8
1
 62
7
 10
-141.456171471812
 20
193.1010509539395
 30
0
 11
-135.956171471812
 21
193.1010509539395
 31
0
  0
LINE
  8
1
 62
7
 10
-159.456171471812
 20
181.1010509539395
 30
0
 11
-145.456171471812
 21
181.1010509539395
 31
0
  0
LINE
  8
1
 62
7
 10
-161.456171471812
 20
159.1010509539499
 30
0
 11
-161.456171471812
 21
179.1010509539395
 31
0
  0
LINE
  8
1
 62
7
 10
-144.9013577072626
 20
187.5965051236954
 30
0
 11
-159.456171471812
 21
181.1010509539395
 31
0
  0
LINE
  8
1
 62
7
 10
-157.2051872045871
 20
161.1010509539395
 30
0
 11
-145.4281980661785
 21
161.1010509539395
 31
0
  0
LINE
  8
1
 62
7
 10
-134.956171471812
 20
189.4459823731813
 30
0
 11
-133.956171471812
 21
188.4459823731813
 31
0
  0
LINE
  8
1
 62
7
 10
-134.956171471812
 20
188.4459823731813
 30
0
 11
-133.956171471812
 21
187.4459823731813
 31
0
  0
LINE
  8
1
 62
7
 10
-134.956171471812
 20
192.2459823731813
 30
0
 11
-133.956171471812
 21
192.2459823731813
 31
0
  0
LINE
  8
1
 62
7
 10
-134.956171471812
 20
184.6459823731813
 30
0
 11
-134.956171471812
 21
192.2459823731813
 31
0
  0
LINE
  8
1
 62
7
 10
-133.956171471812
 20
184.6459823731813
 30
0
 11
-134.956171471812
 21
184.6459823731813
 31
0
  0
LINE
  8
1
 62
7
 10
-138.656171471812
 20
191.9459823731813
 30
0
 11
-134.956171471812
 21
191.9459823731813
 31
0
  0
LINE
  8
1
 62
7
 10
-138.956171471812
 20
191.4263671309107
 30
0
 11
-138.656171471812
 21
191.9459823731813
 31
0
  0
LINE
  8
1
 62
7
 10
-138.956171471812
 20
185.465597615452
 30
0
 11
-138.956171471812
 21
191.4263671309107
 31
0
  0
LINE
  8
1
 62
7
 10
-138.656171471812
 20
184.9459823731813
 30
0
 11
-138.956171471812
 21
185.465597615452
 31
0
  0
LINE
  8
1
 62
7
 10
-134.956171471812
 20
184.9459823731813
 30
0
 11
-138.656171471812
 21
184.9459823731813
 31
0
  0
LINE
  8
1
 62
7
 10
-138.656171471812
 20
184.9459823731813
 30
0
 11
-138.656171471812
 21
191.9459823731813
 31
0
  0
LINE
  8
1
 62
7
 10
-162.456171471812
 20
168.3510509539293
 30
0
 11
-161.456171471812
 21
168.3510509539293
 31
0
  0
LINE
  8
1
 62
7
 10
-162.456171471812
 20
149.8510509539293
 30
0
 11
-162.456171471812
 21
168.3510509539293
 31
0
  0
LINE
  8
1
 62
7
 10
-162.456171471812
 20
166.6010509539293
 30
0
 11
-163.706171471812
 21
166.6010509539293
 31
0
  0
LINE
  8
1
 62
7
 10
-163.706171471812
 20
164.6010509539293
 30
0
 11
-188.206171471812
 21
164.6010509539293
 31
0
  0
LINE
  8
1
 62
7
 10
-188.706171471812
 20
164.1010509539293
 30
0
 11
-188.206171471812
 21
164.6010509539293
 31
0
  0
LINE
  8
1
 62
7
 10
-188.706171471812
 20
161.1010509539293
 30
0
 11
-170.706171471812
 21
161.1010509539293
 31
0
  0
LINE
  8
1
 62
7
 10
-133.956171471812
 20
207.1010509539293
 30
0
 11
-133.956171471812
 21
111.1010509539293
 31
0
  0
LINE
  8
1
 62
7
 10
-145.706171471812
 20
204.1010509539395
 30
0
 11
-133.956171471812
 21
204.1010509539395
 31
0
  0
LINE
  8
1
 62
7
 10
-147.706171471812
 20
186.3447859634883
 30
0
 11
-147.706171471812
 21
202.1010509539395
 31
0
  0
LINE
  8
1
 62
7
 10
-136.956171471812
 20
195.3510509539395
 30
0
 11
-136.956171471812
 21
193.1010509539395
 31
0
  0
LINE
  8
1
 62
7
 10
-143.456171471812
 20
162.7677176206062
 30
0
 11
-143.456171471812
 21
195.3510509539395
 31
0
  0
LINE
  8
1
 62
7
 10
-131.956171471812
 20
209.1010509539293
 30
0
 11
-58.45617147181201
 21
209.1010509539293
 31
0
  0
LINE
  8
1
 62
7
 10
-135.956171471812
 20
125.1010509539191
 30
0
 11
-141.456171471812
 21
125.1010509539191
 31
0
  0
LINE
  8
1
 62
7
 10
-145.456171471812
 20
137.1010509539191
 30
0
 11
-159.456171471812
 21
137.1010509539191
 31
0
  0
LINE
  8
1
 62
7
 10
-161.456171471812
 20
139.1010509539191
 30
0
 11
-161.456171471812
 21
159.1010509539087
 31
0
  0
LINE
  8
1
 62
7
 10
-159.456171471812
 20
137.1010509539191
 30
0
 11
-144.9013577072626
 21
130.6055967841633
 31
0
  0
LINE
  8
1
 62
7
 10
-145.4281980661785
 20
157.1010509539191
 30
0
 11
-157.2051872045871
 21
157.1010509539191
 31
0
  0
LINE
  8
1
 62
7
 10
-133.956171471812
 20
129.7561195346773
 30
0
 11
-134.956171471812
 21
128.7561195346773
 31
0
  0
LINE
  8
1
 62
7
 10
-133.956171471812
 20
130.7561195346773
 30
0
 11
-134.956171471812
 21
129.7561195346773
 31
0
  0
LINE
  8
1
 62
7
 10
-133.956171471812
 20
125.9561195346773
 30
0
 11
-134.956171471812
 21
125.9561195346773
 31
0
  0
LINE
  8
1
 62
7
 10
-134.956171471812
 20
125.9561195346773
 30
0
 11
-134.956171471812
 21
133.5561195346773
 31
0
  0
LINE
  8
1
 62
7
 10
-134.956171471812
 20
133.5561195346773
 30
0
 11
-133.956171471812
 21
133.5561195346773
 31
0
  0
LINE
  8
1
 62
7
 10
-134.956171471812
 20
126.2561195346773
 30
0
 11
-138.656171471812
 21
126.2561195346773
 31
0
  0
LINE
  8
1
 62
7
 10
-138.656171471812
 20
126.2561195346773
 30
0
 11
-138.956171471812
 21
126.775734776948
 31
0
  0
LINE
  8
1
 62
7
 10
-138.956171471812
 20
126.775734776948
 30
0
 11
-138.956171471812
 21
132.7365042924067
 31
0
  0
LINE
  8
1
 62
7
 10
-138.956171471812
 20
132.7365042924067
 30
0
 11
-138.656171471812
 21
133.2561195346773
 31
0
  0
LINE
  8
1
 62
7
 10
-138.656171471812
 20
133.2561195346773
 30
0
 11
-134.956171471812
 21
133.2561195346773
 31
0
  0
LINE
  8
1
 62
7
 10
-138.656171471812
 20
126.2561195346773
 30
0
 11
-138.656171471812
 21
133.2561195346773
 31
0
  0
LINE
  8
1
 62
7
 10
-161.456171471812
 20
149.8510509539293
 30
0
 11
-162.456171471812
 21
149.8510509539293
 31
0
  0
LINE
  8
1
 62
7
 10
-163.706171471812
 20
151.6010509539293
 30
0
 11
-162.456171471812
 21
151.6010509539293
 31
0
  0
LINE
  8
1
 62
7
 10
-163.706171471812
 20
166.6010509539293
 30
0
 11
-163.706171471812
 21
151.6010509539293
 31
0
  0
LINE
  8
1
 62
7
 10
-188.206171471812
 20
153.6010509539294
 30
0
 11
-163.706171471812
 21
153.6010509539294
 31
0
  0
LINE
  8
1
 62
7
 10
-188.206171471812
 20
153.6010509539294
 30
0
 11
-188.706171471812
 21
154.1010509539294
 31
0
  0
LINE
  8
1
 62
7
 10
-170.706171471812
 20
157.1010509539293
 30
0
 11
-188.706171471812
 21
157.1010509539293
 31
0
  0
LINE
  8
1
 62
7
 10
-188.706171471812
 20
154.1010509539294
 30
0
 11
-188.706171471812
 21
164.1010509539293
 31
0
  0
LINE
  8
1
 62
7
 10
-133.956171471812
 20
114.1010509539191
 30
0
 11
-145.706171471812
 21
114.1010509539191
 31
0
  0
LINE
  8
1
 62
7
 10
-147.706171471812
 20
116.1010509539191
 30
0
 11
-147.706171471812
 21
131.8573159443703
 31
0
  0
LINE
  8
1
 62
7
 10
-131.956171471812
 20
109.1010509539293
 30
0
 11
-58.45617147181201
 21
109.1010509539293
 31
0
  0
LINE
  8
1
 62
3
 10
-1.706171471812013
 20
159.1010509539293
 30
0
 11
3.293828528187987
 21
159.1010509539293
 31
0
  0
LINE
  8
1
 62
3
 10
-193.706171471812
 20
159.1010509539293
 30
0
 11
-188.706171471812
 21
159.1010509539293
 31
0
  0
LINE
  8
1
 62
3
  6
DASHDOT
 10
-140.206171471812
 20
183.558324260755
 30
0
 11
-140.206171471812
 21
200.152828042129
 31
0
  0
LINE
  8
1
 62
7
 10
-2.206171471812013
 20
164.6010509539293
 30
0
 11
-2.206171471812013
 21
161.1010509539293
 31
0
  0
LINE
  8
1
 62
7
 10
-2.206171471812013
 20
153.6010509539294
 30
0
 11
-2.206171471812013
 21
157.1010509539293
 31
0
  0
LINE
  8
1
 62
7
 10
-188.206171471812
 20
157.1010509539293
 30
0
 11
-188.206171471812
 21
153.6010509539294
 31
0
  0
LINE
  8
1
 62
7
 10
-188.206171471812
 20
161.1010509539293
 30
0
 11
-188.206171471812
 21
164.6010509539293
 31
0
  0
LINE
  8
1
 62
3
  6
DASHDOT
 10
113.8830528760236
 20
0
 30
0
 11
106.9245737864775
 21
0
 31
0
  0
LINE
  8
1
 62
3
  6
DASHDOT
 10
110.4038133312506
 20
3.479239544773089
 30
0
 11
110.4038133312506
 21
-3.479239544773092
 31
0
  0
LINE
  8
1
 62
7
 10
-65.20669451941411
 20
109.1010509539293
 30
0
 11
-65.20669451941411
 21
98.10105095393949
 31
0
  0
LINE
  8
1
 62
7
 10
-65.20669451941411
 20
98.10105095393949
 30
0
 11
-125.2056484242099
 21
98.10105095393949
 31
0
  0
LINE
  8
1
 62
7
 10
-125.2056484242099
 20
98.10105095393949
 30
0
 11
-125.2056484242099
 21
109.1010509539293
 31
0
  0
LINE
  8
1
 62
7
  6
DASHED
 10
-136.956171471812
 20
187.8510509539395
 30
0
 11
-136.956171471812
 21
193.1010509539395
 31
0
  0
LINE
  8
1
 62
7
 10
-46.95617147181201
 20
191.1010509539395
 30
0
 11
-46.95617147181201
 21
162.7677176206062
 31
0
  0
LINE
  8
1
 62
7
 10
-46.95617147181201
 20
122.8510509539191
 30
0
 11
-46.95617147181201
 21
155.4343842872524
 31
0
  0
LINE
  8
1
 62
7
 10
-143.456171471812
 20
127.1010509539191
 30
0
 11
-143.456171471812
 21
155.4343842872524
 31
0
  0
LINE
  8
1
 62
7
 10
-136.956171471812
 20
125.1010509539191
 30
0
 11
-136.956171471812
 21
122.8510509539191
 31
0
  0
LINE
  8
1
 62
7
  6
DASHED
 10
-136.956171471812
 20
125.1010509539191
 30
0
 11
-136.956171471812
 21
130.351050953919
 31
0
  0
LINE
  8
1
 62
3
  6
DASHDOT
 10
-140.206171471812
 20
118.0492738657296
 30
0
 11
-140.206171471812
 21
134.6437776471036
 31
0
  0
LINE
  8
1
 62
7
 10
-143.456171471812
 20
122.8510509539191
 30
0
 11
-143.456171471812
 21
127.1010509539191
 31
0
  0
LINE
  8
1
 62
3
  6
DASHDOT
 10
-50.20617147181213
 20
134.6437776471036
 30
0
 11
-50.20617147181213
 21
118.0492738657296
 31
0
  0
LINE
  8
1
 62
7
  6
DASHED
 10
-53.45617147181201
 20
130.351050953919
 30
0
 11
-53.45617147181201
 21
125.1010509539191
 31
0
  0
LINE
  8
1
 62
7
 10
-53.45617147181201
 20
122.8510509539191
 30
0
 11
-53.45617147181201
 21
125.1010509539191
 31
0
  0
LINE
  8
1
 62
7
 10
-53.45617147181201
 20
193.1010509539395
 30
0
 11
-53.45617147181201
 21
195.3510509539395
 31
0
  0
LINE
  8
1
 62
7
  6
DASHED
 10
-53.45617147181201
 20
193.1010509539395
 30
0
 11
-53.45617147181201
 21
187.8510509539395
 31
0
  0
LINE
  8
1
 62
3
  6
DASHDOT
 10
-50.20617147181201
 20
200.152828042129
 30
0
 11
-50.20617147181213
 21
183.558324260755
 31
0
  0
LINE
  8
1
 62
7
 10
-46.95617147181201
 20
195.3510509539395
 30
0
 11
-46.95617147181201
 21
162.7677176206062
 31
0
  0
LINE
  8
1
 62
3
  6
DASHDOT
 10
77.9038133312506
 20
-53.1416628056973
 30
0
 11
77.9038133312506
 21
-67.2984332647663
 31
0
  0
LINE
  8
1
 62
3
  6
DASHDOT
 10
142.9038133312507
 20
-67.2984332647663
 30
0
 11
142.9038133312507
 21
-53.1416628056973
 31
0
  0
LINE
  8
1
 62
3
  6
DASHDOT
 10
-50.20617147181213
 20
-53.1416628056973
 30
0
 11
-50.20617147181213
 21
-67.2984332647663
 31
0
  0
LINE
  8
1
 62
3
  6
DASHDOT
 10
-140.206171471812
 20
-67.2984332647663
 30
0
 11
-140.206171471812
 21
-53.1416628056973
 31
0
  0
ARC
  8
1
 62
7
 10
-122.206171471812
 20
-65
 30
0
 40
2
 50
90
 51
180
  0
ARC
  8
1
 62
7
 10
-145.706171471812
 20
-57
 30
0
 40
2
 50
90
 51
180
  0
ARC
  8
1
 62
7
 10
-132.206171471812
 20
-52
 30
0
 40
3
 50
270
 51
0
  0
ARC
  8
1
 62
7
 10
-135.956171471812
 20
36
 30
0
 40
2
 50
270
 51
0
  0
ARC
  8
1
 62
7
 10
-145.456171471812
 20
24
 30
0
 40
2
 50
270
 51
0
  0
ARC
  8
1
 62
7
 10
-141.456171471812
 20
32
 30
0
 40
2
 50
90
 51
180
  0
ARC
  8
1
 62
7
 10
-159.456171471812
 20
20
 30
0
 40
2
 50
90
 51
180
  0
ARC
  8
1
 62
7
 10
-135.956171471812
 20
-36
 30
0
 40
2
 50
0
 51
90
  0
ARC
  8
1
 62
7
 10
-145.456171471812
 20
-24
 30
0
 40
2
 50
0
 51
90
  0
ARC
  8
1
 62
7
 10
-141.456171471812
 20
-32
 30
0
 40
2
 50
180
 51
270
  0
ARC
  8
1
 62
7
 10
-159.456171471812
 20
-20
 30
0
 40
2
 50
180
 51
270
  0
ARC
  8
1
 62
7
 10
-131.956171471812
 20
-48
 30
0
 40
2
 50
180
 51
270
  0
ARC
  8
1
 62
7
 10
-131.956171471812
 20
48
 30
0
 40
2
 50
90
 51
180
  0
ARC
  8
1
 62
7
 10
-131.206171471812
 20
-52
 30
0
 40
2
 50
0
 51
90
  0
ARC
  8
1
 62
7
 10
113.6038133312506
 20
-8.798469228349532
 30
0
 40
1.699999999999998
 50
270
 51
0
  0
ARC
  8
1
 62
7
 10
107.2038133312506
 20
-8.798469228349543
 30
0
 40
1.700000000000003
 50
180
 51
270
  0
ARC
  8
1
 62
7
 10
117.8538133312506
 20
-7.815473623811751
 30
0
 40
2.550000000000017
 50
131.5937743432903
 51
180
  0
ARC
  8
1
 62
7
 10
102.9538133312506
 20
-7.815473623811791
 30
0
 40
2.549999999999997
 50
0
 51
48.40622565671016
  0
ARC
  8
1
 62
7
 10
67.4038133312506
 20
-57
 30
0
 40
2
 50
90
 51
180
  0
ARC
  8
1
 62
7
 10
91.4038133312506
 20
-57
 30
0
 40
2
 50
0
 51
90
  0
ARC
  8
1
 62
7
 10
95.4038133312506
 20
-65
 30
0
 40
2
 50
90
 51
180
  0
ARC
  8
1
 62
7
 10
-131.206171471812
 20
-23.7944947177034
 30
0
 40
2
 50
0
 51
90
  0
ARC
  8
1
 62
7
 10
106.4038133312506
 20
23.66431913239847
 30
0
 40
1.999999999999999
 50
279.5940682268595
 51
0
  0
ARC
  8
1
 62
7
 10
106.4038133312506
 20
31.74901573277509
 30
0
 40
2
 50
0
 51
97.18075578145829
  0
ARC
  8
1
 62
7
 10
114.4038133312506
 20
23.66431913239847
 30
0
 40
2
 50
180
 51
260.4059317731405
  0
ARC
  8
1
 62
7
 10
114.4038133312506
 20
31.74901573277509
 30
0
 40
1.999999999999997
 50
82.81924421854171
 51
180
  0
ARC
  8
1
 62
7
 10
91.90991179933127
 20
-15.29626118133696
 30
0
 40
2.000000000000106
 50
39.59406822685745
 51
120.0000000000001
  0
ARC
  8
1
 62
7
 10
84.90835916151548
 20
-19.33860948152527
 30
0
 40
1.999999999999995
 50
120.0000000000001
 51
217.1807557814573
  0
ARC
  8
1
 62
7
 10
87.90991179933127
 20
-8.368057951061431
 30
0
 40
2.000000000000001
 50
299.9999999999999
 51
20.40593177313943
  0
ARC
  8
1
 62
7
 10
80.90835916151548
 20
-12.41040625124974
 30
0
 40
2.000000000000064
 50
202.8192442185409
 51
299.9999999999999
  0
ARC
  8
1
 62
7
 10
132.8977148631697
 20
-8.368057951061481
 30
0
 40
2.000000000000016
 50
159.5940682268606
 51
240
  0
ARC
  8
1
 62
7
 10
139.8992675009856
 20
-12.4104062512498
 30
0
 40
2.000000000000003
 50
240
 51
337.1807557814578
  0
ARC
  8
1
 62
7
 10
128.8977148631697
 20
-15.29626118133702
 30
0
 40
2.000000000000003
 50
60.00000000000005
 51
140.4059317731409
  0
ARC
  8
1
 62
7
 10
135.8992675009855
 20
-19.33860948152533
 30
0
 40
2.000000000000055
 50
322.8192442185429
 51
59.99999999999992
  0
ARC
  8
1
 62
7
 10
-145.456171471812
 20
-19.68826019434806
 30
0
 40
2
 50
0
 51
73.89449987642068
  0
ARC
  8
1
 62
7
 10
-145.456171471812
 20
-12.06075553842707
 30
0
 40
1.999999999999997
 50
253.8944998764215
 51
0
  0
ARC
  8
1
 62
7
 10
-157.456171471812
 20
-8.59588556683709
 30
0
 40
2
 50
180
 51
253.8944998764215
  0
ARC
  8
1
 62
7
 10
-158.456171471812
 20
-14.89380029826311
 30
0
 40
1.000000000000002
 50
73.89449987642068
 51
180
  0
ARC
  8
1
 62
7
 10
-113.081171471812
 20
-2.000000000000002
 30
0
 40
3
 50
0
 51
90
  0
ARC
  8
1
 62
7
 10
-113.081171471812
 20
-2.000000000000002
 30
0
 40
5
 50
0
 51
90
  0
ARC
  8
1
 62
7
 10
-103.831171471812
 20
-2.000000000000002
 30
0
 40
4.999999999999972
 50
0
 51
90
  0
ARC
  8
1
 62
7
 10
-103.831171471812
 20
-2.000000000000002
 30
0
 40
3
 50
0
 51
90
  0
ARC
  8
1
 62
7
 10
153.4038133312506
 20
-57
 30
0
 40
2
 50
0
 51
90
  0
ARC
  8
1
 62
7
 10
129.4038133312506
 20
-57
 30
0
 40
2
 50
90
 51
180
  0
ARC
  8
1
 62
7
 10
125.4038133312506
 20
-65
 30
0
 40
2
 50
0
 51
90
  0
ARC
  8
1
 62
7
 10
55.4298795399248
 20
-4.257359312880711
 30
0
 40
3
 50
180
 51
224.9999999999991
  0
ARC
  8
1
 62
7
 10
55.40381333125089
 20
-18.57106781186547
 30
0
 40
3
 50
0
 51
45.00000000000048
  0
ARC
  8
1
 62
7
 10
55.40381333125089
 20
-18.57106781186547
 30
0
 40
5
 50
0
 51
45.00000000000016
  0
ARC
  8
1
 62
7
 10
55.4298795399248
 20
-4.257359312880711
 30
0
 40
5
 50
180
 51
224.9999999999993
  0
ARC
  8
1
 62
7
 10
55.4298795399248
 20
-2.000000000000002
 30
0
 40
5.000000000000002
 50
90
 51
180
  0
ARC
  8
1
 62
7
 10
55.4298795399248
 20
-2.000000000000002
 30
0
 40
3.000000000000002
 50
90
 51
179.9999999999998
  0
ARC
  8
1
 62
7
 10
-68.20617147181201
 20
-65
 30
0
 40
2
 50
0
 51
90
  0
ARC
  8
1
 62
7
 10
-44.70617147181201
 20
-57
 30
0
 40
2
 50
0
 51
90
  0
ARC
  8
1
 62
7
 10
-58.20617147181201
 20
-52
 30
0
 40
3
 50
180
 51
270
  0
ARC
  8
1
 62
7
 10
-54.45617147181201
 20
36
 30
0
 40
2
 50
180
 51
270
  0
ARC
  8
1
 62
7
 10
-44.95617147181201
 20
24
 30
0
 40
2
 50
180
 51
270
  0
ARC
  8
1
 62
7
 10
-48.95617147181201
 20
32
 30
0
 40
2
 50
0
 51
90
  0
ARC
  8
1
 62
7
 10
-30.95617147181201
 20
20
 30
0
 40
2
 50
0
 51
90
  0
ARC
  8
1
 62
7
 10
-54.45617147181201
 20
-36
 30
0
 40
2
 50
90
 51
180
  0
ARC
  8
1
 62
7
 10
-44.95617147181201
 20
-24
 30
0
 40
2
 50
90
 51
180
  0
ARC
  8
1
 62
7
 10
-48.95617147181201
 20
-32
 30
0
 40
2
 50
270
 51
0
  0
ARC
  8
1
 62
7
 10
-30.95617147181201
 20
-20
 30
0
 40
2
 50
270
 51
0
  0
ARC
  8
1
 62
7
 10
-58.45617147181201
 20
-48
 30
0
 40
2
 50
270
 51
0
  0
ARC
  8
1
 62
7
 10
-58.45617147181201
 20
48
 30
0
 40
2
 50
0
 51
90
  0
ARC
  8
1
 62
7
 10
-59.20617147181201
 20
-52
 30
0
 40
2
 50
90
 51
180
  0
ARC
  8
1
 62
7
 10
-59.20617147181201
 20
-23.7944947177034
 30
0
 40
2
 50
90
 51
180
  0
ARC
  8
1
 62
7
 10
-44.95617147181201
 20
-19.68826019434806
 30
0
 40
2.000000000000004
 50
106.1055001235793
 51
180
  0
ARC
  8
1
 62
7
 10
-44.95617147181201
 20
-12.06075553842707
 30
0
 40
2
 50
180
 51
286.1055001235795
  0
ARC
  8
1
 62
7
 10
-32.95617147181201
 20
-8.59588556683709
 30
0
 40
2.000000000000006
 50
286.1055001235795
 51
0
  0
ARC
  8
1
 62
7
 10
-31.95617147181201
 20
-14.89380029826311
 30
0
 40
1
 50
0
 51
106.1055001235795
  0
ARC
  8
1
 62
7
 10
-77.33117147181201
 20
-2.000000000000002
 30
0
 40
3.000000000000002
 50
90
 51
180
  0
ARC
  8
1
 62
7
 10
-77.33117147181201
 20
-2.000000000000002
 30
0
 40
5.000000000000002
 50
90
 51
180
  0
ARC
  8
1
 62
7
 10
-86.58117147181201
 20
-2.000000000000002
 30
0
 40
5.000000000000002
 50
90
 51
180
  0
ARC
  8
1
 62
7
 10
-86.58117147181201
 20
-2.000000000000002
 30
0
 40
3.000000000000002
 50
90
 51
180
  0
ARC
  8
1
 62
7
 10
-58.45617147181201
 20
207.1010509539293
 30
0
 40
2
 50
0
 51
90
  0
ARC
  8
1
 62
7
 10
-54.45617147181201
 20
195.1010509539395
 30
0
 40
2
 50
180
 51
270
  0
ARC
  8
1
 62
7
 10
-48.95617147181201
 20
191.1010509539395
 30
0
 40
2
 50
0
 51
90
  0
ARC
  8
1
 62
7
 10
-44.95617147181201
 20
189.5180101813693
 30
0
 40
2
 50
180
 51
253.8944998764204
  0
ARC
  8
1
 62
7
 10
-44.98414487744552
 20
163.1010509539395
 30
0
 40
1.999999999999949
 50
189.5940682268601
 51
270
  0
ARC
  8
1
 62
7
 10
-33.20715573903692
 20
163.1010509539395
 30
0
 40
2
 50
270
 51
7.180755781458292
  0
ARC
  8
1
 62
7
 10
-19.70617147181201
 20
159.1010509539293
 30
0
 40
2
 50
90
 51
270
  0
ARC
  8
1
 62
7
 10
-44.95617147181201
 20
183.1010509539395
 30
0
 40
2
 50
180
 51
270
  0
ARC
  8
1
 62
7
 10
-30.95617147181201
 20
179.1010509539395
 30
0
 40
2
 50
0
 51
90
  0
ARC
  8
1
 62
7
 10
-44.70617147181201
 20
202.1010509539395
 30
0
 40
2
 50
0
 51
90
  0
ARC
  8
1
 62
7
 10
-58.45617147181201
 20
111.1010509539293
 30
0
 40
2
 50
270
 51
0
  0
ARC
  8
1
 62
7
 10
-54.45617147181201
 20
123.1010509539191
 30
0
 40
2
 50
90
 51
180
  0
ARC
  8
1
 62
7
 10
-48.95617147181201
 20
127.1010509539191
 30
0
 40
2
 50
270
 51
0
  0
ARC
  8
1
 62
7
 10
-44.95617147181201
 20
128.6840917264894
 30
0
 40
1.999999999999963
 50
106.1055001235797
 51
180
  0
ARC
  8
1
 62
7
 10
-44.98414487744552
 20
155.1010509539191
 30
0
 40
2
 50
90
 51
170.4059317731399
  0
ARC
  8
1
 62
7
 10
-33.20715573903692
 20
155.1010509539191
 30
0
 40
2.000000000000067
 50
352.819244218542
 51
90
  0
ARC
  8
1
 62
7
 10
-44.95617147181201
 20
135.1010509539191
 30
0
 40
2
 50
90
 51
180
  0
ARC
  8
1
 62
7
 10
-30.95617147181201
 20
139.1010509539191
 30
0
 40
2
 50
270
 51
0
  0
ARC
  8
1
 62
7
 10
-44.70617147181201
 20
116.1010509539191
 30
0
 40
2
 50
270
 51
0
  0
ARC
  8
1
 62
7
 10
-131.956171471812
 20
207.1010509539293
 30
0
 40
2
 50
90
 51
180
  0
ARC
  8
1
 62
7
 10
-135.956171471812
 20
195.1010509539395
 30
0
 40
2
 50
270
 51
0
  0
ARC
  8
1
 62
7
 10
-141.456171471812
 20
191.1010509539395
 30
0
 40
2
 50
90
 51
180
  0
ARC
  8
1
 62
7
 10
-145.456171471812
 20
189.5180101813693
 30
0
 40
1.999999999999963
 50
286.1055001235797
 51
0
  0
ARC
  8
1
 62
7
 10
-145.4281980661785
 20
163.1010509539395
 30
0
 40
2
 50
270
 51
350.4059317731399
  0
ARC
  8
1
 62
7
 10
-157.2051872045871
 20
163.1010509539395
 30
0
 40
2.000000000000064
 50
172.8192442185419
 51
270
  0
ARC
  8
1
 62
7
 10
-170.706171471812
 20
159.1010509539293
 30
0
 40
2
 50
270
 51
90
  0
ARC
  8
1
 62
7
 10
-145.456171471812
 20
183.1010509539395
 30
0
 40
2
 50
270
 51
0
  0
ARC
  8
1
 62
7
 10
-159.456171471812
 20
179.1010509539395
 30
0
 40
2
 50
90
 51
180
  0
ARC
  8
1
 62
7
 10
-145.706171471812
 20
202.1010509539395
 30
0
 40
2
 50
90
 51
180
  0
ARC
  8
1
 62
7
 10
-140.206171471812
 20
195.3510509539395
 30
0
 40
3.25
 50
0
 51
90
  0
ARC
  8
1
 62
7
 10
-140.206171471812
 20
195.3510509539395
 30
0
 40
3.25
 50
90
 51
180
  0
ARC
  8
1
 62
7
 10
-131.956171471812
 20
111.1010509539293
 30
0
 40
2
 50
180
 51
270
  0
ARC
  8
1
 62
7
 10
-135.956171471812
 20
123.1010509539191
 30
0
 40
2
 50
0
 51
90
  0
ARC
  8
1
 62
7
 10
-141.456171471812
 20
127.1010509539191
 30
0
 40
2
 50
180
 51
270
  0
ARC
  8
1
 62
7
 10
-145.456171471812
 20
128.6840917264894
 30
0
 40
2
 50
0
 51
73.89449987642034
  0
ARC
  8
1
 62
7
 10
-145.4281980661785
 20
155.1010509539191
 30
0
 40
1.999999999999956
 50
9.594068226860125
 51
90
  0
ARC
  8
1
 62
7
 10
-157.2051872045871
 20
155.1010509539191
 30
0
 40
2
 50
90
 51
187.180755781458
  0
ARC
  8
1
 62
7
 10
-145.456171471812
 20
135.1010509539191
 30
0
 40
2
 50
0
 51
90
  0
ARC
  8
1
 62
7
 10
-159.456171471812
 20
139.1010509539191
 30
0
 40
2
 50
180
 51
270
  0
ARC
  8
1
 62
7
 10
-145.706171471812
 20
116.1010509539191
 30
0
 40
2
 50
180
 51
270
  0
ARC
  8
1
 62
7
  6
DASHED
 10
-140.206171471812
 20
187.8510509539395
 30
0
 40
3.25
 50
180
 51
270
  0
ARC
  8
1
 62
7
  6
DASHED
 10
-140.206171471812
 20
187.8510509539395
 30
0
 40
3.25
 50
270
 51
0
  0
ARC
  8
1
 62
7
 10
-140.206171471812
 20
122.8510509539191
 30
0
 40
3.25
 50
180
 51
270
  0
ARC
  8
1
 62
7
 10
-140.206171471812
 20
122.8510509539191
 30
0
 40
3.25
 50
270
 51
0
  0
ARC
  8
1
 62
7
  6
DASHED
 10
-140.206171471812
 20
130.351050953919
 30
0
 40
3.25
 50
0
 51
90
  0
ARC
  8
1
 62
7
  6
DASHED
 10
-140.206171471812
 20
130.351050953919
 30
0
 40
3.250000000000085
 50
90
 51
180
  0
ARC
  8
1
 62
7
 10
-50.20617147181201
 20
122.8510509539191
 30
0
 40
3.25
 50
180
 51
0
  0
ARC
  8
1
 62
7
  6
DASHED
 10
-50.20617147181201
 20
130.351050953919
 30
0
 40
3.25
 50
0
 51
180
  0
ARC
  8
1
 62
7
 10
-50.20617147181201
 20
195.3510509539395
 30
0
 40
3.25
 50
0
 51
180
  0
ARC
  8
1
 62
7
  6
DASHED
 10
-50.20617147181201
 20
187.8510509539395
 30
0
 40
3.25
 50
180
 51
0
  0
ARC
  8
1
 62
7
 10
110.4038133312506
 20
0
 30
0
 40
5.5
 50
111.3236862634979
 51
68.67631373650208
  0
ARC
  8
1
 62
7
 10
110.4038133312506
 20
0.5775000000000006
 30
0
 40
8.672499999999975
 50
311.5937743432896
 51
228.4062256567105
  0
ARC
  8
1
 62
3
 10
-102.706171471812
 20
-27.25
 30
0
 40
1.487499999999997
 50
180
 51
270
  0
ARC
  8
1
 62
3
 10
-106.206171471812
 20
-27.25
 30
0
 40
1.487500000000001
 50
270
 51
0
  0
ARC
  8
1
 62
3
 10
-106.206171471812
 20
-30.75
 30
0
 40
1.487499999999997
 50
0
 51
90
  0
ARC
  8
1
 62
3
 10
-102.706171471812
 20
-30.75
 30
0
 40
1.487500000000001
 50
90
 51
180
  0
ARC
  8
1
 62
7
 10
-122.706171471812
 20
2
 30
0
 40
1
 50
90
 51
270
  0
ARC
  8
1
 62
7
 10
-120.206171471812
 20
2
 30
0
 40
4.999999999999946
 50
11.53695903281562
 51
348.4630409671844
  0
ARC
  8
1
 62
7
 10
-122.706171471812
 20
2
 30
0
 40
1.25
 50
90
 51
270
  0
ARC
  8
1
 62
7
 10
-117.706171471812
 20
2
 30
0
 40
1.25
 50
53.13010235415598
 51
90
  0
ARC
  8
1
 62
7
 10
-117.706171471812
 20
2
 30
0
 40
1.25
 50
270
 51
306.8698976458441
  0
ARC
  8
1
 62
3
 10
-87.70617147181201
 20
-27.25
 30
0
 40
1.487500000000001
 50
270
 51
0
  0
ARC
  8
1
 62
3
 10
-84.20617147181201
 20
-27.25
 30
0
 40
1.487499999999997
 50
180
 51
270
  0
ARC
  8
1
 62
3
 10
-84.20617147181201
 20
-30.75
 30
0
 40
1.487500000000001
 50
90
 51
180
  0
ARC
  8
1
 62
3
 10
-87.70617147181201
 20
-30.75
 30
0
 40
1.487499999999997
 50
0
 51
90
  0
ARC
  8
1
 62
7
 10
-67.70617147181201
 20
2
 30
0
 40
1
 50
270
 51
90
  0
ARC
  8
1
 62
7
 10
-70.20617147181201
 20
2
 30
0
 40
5.000000000000042
 50
191.5369590328153
 51
168.4630409671846
  0
ARC
  8
1
 62
7
 10
-67.70617147181201
 20
2
 30
0
 40
1.25
 50
270
 51
90
  0
ARC
  8
1
 62
7
 10
-72.70617147181201
 20
2
 30
0
 40
1.25
 50
90
 51
126.869897645844
  0
ARC
  8
1
 62
7
 10
-72.70617147181201
 20
2
 30
0
 40
1.250000000000001
 50
233.130102354156
 51
270
  0
CIRCLE
  8
1
 62
7
 10
110.4038133312506
 20
0
 30
0
 40
50
  0
CIRCLE
  8
1
 62
7
 10
110.4038133312506
 20
0
 30
0
 40
17.5
  0
CIRCLE
  8
1
 62
7
 10
110.4038133312506
 20
0
 30
0
 40
7.5
  0
CIRCLE
  8
1
 62
7
 10
113.6038133312506
 20
-8.923469228349532
 30
0
 40
0.8499999999999943
  0
CIRCLE
  8
1
 62
7
 10
107.2038133312506
 20
-8.923469228349543
 30
0
 40
0.8499999999999943
  0
CIRCLE
  8
1
 62
7
 10
110.4038133312506
 20
0
 30
0
 40
1.400000000000091
  0
CIRCLE
  8
1
 62
3
 10
110.4038133312506
 20
0
 30
0
 40
2
  0
CIRCLE
  8
1
 62
7
 10
139.7487447504923
 20
29.34493141924173
 30
0
 40
3.5
  0
CIRCLE
  8
1
 62
7
 10
139.7487447504923
 20
29.34493141924173
 30
0
 40
3.799999999999983
  0
CIRCLE
  8
1
 62
7
 10
81.05888191200882
 20
29.34493141924172
 30
0
 40
3.499999999999972
  0
CIRCLE
  8
1
 62
7
 10
81.05888191200882
 20
29.34493141924172
 30
0
 40
3.799999999999983
  0
CIRCLE
  8
1
 62
7
 10
81.05888191200882
 20
-29.34493141924172
 30
0
 40
3.499999999999972
  0
CIRCLE
  8
1
 62
7
 10
81.05888191200882
 20
-29.34493141924172
 30
0
 40
3.799999999999983
  0
CIRCLE
  8
1
 62
7
 10
139.7487447504923
 20
-29.34493141924172
 30
0
 40
3.5
  0
CIRCLE
  8
1
 62
7
 10
139.7487447504923
 20
-29.34493141924172
 30
0
 40
3.799999999999983
  0
CIRCLE
  8
1
 62
7
 10
110.4038133312506
 20
0
 30
0
 40
22
  0
CIRCLE
  8
1
 62
7
 10
110.4038133312506
 20
0
 30
0
 40
34
  0
CIRCLE
  8
1
 62
7
 10
110.4038133312506
 20
0
 30
0
 40
47
  0
CIRCLE
  8
1
 62
3
 10
-104.456171471812
 20
-29
 30
0
 40
3
  0
CIRCLE
  8
1
 62
3
 10
-104.456171471812
 20
-29
 30
0
 40
2.75
  0
CIRCLE
  8
1
 62
3
 10
-109.081171471812
 20
-25.75
 30
0
 40
2
  0
CIRCLE
  8
1
 62
3
 10
-109.081171471812
 20
-25.75
 30
0
 40
1.599999999999994
  0
CIRCLE
  8
1
 62
3
 10
-109.081171471812
 20
-32.25000000000001
 30
0
 40
2
  0
CIRCLE
  8
1
 62
3
 10
-109.081171471812
 20
-32.25000000000001
 30
0
 40
1.599999999999994
  0
CIRCLE
  8
1
 62
3
 10
-99.83117147181201
 20
-25.75
 30
0
 40
1.999999999999986
  0
CIRCLE
  8
1
 62
3
 10
-99.83117147181201
 20
-25.75
 30
0
 40
1.59999999999998
  0
CIRCLE
  8
1
 62
3
 10
-99.83117147181201
 20
-32.25000000000001
 30
0
 40
1.999999999999986
  0
CIRCLE
  8
1
 62
3
 10
-99.83117147181201
 20
-32.25000000000001
 30
0
 40
1.59999999999998
  0
CIRCLE
  8
1
 62
3
 10
-85.95617147181201
 20
-29
 30
0
 40
2.999999999999986
  0
CIRCLE
  8
1
 62
3
 10
-85.95617147181201
 20
-29
 30
0
 40
2.75
  0
CIRCLE
  8
1
 62
3
 10
-81.33117147181201
 20
-25.75
 30
0
 40
2
  0
CIRCLE
  8
1
 62
3
 10
-81.33117147181201
 20
-25.75
 30
0
 40
1.599999999999994
  0
CIRCLE
  8
1
 62
3
 10
-81.33117147181201
 20
-32.25000000000001
 30
0
 40
2
  0
CIRCLE
  8
1
 62
3
 10
-81.33117147181201
 20
-32.25000000000001
 30
0
 40
1.599999999999994
  0
CIRCLE
  8
1
 62
3
 10
-90.581171471812
 20
-25.75
 30
0
 40
1.999999999999986
  0
CIRCLE
  8
1
 62
3
 10
-90.581171471812
 20
-25.75
 30
0
 40
1.600000000000009
  0
CIRCLE
  8
1
 62
3
 10
-90.581171471812
 20
-32.25000000000001
 30
0
 40
1.999999999999986
  0
CIRCLE
  8
1
 62
3
 10
-90.581171471812
 20
-32.25000000000001
 30
0
 40
1.600000000000009
  0
POLYLINE
  8
1
 62
7
 66
1
  0
VERTEX
  8
1
 10
-21.70617147181201
 20
5.5
 30
0
 42
0.1460334160941952
  0
VERTEX
  8
1
 10
-21.66295714517284
 20
5.417705578930618
 30
0
 42
0.09064528829144211
  0
VERTEX
  8
1
 10
-21.58390033577607
 20
5.364906835291734
 30
0
 42
0.03072328331163824
  0
VERTEX
  8
1
 10
-21.48818452018872
 20
5.329061400954754
 30
0
 42
0.02422975911334317
  0
VERTEX
  8
1
 10
-21.1931012955786
 20
5.24969716024498
 30
0
 42
0.01786953896865161
  0
VERTEX
  8
1
 10
-20.90568628922638
 20
5.198708342496826
 30
0
 42
0.02129685646515107
  0
VERTEX
  8
1
 10
-20.30949143257821
 20
5.140439910136053
 30
0
 42
0.01387405930613304
  0
VERTEX
  8
1
 10
-19.70617147181201
 20
5.123475382979792
 30
0
  0
SEQEND
  8
1
  0
POLYLINE
  8
1
 62
7
 66
1
  0
VERTEX
  8
1
 10
-168.706171471812
 20
5.5
 30
0
 42
-0.1460334160951555
  0
VERTEX
  8
1
 10
-168.7493857984512
 20
5.417705578930618
 30
0
 42
-0.09064528829200859
  0
VERTEX
  8
1
 10
-168.828442607848
 20
5.364906835291734
 30
0
 42
-0.03072328331185243
  0
VERTEX
  8
1
 10
-168.9241584234353
 20
5.329061400954754
 30
0
 42
-0.02422975911332545
  0
VERTEX
  8
1
 10
-169.2192416480454
 20
5.24969716024498
 30
0
 42
-0.01786953896868771
  0
VERTEX
  8
1
 10
-169.5066566543977
 20
5.198708342496826
 30
0
 42
-0.02129685646514686
  0
VERTEX
  8
1
 10
-170.1028515110459
 20
5.140439910136053
 30
0
 42
-0.01387405930613516
  0
VERTEX
  8
1
 10
-170.706171471812
 20
5.123475382979792
 30
0
  0
SEQEND
  8
1
  0
TEXT
  8
1
 62
7
 10
-107.5759713597731
 20
-47.2463226000408
 30
0
 40
3.5
  1
CL    BR
 41
0.8910000000000004
  7
SIMPLEX
  0
TEXT
  8
1
 62
7
 10
-11.79227835404943
 20
172.524561921552
 30
0
 40
3.5
  1
OUTPUT
 41
0.8910000000000004
  7
SIMPLEX
  0
TEXT
  8
1
 62
7
 10
-196.8636251680494
 20
172.011091916562
 30
0
 40
3.5
  1
INPUT
 41
0.8910000000000004
  7
SIMPLEX
  0
TEXT
  8
1
 62
7
 10
92.4038133312506
 20
152.8510509539293
 30
0
 40
5
  1
DC2410
 41
0.9
  7
SIMPLEX
  0
TEXT
  8
1
 62
7
 10
92.4038133312506
 20
160.3510509539293
 30
0
 40
5
  1
TMAU 0.6
 41
0.9
  7
SIMPLEX
  0
ENDSEC
  0
EOF
