  0
SECTION
  2
HEADER
  9
$ACADVER
  1
AC1009
  9
$INSBASE
 10
0
 20
0
  9
$EXTMIN
 10
-304.8107015055824
 20
-100.058149398109
  9
$EXTMAX
 10
237.6115406268627
 20
304.4787002999561
  9
$LIMMIN
 10
-304.8107015055824
 20
-100.058149398109
  9
$LIMMAX
 10
237.6115406268627
 20
304.4787002999561
  9
$VIEWCTR
 10
10
 20
10
  9
$VIEWSIZE
 40
10
  9
$SNAPMODE
 70
0
  9
$SNAPUNIT
 10
1
 20
1
  9
$SNAPBASE
 10
0
 20
0
  9
$SNAPANG
 50
0
  9
$SNAPSTYLE
 70
0
  9
$SNAPISOPAIR
 70
0
  9
$GRIDMODE
 70
0
  9
$GRIDUNIT
 10
0
 20
0
  9
$ORTHOMODE
 70
0
  9
$REGENMODE
 70
1
  9
$FILLMODE
 70
1
  9
$QTEXTMODE
 70
0
  9
$DRAGMODE
 70
2
  9
$LTSCALE
 40
1
  9
$OSMODE
 70
0
  9
$ATTMODE
 70
1
  9
$TEXTSIZE
 40
3.5
  9
$TRACEWID
 40
0.5
  9
$TEXTSTYLE
  7
STANDARD
  9
$CLAYER
  8
0
  9
$CELTYPE
  6
BYLAYER
  9
$CECOLOR
 62
256
  9
$DIMSCALE
 40
1
  9
$DIMASZ
 40
0.18
  9
$DIMEXO
 40
0.0625
  9
$DIMDLI
 40
0.38
  9
$DIMRND
 40
0
  9
$DIMDLE
 40
0
  9
$DIMEXE
 40
0.18
  9
$DIMTP
 40
0
  9
$DIMTM
 40
0
  9
$DIMTXT
 40
0.18
  9
$DIMCEN
 40
0.09
  9
$DIMTSZ
 40
0
  9
$DIMTOL
 70
0
  9
$DIMLIM
 70
0
  9
$DIMTIH
 70
1
  9
$DIMTOH
 70
1
  9
$DIMSE1
 70
0
  9
$DIMSE2
 70
0
  9
$DIMTAD
 70
0
  9
$DIMZIN
 70
0
  9
$DIMBLK
  1

  9
$DIMASO
 70
1
  9
$DIMSHO
 70
1
  9
$DIMPOST
  1

  9
$DIMAPOST
  1

  9
$DIMALT
 70
0
  9
$DIMALTD
 70
2
  9
$DIMALTF
 40
25.4
  9
$DIMLFAC
 40
1
  9
$DIMTOFL
 70
0
  9
$DIMTVP
 40
0
  9
$DIMTIX
 70
0
  9
$DIMSOXD
 70
0
  9
$DIMSAH
 70
0
  9
$DIMBLK1
  1

  9
$DIMBLK2
  1

  9
$DIMSTYLE
  2
*UNNAMED
  9
$DIMCLRD
 70
0
  9
$DIMCLRE
 70
0
  9
$DIMCLRT
 70
0
  9
$DIMTFAC
 40
1
  9
$DIMGAP
 40
0.09
  9
$LUNITS
 70
2
  9
$LUPREC
 70
4
  9
$AXISMODE
 70
0
  9
$AXISUNIT
 10
0
 20
0
  9
$SKETCHINC
 40
0.1
  9
$FILLETRAD
 40
2
  9
$AUNITS
 70
0
  9
$AUPREC
 70
0
  9
$MENU
  1
ACAD
  9
$ELEVATION
 40
0
  9
$THICKNESS
 40
0
  9
$VIEWDIR
 10
0
 20
0
 30
1
  9
$LIMCHECK
 70
0
  9
$BLIPMODE
 70
1
  9
$CHAMFERA
 40
0
  9
$CHAMFERB
 40
0
  9
$FASTZOOM
 70
1
  9
$SKPOLY
 70
0
  9
$ANGBASE
 50
0
  9
$ANGDIR
 70
0
  9
$PDMODE
 70
0
  9
$PDSIZE
 40
0
  9
$PLINEWID
 40
0
  9
$COORDS
 70
2
  0
ENDSEC
  0
SECTION
  2
TABLES
  0
TABLE
  2
DIMSTYLE
 70
0
  0
ENDTAB
  0
TABLE
  2
LTYPE
 70
9
  0
LTYPE
  2
CONTINUOUS
 70
64
  3
Solid line
 72
65
 73
0
 40
0
  0
LTYPE
  2
BORDER
 70
64
  3
__ __ . __ __ .
 72
65
 73
6
 40
24.97997167715208
 49
7.137134764900594
 49
-3.568567382450297
 49
7.137134764900594
 49
-3.568567382450297
 49
0
 49
-3.568567382450297
  0
LTYPE
  2
CENTER
 70
64
  3
____ _ ____ _
 72
65
 73
4
 40
28.54853905960238
 49
17.84283691225149
 49
-3.568567382450297
 49
3.568567382450297
 49
-3.568567382450297
  0
LTYPE
  2
DASHDOT
 70
64
  3
__ . __ . __ .
 72
65
 73
4
 40
14.27426952980119
 49
7.137134764900594
 49
-3.568567382450297
 49
0
 49
-3.568567382450297
  0
LTYPE
  2
DASHED
 70
64
  3
__ __ __ __ __
 72
65
 73
2
 40
10.70570214735089
 49
7.137134764900594
 49
-3.568567382450297
  0
LTYPE
  2
DIVIDE
 70
64
  3
__ . . __ . . 
 72
65
 73
6
 40
17.84283691225149
 49
7.137134764900594
 49
-3.568567382450297
 49
0
 49
-3.568567382450297
 49
0
 49
-3.568567382450297
  0
LTYPE
  2
DOT
 70
64
  3
..............
 72
65
 73
4
 40
7.137134764900594
 49
0
 49
-3.568567382450297
 49
0
 49
-3.568567382450297
  0
LTYPE
  2
HIDDEN
 70
64
  3
_ _ _ _ _ _ _
 72
65
 73
2
 40
5.352851073675446
 49
3.568567382450297
 49
-1.784283691225149
  0
LTYPE
  2
PHANTOM
 70
64
  3
_____ _ _ _____ _ _ 
 72
65
 73
6
 40
35.68567382450297
 49
17.84283691225149
 49
-3.568567382450297
 49
3.568567382450297
 49
-3.568567382450297
 49
3.568567382450297
 49
-3.568567382450297
  0
ENDTAB
  0
TABLE
  2
LAYER
 70
3
  0
LAYER
  2
1
 70
0
 62
7
  6
CONTINUOUS
  0
LAYER
  2
0
 70
0
 62
7
  6
CONTINUOUS
  0
ENDTAB
  0
TABLE
  2
STYLE
 70
4
  0
STYLE
  2
STANDARD
 70
0
 40
0
 41
1
 50
0
 71
0
 42
3.5
  3
txt
  4

  0
STYLE
  2
SIMPLEX
 70
0
 40
0
 41
1
 50
0
 71
0
 42
3.5
  3
simplex
  4

  0
STYLE
  2
COMPLEX
 70
0
 40
0
 41
1
 50
0
 71
0
 42
3.5
  3
complex
  4

  0
STYLE
  2
ITALIC
 70
0
 40
0
 41
1
 50
0
 71
0
 42
3.5
  3
italic
  4

  0
ENDTAB
  0
TABLE
  2
VIEW
 70
0
  0
ENDTAB
  0
ENDSEC
  0
SECTION
  2
BLOCKS
  0
ENDSEC
  0
SECTION
  2
ENTITIES
  0
LINE
  8
1
 62
7
 10
79.61154062686262
 20
-57.00648467481611
 30
0
 11
73.90057460601162
 21
-57.00648467481611
 31
0
  0
LINE
  8
1
 62
7
 10
81.61154062686262
 20
-48.9935153251839
 30
0
 11
81.61154062686262
 21
-55.00648467481611
 31
0
  0
LINE
  8
1
 62
7
 10
73.90057460601162
 20
-46.9935153251839
 30
0
 11
79.61154062686262
 21
-46.9935153251839
 31
0
  0
LINE
  8
1
 62
7
 10
80.91154062686263
 20
-54.75
 30
0
 11
81.61154062686262
 21
-54.75
 31
0
  0
LINE
  8
1
 62
7
 10
80.91154062686263
 20
-49.25
 30
0
 11
80.91154062686263
 21
-54.75
 31
0
  0
LINE
  8
1
 62
7
 10
81.61154062686262
 20
-49.25
 30
0
 11
80.91154062686263
 21
-49.25
 31
0
  0
LINE
  8
1
 62
7
 10
80.91154062686263
 20
-52.7
 30
0
 11
81.61154062686262
 21
-52
 31
0
  0
LINE
  8
1
 62
7
 10
80.91154062686263
 20
-52
 30
0
 11
81.61154062686262
 21
-51.3
 31
0
  0
LINE
  8
1
 62
7
 10
80.61154062686262
 20
-54.75
 30
0
 11
80.17242048523815
 21
-54.75
 31
0
  0
LINE
  8
1
 62
7
 10
80.91154062686263
 20
-49.55
 30
0
 11
80.91154062686263
 21
-54.45
 31
0
  0
LINE
  8
1
 62
7
 10
80.17242048523815
 20
-49.25
 30
0
 11
80.61154062686262
 21
-49.25
 31
0
  0
LINE
  8
1
 62
7
 10
-148.153247809345
 20
-55.48060076922076
 30
0
 11
-148.153247809345
 21
-59.5
 31
0
  0
LINE
  8
1
 62
7
 10
-150.153247809345
 20
-48.51939923077924
 30
0
 11
-150.153247809345
 21
-44.5
 31
0
  0
LINE
  8
1
 62
7
 10
-177.415747809345
 20
-53.75
 30
0
 11
-176.890747809345
 21
-53.75
 31
0
  0
LINE
  8
1
 62
7
 10
-178.903247809345
 20
-51.7375
 30
0
 11
-178.903247809345
 21
-52.2625
 31
0
  0
LINE
  8
1
 62
7
 10
-176.890747809345
 20
-50.25
 30
0
 11
-177.415747809345
 21
-50.25
 31
0
  0
LINE
  8
1
 62
7
 10
-175.403247809345
 20
-52.2625
 30
0
 11
-175.403247809345
 21
-51.7375
 31
0
  0
LINE
  8
1
 62
7
 10
-121.415747809345
 20
-53.75
 30
0
 11
-120.890747809345
 21
-53.75
 31
0
  0
LINE
  8
1
 62
7
 10
-122.903247809345
 20
-51.7375
 30
0
 11
-122.903247809345
 21
-52.2625
 31
0
  0
LINE
  8
1
 62
7
 10
-120.890747809345
 20
-50.25
 30
0
 11
-121.415747809345
 21
-50.25
 31
0
  0
LINE
  8
1
 62
7
 10
-119.403247809345
 20
-52.2625
 30
0
 11
-119.403247809345
 21
-51.7375
 31
0
  0
LINE
  8
1
 62
7
 10
-91.05324780934498
 20
-40.1527940798348
 30
0
 11
-91.05324780934498
 21
-50.1527940798348
 31
0
  0
LINE
  8
1
 62
7
 10
-91.05324780934498
 20
-50.1527940798348
 30
0
 11
-96.65324780934498
 21
-50.15279407983479
 31
0
  0
LINE
  8
1
 62
7
 10
-90.65324780934498
 20
-49.45997375680724
 30
0
 11
-91.05324780934498
 21
-50.1527940798348
 31
0
  0
LINE
  8
1
 62
7
 10
-90.65324780934498
 20
-40.84561440286235
 30
0
 11
-90.65324780934498
 21
-49.45997375680724
 31
0
  0
LINE
  8
1
 62
7
 10
-91.05324780934498
 20
-40.1527940798348
 30
0
 11
-90.65324780934498
 21
-40.84561440286235
 31
0
  0
LINE
  8
1
 62
7
 10
-96.65324780934498
 20
-40.15279407983479
 30
0
 11
-91.05324780934498
 21
-40.1527940798348
 31
0
  0
LINE
  8
1
 62
7
 10
-96.65324780934498
 20
-51.25279407983479
 30
0
 11
-98.15324780934498
 21
-51.25279407983479
 31
0
  0
LINE
  8
1
 62
7
 10
-96.65324780934498
 20
-39.0527940798348
 30
0
 11
-96.65324780934498
 21
-51.25279407983479
 31
0
  0
LINE
  8
1
 62
7
 10
-98.15324780934498
 20
-39.05279407983479
 30
0
 11
-96.65324780934498
 21
-39.0527940798348
 31
0
  0
LINE
  8
1
 62
7
 10
-98.15324780934498
 20
-46.65279407983479
 30
0
 11
-96.65324780934498
 21
-45.15279407983479
 31
0
  0
LINE
  8
1
 62
7
 10
-98.15324780934498
 20
-45.15279407983479
 30
0
 11
-96.65324780934498
 21
-43.65279407983479
 31
0
  0
LINE
  8
1
 62
7
 10
-91.05324780934498
 20
50.1527940798348
 30
0
 11
-91.05324780934498
 21
40.1527940798348
 31
0
  0
LINE
  8
1
 62
7
 10
-96.65324780934498
 20
50.15279407983479
 30
0
 11
-91.05324780934498
 21
50.1527940798348
 31
0
  0
LINE
  8
1
 62
7
 10
-91.05324780934498
 20
50.1527940798348
 30
0
 11
-90.65324780934498
 21
49.45997375680725
 31
0
  0
LINE
  8
1
 62
7
 10
-90.65324780934498
 20
49.45997375680725
 30
0
 11
-90.65324780934498
 21
40.84561440286235
 31
0
  0
LINE
  8
1
 62
7
 10
-90.65324780934498
 20
40.84561440286235
 30
0
 11
-91.05324780934498
 21
40.1527940798348
 31
0
  0
LINE
  8
1
 62
7
 10
-91.05324780934498
 20
40.1527940798348
 30
0
 11
-96.65324780934498
 21
40.15279407983479
 31
0
  0
LINE
  8
1
 62
7
 10
-98.15324780934498
 20
51.25279407983479
 30
0
 11
-96.65324780934498
 21
51.25279407983479
 31
0
  0
LINE
  8
1
 62
7
 10
-96.65324780934498
 20
51.25279407983479
 30
0
 11
-96.65324780934498
 21
39.0527940798348
 31
0
  0
LINE
  8
1
 62
7
 10
-96.65324780934498
 20
39.0527940798348
 30
0
 11
-98.15324780934498
 21
39.05279407983479
 31
0
  0
LINE
  8
1
 62
7
 10
-96.65324780934498
 20
45.15279407983479
 30
0
 11
-98.15324780934498
 21
46.65279407983479
 31
0
  0
LINE
  8
1
 62
7
 10
-96.65324780934498
 20
43.65279407983479
 30
0
 11
-98.15324780934498
 21
45.15279407983479
 31
0
  0
LINE
  8
1
 62
7
 10
-207.2532478093449
 20
179.3259062201212
 30
0
 11
-207.2532478093449
 21
189.3259062201212
 31
0
  0
LINE
  8
1
 62
7
 10
-201.653247809345
 20
179.3259062201212
 30
0
 11
-207.2532478093449
 21
179.3259062201212
 31
0
  0
LINE
  8
1
 62
7
 10
-207.2532478093449
 20
179.3259062201212
 30
0
 11
-207.653247809345
 21
180.0187265431487
 31
0
  0
LINE
  8
1
 62
7
 10
-207.653247809345
 20
180.0187265431487
 30
0
 11
-207.653247809345
 21
188.6330858970936
 31
0
  0
LINE
  8
1
 62
7
 10
-207.653247809345
 20
188.6330858970936
 30
0
 11
-207.2532478093449
 21
189.3259062201212
 31
0
  0
LINE
  8
1
 62
7
 10
-207.2532478093449
 20
189.3259062201212
 30
0
 11
-201.653247809345
 21
189.3259062201212
 31
0
  0
LINE
  8
1
 62
7
 10
-200.153247809345
 20
178.2259062201212
 30
0
 11
-201.653247809345
 21
178.2259062201212
 31
0
  0
LINE
  8
1
 62
7
 10
-201.653247809345
 20
178.2259062201212
 30
0
 11
-201.653247809345
 21
190.4259062201212
 31
0
  0
LINE
  8
1
 62
7
 10
-201.653247809345
 20
190.4259062201212
 30
0
 11
-200.153247809345
 21
190.4259062201212
 31
0
  0
LINE
  8
1
 62
7
 10
-201.653247809345
 20
184.3259062201212
 30
0
 11
-200.153247809345
 21
182.8259062201212
 31
0
  0
LINE
  8
1
 62
7
 10
-201.653247809345
 20
185.8259062201212
 30
0
 11
-200.153247809345
 21
184.3259062201212
 31
0
  0
LINE
  8
1
 62
7
 10
-207.2532478093449
 20
269.6314943797908
 30
0
 11
-207.2532478093449
 21
279.6314943797908
 31
0
  0
LINE
  8
1
 62
7
 10
-207.2532478093449
 20
279.6314943797908
 30
0
 11
-201.653247809345
 21
279.6314943797908
 31
0
  0
LINE
  8
1
 62
7
 10
-207.653247809345
 20
278.9386740567632
 30
0
 11
-207.2532478093449
 21
279.6314943797908
 31
0
  0
LINE
  8
1
 62
7
 10
-207.653247809345
 20
270.3243147028184
 30
0
 11
-207.653247809345
 21
278.9386740567632
 31
0
  0
LINE
  8
1
 62
7
 10
-207.2532478093449
 20
269.6314943797908
 30
0
 11
-207.653247809345
 21
270.3243147028184
 31
0
  0
LINE
  8
1
 62
7
 10
-201.653247809345
 20
269.6314943797908
 30
0
 11
-207.2532478093449
 21
269.6314943797908
 31
0
  0
LINE
  8
1
 62
7
 10
-201.653247809345
 20
280.7314943797908
 30
0
 11
-200.153247809345
 21
280.7314943797908
 31
0
  0
LINE
  8
1
 62
7
 10
-201.653247809345
 20
268.5314943797908
 30
0
 11
-201.653247809345
 21
280.7314943797908
 31
0
  0
LINE
  8
1
 62
7
 10
-200.153247809345
 20
268.5314943797908
 30
0
 11
-201.653247809345
 21
268.5314943797908
 31
0
  0
LINE
  8
1
 62
7
 10
-200.153247809345
 20
276.1314943797908
 30
0
 11
-201.653247809345
 21
274.6314943797908
 31
0
  0
LINE
  8
1
 62
7
 10
-200.153247809345
 20
274.6314943797908
 30
0
 11
-201.653247809345
 21
273.1314943797908
 31
0
  0
LINE
  8
1
 62
7
 10
-150.153247809345
 20
-59.5
 30
0
 11
-150.153247809345
 21
-55.48060076922076
 31
0
  0
LINE
  8
1
 62
7
 10
-148.153247809345
 20
-44.5
 30
0
 11
-148.153247809345
 21
-48.51939923077923
 31
0
  0
LINE
  8
1
 62
7
 10
-126.153247809345
 20
-62.5
 30
0
 11
-116.9808340162416
 21
-54.06896551724138
 31
0
  0
LINE
  8
1
 62
7
 10
-126.153247809345
 20
-41.5
 30
0
 11
-116.9808340162416
 21
-49.93103448275862
 31
0
  0
LINE
  8
1
 62
3
 10
-133.4694924674538
 20
-58.57692150578632
 30
0
 11
-130.8370031512362
 21
-57.05705309042925
 31
0
  0
LINE
  8
1
 62
3
 10
-130.3370031512362
 20
-57.92307849421368
 30
0
 11
-132.9694924674538
 21
-59.44294690957075
 31
0
  0
LINE
  8
1
 62
3
 10
-144.4694924674538
 20
-57.05705309042925
 30
0
 11
-141.8370031512362
 21
-58.57692150578632
 31
0
  0
LINE
  8
1
 62
3
 10
-142.3370031512362
 20
-59.44294690957075
 30
0
 11
-144.9694924674538
 21
-57.92307849421368
 31
0
  0
LINE
  8
1
 62
3
 10
-141.8370031512362
 20
-45.42307849421368
 30
0
 11
-144.4694924674538
 21
-46.94294690957075
 31
0
  0
LINE
  8
1
 62
3
 10
-144.9694924674538
 20
-46.07692150578631
 30
0
 11
-142.3370031512362
 21
-44.55705309042925
 31
0
  0
LINE
  8
1
 62
7
 10
-136.653247809345
 20
-44.5
 30
0
 11
-136.653247809345
 21
-59.5
 31
0
  0
LINE
  8
1
 62
7
 10
-138.653247809345
 20
-59.5
 30
0
 11
-138.653247809345
 21
-44.5
 31
0
  0
LINE
  8
1
 62
3
 10
-130.8370031512362
 20
-46.94294690957075
 30
0
 11
-133.4694924674538
 21
-45.42307849421368
 31
0
  0
LINE
  8
1
 62
3
 10
-132.9694924674538
 20
-44.55705309042925
 30
0
 11
-130.3370031512362
 21
-46.07692150578631
 31
0
  0
LINE
  8
1
 62
7
 10
-126.153247809345
 20
-41.5
 30
0
 11
-126.153247809345
 21
-62.5
 31
0
  0
LINE
  8
1
 62
7
 10
-181.3256616024485
 20
-54.06896551724138
 30
0
 11
-172.153247809345
 21
-62.5
 31
0
  0
LINE
  8
1
 62
7
 10
-181.3256616024485
 20
-49.93103448275862
 30
0
 11
-172.153247809345
 21
-41.5
 31
0
  0
LINE
  8
1
 62
3
 10
-167.4694924674538
 20
-57.05705309042925
 30
0
 11
-164.8370031512362
 21
-58.57692150578632
 31
0
  0
LINE
  8
1
 62
3
 10
-165.3370031512362
 20
-59.44294690957075
 30
0
 11
-167.9694924674538
 21
-57.92307849421368
 31
0
  0
LINE
  8
1
 62
3
 10
-156.4694924674538
 20
-58.57692150578632
 30
0
 11
-153.8370031512362
 21
-57.05705309042925
 31
0
  0
LINE
  8
1
 62
3
 10
-153.3370031512362
 20
-57.92307849421368
 30
0
 11
-155.9694924674538
 21
-59.44294690957075
 31
0
  0
LINE
  8
1
 62
3
 10
-153.8370031512362
 20
-46.94294690957075
 30
0
 11
-156.4694924674538
 21
-45.42307849421368
 31
0
  0
LINE
  8
1
 62
3
 10
-155.9694924674538
 20
-44.55705309042925
 30
0
 11
-153.3370031512362
 21
-46.07692150578631
 31
0
  0
LINE
  8
1
 62
7
 10
-161.653247809345
 20
-59.5
 30
0
 11
-161.653247809345
 21
-44.5
 31
0
  0
LINE
  8
1
 62
7
 10
-159.653247809345
 20
-44.5
 30
0
 11
-159.653247809345
 21
-59.5
 31
0
  0
LINE
  8
1
 62
3
  6
DASHDOT
 10
-299.653247809345
 20
-1.884776120644477e-016
 30
0
 11
-274.7676071632898
 21
-1.884776120644477e-016
 31
0
  0
LINE
  8
1
 62
3
  6
DASHED
 10
-284.6532478093449
 20
-3.000000000000002
 30
0
 11
-283.6140173248036
 21
-2.400000000000002
 31
0
  0
LINE
  8
1
 62
3
  6
DASHED
 10
-284.6532478093449
 20
3
 30
0
 11
-283.6140173248036
 21
2.4
 31
0
  0
LINE
  8
1
 62
3
  6
DASHED
 10
-284.6532478093449
 20
-3.000000000000002
 30
0
 11
-296.653247809345
 21
-3.000000000000002
 31
0
  0
LINE
  8
1
 62
3
  6
DASHED
 10
-284.6532478093449
 20
3
 30
0
 11
-284.6532478093449
 21
-3.000000000000002
 31
0
  0
LINE
  8
1
 62
3
  6
DASHED
 10
-296.653247809345
 20
3
 30
0
 11
-284.6532478093449
 21
3
 31
0
  0
LINE
  8
1
 62
7
  6
DASHED
 10
-278.1211970017761
 20
-1.884776120644477e-016
 30
0
 11
-279.853247809345
 21
-2.400000000000002
 31
0
  0
LINE
  8
1
 62
7
  6
DASHED
 10
-279.853247809345
 20
2.4
 30
0
 11
-278.1211970017761
 21
-1.884776120644477e-016
 31
0
  0
LINE
  8
1
 62
7
  6
DASHED
 10
-279.853247809345
 20
-2.400000000000002
 30
0
 11
-296.653247809345
 21
-2.400000000000002
 31
0
  0
LINE
  8
1
 62
7
  6
DASHED
 10
-279.853247809345
 20
2.4
 30
0
 11
-279.853247809345
 21
-2.400000000000002
 31
0
  0
LINE
  8
1
 62
7
  6
DASHED
 10
-296.653247809345
 20
2.4
 30
0
 11
-279.853247809345
 21
2.4
 31
0
  0
LINE
  8
1
 62
3
  6
DASHDOT
 10
1.346752190655025
 20
-1.884776120644477e-016
 30
0
 11
-24.03888845540007
 21
3.364236066736053e-015
 31
0
  0
LINE
  8
1
 62
3
  6
DASHED
 10
-13.65324780934498
 20
3.000000000000002
 30
0
 11
-14.69247829388627
 21
2.400000000000002
 31
0
  0
LINE
  8
1
 62
3
  6
DASHED
 10
-13.65324780934498
 20
-3.000000000000002
 30
0
 11
-14.69247829388627
 21
-2.400000000000002
 31
0
  0
LINE
  8
1
 62
3
  6
DASHED
 10
-13.65324780934498
 20
3.000000000000002
 30
0
 11
-1.653247809344975
 21
3
 31
0
  0
LINE
  8
1
 62
3
  6
DASHED
 10
-13.65324780934498
 20
-3.000000000000002
 30
0
 11
-13.65324780934498
 21
3.000000000000002
 31
0
  0
LINE
  8
1
 62
3
  6
DASHED
 10
-1.653247809344975
 20
-3.000000000000002
 30
0
 11
-13.65324780934498
 21
-3.000000000000002
 31
0
  0
LINE
  8
1
 62
7
  6
DASHED
 10
-20.18529861691388
 20
1.587879227335802e-015
 30
0
 11
-18.45324780934499
 21
2.400000000000002
 31
0
  0
LINE
  8
1
 62
7
  6
DASHED
 10
-18.45324780934499
 20
-2.400000000000002
 30
0
 11
-20.18529861691388
 21
1.587879227335802e-015
 31
0
  0
LINE
  8
1
 62
7
  6
DASHED
 10
-18.45324780934499
 20
2.400000000000002
 30
0
 11
-1.653247809344975
 21
2.4
 31
0
  0
LINE
  8
1
 62
7
  6
DASHED
 10
-18.45324780934499
 20
-2.400000000000002
 30
0
 11
-18.45324780934499
 21
2.400000000000002
 31
0
  0
LINE
  8
1
 62
7
  6
DASHED
 10
-1.653247809344975
 20
-2.400000000000002
 30
0
 11
-18.45324780934499
 21
-2.400000000000002
 31
0
  0
LINE
  8
1
 62
7
 10
-189.153247809345
 20
-89
 30
0
 11
-189.153247809345
 21
-90
 31
0
  0
LINE
  8
1
 62
7
 10
-109.153247809345
 20
-90
 30
0
 11
-109.153247809345
 21
-89
 31
0
  0
LINE
  8
1
 62
7
 10
-182.1527247617429
 20
136.978700299956
 30
0
 11
-116.1537708569471
 21
136.978700299956
 31
0
  0
LINE
  8
1
 62
7
  6
DASHED
 10
-87.15324780934498
 20
285.4787002999561
 30
0
 11
-87.15324780934498
 21
274.9787002999561
 31
0
  0
LINE
  8
1
 62
3
  6
DASHDOT
 10
-81.65324780934498
 20
267.8615384774701
 30
0
 11
-81.65324780934498
 21
297.184867585069
 31
0
  0
LINE
  8
1
 62
7
 10
-87.15324780934498
 20
288.978808197938
 30
0
 11
-87.15324780934498
 21
285.4787002999561
 31
0
  0
LINE
  8
1
 62
7
 10
-76.15324780934498
 20
274.9787002999561
 30
0
 11
-76.15324780934498
 21
288.978808197938
 31
0
  0
LINE
  8
1
 62
7
 10
-45.45324780934499
 20
244.8862510653153
 30
0
 11
-47.15324780934498
 21
244.8862510653153
 31
0
  0
LINE
  8
1
 62
7
 10
-2.153247809344975
 20
238.978700299956
 30
0
 11
-2.153247809345089
 21
231.9787002999561
 31
0
  0
LINE
  8
1
 62
7
 10
-84.15324780934498
 20
283.4787002999561
 30
0
 11
-84.15324780934498
 21
233.6453669666228
 31
0
  0
LINE
  8
1
 62
7
 10
-29.15324780934498
 20
231.9787002999561
 30
0
 11
-1.653247809344975
 21
231.9787002999561
 31
0
  0
LINE
  8
1
 62
7
 10
-2.153247809344975
 20
238.978700299956
 30
0
 11
-1.653247809344975
 21
238.478700299956
 31
0
  0
LINE
  8
1
 62
7
 10
-2.153247809344975
 20
238.978700299956
 30
0
 11
-41.65324780934498
 21
238.978700299956
 31
0
  0
LINE
  8
1
 62
7
 10
-41.65324780934498
 20
241.978700299956
 30
0
 11
-45.45324780934499
 21
241.9787002999561
 31
0
  0
LINE
  8
1
 62
7
 10
-82.18122121497848
 20
231.9787002999561
 30
0
 11
-51.40423207656988
 21
231.9787002999561
 31
0
  0
LINE
  8
1
 62
7
 10
-49.15324780934498
 20
264.478700299956
 30
0
 11
-82.70806157389438
 21
270.9741544697119
 31
0
  0
LINE
  8
1
 62
7
 10
-47.15324780934498
 20
262.478700299956
 30
0
 11
-47.15324780934498
 21
229.4787002999767
 31
0
  0
LINE
  8
1
 62
7
 10
-82.15324780934498
 20
264.478700299956
 30
0
 11
-49.15324780934498
 21
264.478700299956
 31
0
  0
LINE
  8
1
 62
7
 10
-96.15324780934498
 20
285.4787002999561
 30
0
 11
-86.15324780934498
 21
285.4787002999561
 31
0
  0
LINE
  8
1
 62
7
 10
-69.15324780934498
 20
301.4787002999561
 30
0
 11
-69.15324780934498
 21
268.9013857319484
 31
0
  0
LINE
  8
1
 62
7
  6
DASHED
 10
-211.153247809345
 20
274.9787002999561
 30
0
 11
-211.153247809345
 21
285.4787002999561
 31
0
  0
LINE
  8
1
 62
3
  6
DASHDOT
 10
-216.653247809345
 20
297.184867585069
 30
0
 11
-216.653247809345
 21
267.8615384774701
 31
0
  0
LINE
  8
1
 62
7
 10
-211.153247809345
 20
285.4787002999561
 30
0
 11
-211.153247809345
 21
288.978808197938
 31
0
  0
LINE
  8
1
 62
7
 10
-222.153247809345
 20
288.978808197938
 30
0
 11
-222.153247809345
 21
274.9787002999561
 31
0
  0
LINE
  8
1
 62
7
 10
-251.153247809345
 20
244.8862510653153
 30
0
 11
-252.853247809345
 21
244.8862510653153
 31
0
  0
LINE
  8
1
 62
7
 10
-296.1532478093449
 20
231.9787002999561
 30
0
 11
-296.153247809345
 21
238.978700299956
 31
0
  0
LINE
  8
1
 62
7
 10
-214.153247809345
 20
233.6453669666228
 30
0
 11
-214.153247809345
 21
283.4787002999561
 31
0
  0
LINE
  8
1
 62
7
 10
-226.153247809345
 20
304.4787002999561
 30
0
 11
-72.15324780934498
 21
304.4787002999561
 31
0
  0
LINE
  8
1
 62
7
 10
-296.653247809345
 20
231.9787002999561
 30
0
 11
-269.153247809345
 21
231.9787002999561
 31
0
  0
LINE
  8
1
 62
7
 10
-296.653247809345
 20
238.478700299956
 30
0
 11
-296.153247809345
 21
238.978700299956
 31
0
  0
LINE
  8
1
 62
7
 10
-256.653247809345
 20
238.978700299956
 30
0
 11
-296.153247809345
 21
238.978700299956
 31
0
  0
LINE
  8
1
 62
7
 10
-252.853247809345
 20
241.9787002999561
 30
0
 11
-256.653247809345
 21
241.978700299956
 31
0
  0
LINE
  8
1
 62
7
 10
-246.9022635421201
 20
231.9787002999561
 30
0
 11
-216.1252744037115
 21
231.9787002999561
 31
0
  0
LINE
  8
1
 62
7
 10
-215.5984340447956
 20
270.9741544697119
 30
0
 11
-249.153247809345
 21
264.478700299956
 31
0
  0
LINE
  8
1
 62
7
 10
-251.153247809345
 20
229.4787002999767
 30
0
 11
-251.153247809345
 21
262.478700299956
 31
0
  0
LINE
  8
1
 62
7
 10
-249.153247809345
 20
264.478700299956
 30
0
 11
-216.153247809345
 21
264.478700299956
 31
0
  0
LINE
  8
1
 62
7
 10
-212.153247809345
 20
285.4787002999561
 30
0
 11
-202.153247809345
 21
285.4787002999561
 31
0
  0
LINE
  8
1
 62
7
 10
-229.153247809345
 20
268.9013857319484
 30
0
 11
-229.153247809345
 21
301.4787002999561
 31
0
  0
LINE
  8
1
 62
7
  6
DASHED
 10
-87.15324780934498
 20
183.978700299956
 30
0
 11
-87.15324780934498
 21
173.478700299956
 31
0
  0
LINE
  8
1
 62
3
  6
DASHDOT
 10
-81.65324780934498
 20
161.772533014843
 30
0
 11
-81.65324780934498
 21
191.095862122442
 31
0
  0
LINE
  8
1
 62
7
 10
-87.15324780934498
 20
173.478700299956
 30
0
 11
-87.15324780934498
 21
169.9785924019741
 31
0
  0
LINE
  8
1
 62
7
 10
-76.15324780934498
 20
169.978592401974
 30
0
 11
-76.15324780934498
 21
183.978700299956
 31
0
  0
LINE
  8
1
 62
7
 10
-91.05324780934498
 20
189.3259062201212
 30
0
 11
-91.05324780934498
 21
179.3259062201212
 31
0
  0
LINE
  8
1
 62
7
 10
-91.05324780934498
 20
179.3259062201212
 30
0
 11
-96.65324780934498
 21
179.3259062201212
 31
0
  0
LINE
  8
1
 62
7
 10
-90.65324780934498
 20
180.0187265431487
 30
0
 11
-91.05324780934498
 21
179.3259062201212
 31
0
  0
LINE
  8
1
 62
7
 10
-90.65324780934498
 20
188.6330858970936
 30
0
 11
-90.65324780934498
 21
180.0187265431487
 31
0
  0
LINE
  8
1
 62
7
 10
-91.05324780934498
 20
189.3259062201212
 30
0
 11
-90.65324780934498
 21
188.6330858970936
 31
0
  0
LINE
  8
1
 62
7
 10
-96.65324780934498
 20
189.3259062201212
 30
0
 11
-91.05324780934498
 21
189.3259062201212
 31
0
  0
LINE
  8
1
 62
7
 10
-96.65324780934498
 20
178.2259062201212
 30
0
 11
-98.15324780934498
 21
178.2259062201212
 31
0
  0
LINE
  8
1
 62
7
 10
-96.65324780934498
 20
190.4259062201212
 30
0
 11
-96.65324780934498
 21
178.2259062201212
 31
0
  0
LINE
  8
1
 62
7
 10
-98.15324780934498
 20
190.4259062201212
 30
0
 11
-96.65324780934498
 21
190.4259062201212
 31
0
  0
LINE
  8
1
 62
7
 10
-98.15324780934498
 20
182.8259062201212
 30
0
 11
-96.65324780934498
 21
184.3259062201212
 31
0
  0
LINE
  8
1
 62
7
 10
-98.15324780934498
 20
184.3259062201212
 30
0
 11
-96.65324780934498
 21
185.8259062201212
 31
0
  0
LINE
  8
1
 62
7
 10
-91.05324780934498
 20
279.6314943797908
 30
0
 11
-91.05324780934498
 21
269.6314943797908
 31
0
  0
LINE
  8
1
 62
7
 10
-96.65324780934498
 20
279.6314943797908
 30
0
 11
-91.05324780934498
 21
279.6314943797908
 31
0
  0
LINE
  8
1
 62
7
 10
-91.05324780934498
 20
279.6314943797908
 30
0
 11
-90.65324780934498
 21
278.9386740567632
 31
0
  0
LINE
  8
1
 62
7
 10
-90.65324780934498
 20
278.9386740567632
 30
0
 11
-90.65324780934498
 21
270.3243147028184
 31
0
  0
LINE
  8
1
 62
7
 10
-90.65324780934498
 20
270.3243147028184
 30
0
 11
-91.05324780934498
 21
269.6314943797908
 31
0
  0
LINE
  8
1
 62
7
 10
-91.05324780934498
 20
269.6314943797908
 30
0
 11
-96.65324780934498
 21
269.6314943797908
 31
0
  0
LINE
  8
1
 62
7
 10
-98.15324780934498
 20
280.7314943797908
 30
0
 11
-96.65324780934498
 21
280.7314943797908
 31
0
  0
LINE
  8
1
 62
7
 10
-96.65324780934498
 20
280.7314943797908
 30
0
 11
-96.65324780934498
 21
268.5314943797908
 31
0
  0
LINE
  8
1
 62
7
 10
-96.65324780934498
 20
268.5314943797908
 30
0
 11
-98.15324780934498
 21
268.5314943797908
 31
0
  0
LINE
  8
1
 62
7
 10
-96.65324780934498
 20
274.6314943797908
 30
0
 11
-98.15324780934498
 21
276.1314943797908
 31
0
  0
LINE
  8
1
 62
7
 10
-96.65324780934498
 20
273.1314943797908
 30
0
 11
-98.15324780934498
 21
274.6314943797908
 31
0
  0
LINE
  8
1
 62
7
 10
-45.45324780934499
 20
-14.25000000000008
 30
0
 11
-45.45324780934499
 21
14.25000000000008
 31
0
  0
LINE
  8
1
 62
7
 10
-45.45324780934499
 20
214.0711495345967
 30
0
 11
-45.45324780934499
 21
244.8862510653153
 31
0
  0
LINE
  8
1
 62
7
 10
-47.15324780934498
 20
214.0711495345967
 30
0
 11
-45.45324780934499
 21
214.0711495345967
 31
0
  0
LINE
  8
1
 62
7
 10
-116.1537708569471
 20
136.978700299956
 30
0
 11
-116.1537708569471
 21
154.478700299956
 31
0
  0
LINE
  8
1
 62
3
 10
-1.653247809344975
 20
229.478700299956
 30
0
 11
3.346752190655025
 21
229.478700299956
 31
0
  0
LINE
  8
1
 62
7
 10
-2.153247809344975
 20
9.123475382979789
 30
0
 11
-2.153247809344975
 21
-9.5
 31
0
  0
LINE
  8
1
 62
7
 10
-2.153247809344975
 20
9.123475382979789
 30
0
 11
-1.653247809344975
 21
8.623475382979791
 31
0
  0
LINE
  8
1
 62
7
 10
-1.653247809344975
 20
11.5
 30
0
 11
-1.653247809344975
 21
-9
 31
0
  0
LINE
  8
1
 62
7
 10
-1.653247809344975
 20
-9
 30
0
 11
-2.153247809344975
 21
-9.5
 31
0
  0
LINE
  8
1
 62
7
 10
-117.653247809345
 20
-30.25
 30
0
 11
-112.653247809345
 21
-30.25
 31
0
  0
LINE
  8
1
 62
7
 10
-117.653247809345
 20
-27.75
 30
0
 11
-112.653247809345
 21
-27.75
 31
0
  0
LINE
  8
1
 62
7
 10
-135.278247809345
 20
-30
 30
0
 11
-140.528247809345
 21
-30
 31
0
  0
LINE
  8
1
 62
7
 10
-143.528247809345
 20
-33
 30
0
 11
-143.528247809345
 21
-39.5
 31
0
  0
LINE
  8
1
 62
7
 10
-145.528247809345
 20
-39.5
 30
0
 11
-145.528247809345
 21
-33
 31
0
  0
LINE
  8
1
 62
7
 10
-136.278247809345
 20
-39.5
 30
0
 11
-136.278247809345
 21
-33
 31
0
  0
LINE
  8
1
 62
7
 10
-140.528247809345
 20
-28
 30
0
 11
-112.653247809345
 21
-28
 31
0
  0
LINE
  8
1
 62
7
 10
-112.653247809345
 20
-30
 30
0
 11
-131.278247809345
 21
-30
 31
0
  0
LINE
  8
1
 62
7
 10
-134.278247809345
 20
-33
 30
0
 11
-134.278247809345
 21
-39.5
 31
0
  0
LINE
  8
1
 62
7
 10
-50.59843404479557
 20
-15.08021025797716
 30
0
 11
-81.59843404479557
 21
-27.21155864101998
 31
0
  0
LINE
  8
1
 62
7
 10
-82.70806157389438
 20
-30.99605318159309
 30
0
 11
-50.43065469161968
 21
-18.49586740289227
 31
0
  0
LINE
  8
1
 62
7
 10
-49.83517626755707
 20
-14.66292839209649
 30
0
 11
-80.15324780934498
 21
-14.66292839209649
 31
0
  0
LINE
  8
1
 62
7
 10
-47.15324780934498
 20
-7.103654500897772
 30
0
 11
-47.15324780934498
 21
-8.018407238238751
 31
0
  0
LINE
  8
1
 62
7
 10
-84.15324780934498
 20
54
 30
0
 11
-49.15324780934498
 21
35
 31
0
  0
LINE
  8
1
 62
7
 10
-29.65324780934498
 20
9.123475382979791
 30
0
 11
-2.153247809344975
 21
9.123475382979789
 31
0
  0
LINE
  8
1
 62
7
 10
-41.65324780934498
 20
-9.5
 30
0
 11
-2.153247809344975
 21
-9.5
 31
0
  0
LINE
  8
1
 62
7
 10
-1.653247809344975
 20
11.5
 30
0
 11
-31.65324780934498
 21
11.5
 31
0
  0
LINE
  8
1
 62
7
 10
-31.65324780934498
 20
11.5
 30
0
 11
-31.65324780934498
 21
9.5
 31
0
  0
LINE
  8
1
 62
7
 10
-31.65324780934498
 20
9.5
 30
0
 11
-41.65324780934498
 21
9.5
 31
0
  0
LINE
  8
1
 62
7
 10
-45.35324780934508
 20
-12.5
 30
0
 11
-41.65324780934498
 21
-12.49999999999999
 31
0
  0
LINE
  8
1
 62
7
 10
-41.65324780934498
 20
-12.49999999999999
 30
0
 11
-41.65324780934498
 21
12.5
 31
0
  0
LINE
  8
1
 62
7
 10
-41.65324780934498
 20
12.5
 30
0
 11
-45.35324780934508
 21
12.5
 31
0
  0
LINE
  8
1
 62
7
 10
-47.15324780934498
 20
14.25000000000009
 30
0
 11
-47.15324780934498
 21
-14.25000000000007
 31
0
  0
LINE
  8
1
 62
7
 10
-45.45324780934499
 20
-14.25000000000008
 30
0
 11
-47.15324780934498
 21
-14.25000000000007
 31
0
  0
LINE
  8
1
 62
7
 10
-47.15324780934498
 20
14.25000000000009
 30
0
 11
-45.45324780934499
 21
14.25000000000008
 31
0
  0
LINE
  8
1
 62
7
 10
-98.15324780934498
 20
73
 30
0
 11
-98.15324780934498
 21
46.99999999999997
 31
0
  0
LINE
  8
1
 62
7
 10
-47.15324780934498
 20
-33
 30
0
 11
-47.15324780934498
 21
33
 31
0
  0
LINE
  8
1
 62
7
 10
-49.15324780934498
 20
35
 30
0
 11
-82.15324780934498
 21
35
 31
0
  0
LINE
  8
1
 62
7
 10
-84.15324780934498
 20
-53.99999999999999
 30
0
 11
-84.15324780934498
 21
54
 31
0
  0
LINE
  8
1
 62
7
 10
-86.15324780934498
 20
56.00000000000001
 30
0
 11
-96.15324780934498
 21
56
 31
0
  0
LINE
  8
1
 62
7
 10
-109.153247809345
 20
-90
 30
0
 11
-69.15324780934498
 21
-90
 31
0
  0
LINE
  8
1
 62
7
 10
-69.15324780934498
 20
-90
 30
0
 11
-69.15324780934498
 21
-78
 31
0
  0
LINE
  8
1
 62
7
 10
-2.153247809345089
 20
226.9787002999559
 30
0
 11
-2.153247809344975
 21
219.978700299956
 31
0
  0
LINE
  8
1
 62
7
 10
-84.15324780934498
 20
225.3120336332892
 30
0
 11
-84.15324780934498
 21
175.478700299956
 31
0
  0
LINE
  8
1
 62
7
 10
-1.653247809344975
 20
238.478700299956
 30
0
 11
-1.653247809344975
 21
220.478700299956
 31
0
  0
LINE
  8
1
 62
7
 10
-98.15324780934498
 20
156.478700299956
 30
0
 11
-98.15324780934498
 21
302.4787002999561
 31
0
  0
LINE
  8
1
 62
7
 10
-1.653247809344975
 20
226.9787002999559
 30
0
 11
-29.15324780934498
 21
226.9787002999559
 31
0
  0
LINE
  8
1
 62
7
 10
-1.653247809344975
 20
220.478700299956
 30
0
 11
-2.153247809344975
 21
219.978700299956
 31
0
  0
LINE
  8
1
 62
7
 10
-41.65324780934498
 20
219.978700299956
 30
0
 11
-2.153247809344975
 21
219.978700299956
 31
0
  0
LINE
  8
1
 62
7
 10
-41.65324780934498
 20
216.978700299956
 30
0
 11
-41.65324780934498
 21
241.978700299956
 31
0
  0
LINE
  8
1
 62
7
 10
-45.45324780934499
 20
216.9787002999559
 30
0
 11
-41.65324780934498
 21
216.978700299956
 31
0
  0
LINE
  8
1
 62
7
 10
-51.40423207656988
 20
226.9787002999559
 30
0
 11
-82.18122121497848
 21
226.9787002999559
 31
0
  0
LINE
  8
1
 62
7
 10
-82.70806157389438
 20
187.9832461302001
 30
0
 11
-49.15324780934498
 21
194.478700299956
 31
0
  0
LINE
  8
1
 62
7
 10
-47.15324780934498
 20
229.4787002999353
 30
0
 11
-47.15324780934498
 21
196.478700299956
 31
0
  0
LINE
  8
1
 62
7
 10
-49.15324780934498
 20
194.478700299956
 30
0
 11
-82.15324780934498
 21
194.478700299956
 31
0
  0
LINE
  8
1
 62
7
 10
-86.15324780934498
 20
173.478700299956
 30
0
 11
-96.15324780934498
 21
173.478700299956
 31
0
  0
LINE
  8
1
 62
7
 10
-69.15324780934498
 20
190.0560148679636
 30
0
 11
-69.15324780934498
 21
157.478700299956
 31
0
  0
LINE
  8
1
 62
7
 10
-98.15324780934498
 20
73
 30
0
 11
-98.15324780934498
 21
-72
 31
0
  0
LINE
  8
1
 62
7
 10
-96.15324780934498
 20
-56
 30
0
 11
-86.15324780934498
 21
-56
 31
0
  0
LINE
  8
1
 62
7
 10
-82.15324780934498
 20
-35
 30
0
 11
-49.15324780934498
 21
-35
 31
0
  0
LINE
  8
1
 62
7
 10
-82.15324780934498
 20
-35
 30
0
 11
-49.15324780934498
 21
-35
 31
0
  0
LINE
  8
1
 62
7
 10
-72.15324780934498
 20
-75
 30
0
 11
-95.15324780934498
 21
-75
 31
0
  0
LINE
  8
1
 62
7
  6
DASHED
 10
-211.153247809345
 20
173.478700299956
 30
0
 11
-211.153247809345
 21
183.978700299956
 31
0
  0
LINE
  8
1
 62
3
  6
DASHDOT
 10
-216.653247809345
 20
191.095862122442
 30
0
 11
-216.653247809345
 21
161.772533014843
 31
0
  0
LINE
  8
1
 62
7
 10
-211.153247809345
 20
169.9785924019741
 30
0
 11
-211.153247809345
 21
173.478700299956
 31
0
  0
LINE
  8
1
 62
7
 10
-222.153247809345
 20
183.978700299956
 30
0
 11
-222.153247809345
 21
169.978592401974
 31
0
  0
LINE
  8
1
 62
7
 10
84.63865350320521
 20
-34.01167717480745
 30
0
 11
87.61948054715543
 21
-34.01167717480745
 31
0
  0
LINE
  8
1
 62
7
 10
81.26843237953904
 20
-33.15442695363483
 30
0
 11
82.54191925156823
 21
-37.59998215925109
 31
0
  0
LINE
  8
1
 62
7
 10
79.26407309858934
 20
-33.15442695363483
 30
0
 11
80.54157664592344
 21
-37.59883435355
 31
0
  0
LINE
  8
1
 62
7
 10
237.6115406268626
 20
-1.884776120644477e-016
 30
0
 11
237.6115406268627
 21
-90
 31
0
  0
LINE
  8
1
 62
7
 10
192.6115406268627
 20
-90
 30
0
 11
192.6115406268627
 21
-77
 31
0
  0
LINE
  8
1
 62
7
 10
235.6115406268627
 20
-75
 30
0
 11
194.6115406268627
 21
-75
 31
0
  0
LINE
  8
1
 62
7
 10
192.6115406268627
 20
-90
 30
0
 11
237.6115406268627
 21
-90
 31
0
  0
LINE
  8
1
 62
7
 10
-207.253247809345
 20
-50.1527940798348
 30
0
 11
-207.253247809345
 21
-40.1527940798348
 31
0
  0
LINE
  8
1
 62
7
 10
-201.653247809345
 20
-50.15279407983479
 30
0
 11
-207.253247809345
 21
-50.1527940798348
 31
0
  0
LINE
  8
1
 62
7
 10
-207.253247809345
 20
-50.1527940798348
 30
0
 11
-207.653247809345
 21
-49.45997375680724
 31
0
  0
LINE
  8
1
 62
7
 10
-207.653247809345
 20
-49.45997375680724
 30
0
 11
-207.653247809345
 21
-40.84561440286235
 31
0
  0
LINE
  8
1
 62
7
 10
-207.653247809345
 20
-40.84561440286235
 30
0
 11
-207.253247809345
 21
-40.1527940798348
 31
0
  0
LINE
  8
1
 62
7
 10
-207.253247809345
 20
-40.1527940798348
 30
0
 11
-201.653247809345
 21
-40.15279407983479
 31
0
  0
LINE
  8
1
 62
7
 10
-200.153247809345
 20
-51.25279407983479
 30
0
 11
-201.653247809345
 21
-51.25279407983479
 31
0
  0
LINE
  8
1
 62
7
 10
-201.653247809345
 20
-51.25279407983479
 30
0
 11
-201.653247809345
 21
-39.0527940798348
 31
0
  0
LINE
  8
1
 62
7
 10
-201.653247809345
 20
-39.0527940798348
 30
0
 11
-200.153247809345
 21
-39.05279407983479
 31
0
  0
LINE
  8
1
 62
7
 10
-201.653247809345
 20
-45.15279407983479
 30
0
 11
-200.153247809345
 21
-46.65279407983479
 31
0
  0
LINE
  8
1
 62
7
 10
-201.653247809345
 20
-43.65279407983479
 30
0
 11
-200.153247809345
 21
-45.15279407983479
 31
0
  0
LINE
  8
1
 62
7
 10
-207.253247809345
 20
40.1527940798348
 30
0
 11
-207.253247809345
 21
50.1527940798348
 31
0
  0
LINE
  8
1
 62
7
 10
-207.253247809345
 20
50.1527940798348
 30
0
 11
-201.653247809345
 21
50.15279407983479
 31
0
  0
LINE
  8
1
 62
7
 10
-207.653247809345
 20
49.45997375680725
 30
0
 11
-207.253247809345
 21
50.1527940798348
 31
0
  0
LINE
  8
1
 62
7
 10
-207.653247809345
 20
40.84561440286235
 30
0
 11
-207.653247809345
 21
49.45997375680725
 31
0
  0
LINE
  8
1
 62
7
 10
-207.253247809345
 20
40.1527940798348
 30
0
 11
-207.653247809345
 21
40.84561440286235
 31
0
  0
LINE
  8
1
 62
7
 10
-201.653247809345
 20
40.15279407983479
 30
0
 11
-207.253247809345
 21
40.1527940798348
 31
0
  0
LINE
  8
1
 62
7
 10
-201.653247809345
 20
51.25279407983479
 30
0
 11
-200.153247809345
 21
51.25279407983479
 31
0
  0
LINE
  8
1
 62
7
 10
-201.653247809345
 20
39.0527940798348
 30
0
 11
-201.653247809345
 21
51.25279407983479
 31
0
  0
LINE
  8
1
 62
7
 10
-200.153247809345
 20
39.05279407983479
 30
0
 11
-201.653247809345
 21
39.0527940798348
 31
0
  0
LINE
  8
1
 62
7
 10
-200.153247809345
 20
46.65279407983479
 30
0
 11
-201.653247809345
 21
45.15279407983479
 31
0
  0
LINE
  8
1
 62
7
 10
-200.153247809345
 20
45.15279407983479
 30
0
 11
-201.653247809345
 21
43.65279407983479
 31
0
  0
LINE
  8
1
 62
7
 10
208.092285379939
 20
-42.89330006001923
 30
0
 11
208.9843406043717
 21
-45.63876373850704
 31
0
  0
LINE
  8
1
 62
7
 10
210.0238990584605
 20
-40.748025734838
 30
0
 11
208.092285379939
 21
-42.89330006001923
 31
0
  0
LINE
  8
1
 62
7
 10
212.8475679614148
 20
-41.3482150881445
 30
0
 11
210.0238990584605
 21
-40.748025734838
 31
0
  0
LINE
  8
1
 62
7
 10
213.7396231858475
 20
-44.09367876663226
 30
0
 11
212.8475679614148
 21
-41.3482150881445
 31
0
  0
LINE
  8
1
 62
7
 10
211.8080095073259
 20
-46.23895309181355
 30
0
 11
213.7396231858475
 21
-44.09367876663226
 31
0
  0
LINE
  8
1
 62
7
 10
208.9843406043717
 20
-45.63876373850704
 30
0
 11
211.8080095073259
 21
-46.23895309181355
 31
0
  0
LINE
  8
1
 62
7
 10
118.9310249816998
 20
-44.72522650927574
 30
0
 11
116.1704109402869
 21
-45.56923092140124
 31
0
  0
LINE
  8
1
 62
7
 10
121.0422612642132
 20
-46.69398619312059
 30
0
 11
118.9310249816998
 21
-44.72522650927574
 31
0
  0
LINE
  8
1
 62
7
 10
120.3928835053135
 20
-49.50675028909094
 30
0
 11
121.0422612642132
 21
-46.69398619312059
 31
0
  0
LINE
  8
1
 62
7
 10
117.6322694639007
 20
-50.35075470121644
 30
0
 11
120.3928835053135
 21
-49.50675028909094
 31
0
  0
LINE
  8
1
 62
7
 10
115.5210331813873
 20
-48.38199501737159
 30
0
 11
117.6322694639007
 21
-50.35075470121644
 31
0
  0
LINE
  8
1
 62
7
 10
116.1704109402869
 20
-45.56923092140124
 30
0
 11
115.5210331813873
 21
-48.38199501737159
 31
0
  0
LINE
  8
1
 62
7
 10
118.6554560986452
 20
44.45442572209815
 30
0
 11
117.8597595907469
 21
47.2293492166565
 31
0
  0
LINE
  8
1
 62
7
 10
116.6501501127486
 20
42.37787058527651
 30
0
 11
118.6554560986452
 21
44.45442572209815
 31
0
  0
LINE
  8
1
 62
7
 10
113.8491476189536
 20
43.07623894301316
 30
0
 11
116.6501501127486
 21
42.37787058527651
 31
0
  0
LINE
  8
1
 62
7
 10
113.0534511110553
 20
45.85116243757146
 30
0
 11
113.8491476189536
 21
43.07623894301316
 31
0
  0
LINE
  8
1
 62
7
 10
115.058757096952
 20
47.92771757439316
 30
0
 11
113.0534511110553
 21
45.85116243757146
 31
0
  0
LINE
  8
1
 62
7
 10
117.8597595907469
 20
47.2293492166565
 30
0
 11
115.058757096952
 21
47.92771757439316
 31
0
  0
LINE
  8
1
 62
7
 10
207.8263351771815
 20
43.17355309799957
 30
0
 11
210.6147228563075
 21
43.92069932480627
 31
0
  0
LINE
  8
1
 62
7
 10
205.7850937248622
 20
45.21479455031889
 30
0
 11
207.8263351771815
 21
43.17355309799957
 31
0
  0
LINE
  8
1
 62
7
 10
206.5322399516689
 20
48.00318222944493
 30
0
 11
205.7850937248622
 21
45.21479455031889
 31
0
  0
LINE
  8
1
 62
7
 10
209.3206276307949
 20
48.75032845625163
 30
0
 11
206.5322399516689
 21
48.00318222944493
 31
0
  0
LINE
  8
1
 62
7
 10
211.3618690831142
 20
46.70908700393231
 30
0
 11
209.3206276307949
 21
48.75032845625163
 31
0
  0
LINE
  8
1
 62
7
 10
210.6147228563075
 20
43.92069932480627
 30
0
 11
211.3618690831142
 21
46.70908700393231
 31
0
  0
LINE
  8
1
 62
7
 10
197.568668158151
 20
-17.29575564433739
 30
0
 11
207.634533718296
 21
-23.10728583511371
 31
0
  0
LINE
  8
1
 62
7
 10
205.134533718296
 20
-27.437412854036
 30
0
 11
195.0686681581509
 21
-21.62588266325968
 31
0
  0
LINE
  8
1
 62
7
 10
130.1544130955742
 20
-21.62588266325951
 30
0
 11
120.0885475354292
 21
-27.43741285403582
 31
0
  0
LINE
  8
1
 62
7
 10
117.5885475354291
 20
-23.10728583511352
 30
0
 11
127.6544130955742
 21
-17.29575564433721
 31
0
  0
LINE
  8
1
 62
3
  6
DASHDOT
 10
162.6115406268626
 20
5.000000000000003
 30
0
 11
162.6115406268626
 21
-6.000000000000002
 31
0
  0
LINE
  8
1
 62
3
  6
DASHDOT
 10
168.6115406268626
 20
-1.884776120644477e-016
 30
0
 11
156.6115406268626
 21
-1.884776120644477e-016
 31
0
  0
LINE
  8
1
 62
7
 10
160.1115406268626
 20
6.500000000000002
 30
0
 11
160.1115406268626
 21
11.5
 31
0
  0
LINE
  8
1
 62
7
 10
165.1115406268626
 20
6.5
 30
0
 11
160.1115406268626
 21
6.500000000000002
 31
0
  0
LINE
  8
1
 62
7
 10
165.1115406268626
 20
11.5
 30
0
 11
165.1115406268626
 21
6.5
 31
0
  0
LINE
  8
1
 62
7
 10
160.1115406268626
 20
11.5
 30
0
 11
165.1115406268626
 21
11.5
 31
0
  0
LINE
  8
1
 62
7
 10
160.1115406268626
 20
-15.99744871391589
 30
0
 11
158.1115406268626
 21
-15.99744871391589
 31
0
  0
LINE
  8
1
 62
7
 10
160.1115406268626
 20
-12.24744871391589
 30
0
 11
160.1115406268626
 21
-15.99744871391589
 31
0
  0
LINE
  8
1
 62
7
 10
165.1115406268626
 20
-15.99744871391589
 30
0
 11
167.1115406268626
 21
-15.99744871391589
 31
0
  0
LINE
  8
1
 62
7
 10
165.1115406268626
 20
-12.24744871391589
 30
0
 11
165.1115406268626
 21
-15.99744871391589
 31
0
  0
LINE
  8
1
 62
7
 10
156.1115406268626
 20
-13.99744871391589
 30
0
 11
156.1115406268626
 21
-13.48291092016549
 31
0
  0
LINE
  8
1
 62
7
 10
169.1115406268626
 20
-13.99744871391589
 30
0
 11
169.1115406268626
 21
-13.48291092016549
 31
0
  0
LINE
  8
1
 62
7
 10
-252.853247809345
 20
14.25000000000008
 30
0
 11
-252.853247809345
 21
-14.25000000000008
 31
0
  0
LINE
  8
1
 62
7
 10
-252.853247809345
 20
244.8862510653153
 30
0
 11
-252.853247809345
 21
214.0711495345967
 31
0
  0
LINE
  8
1
 62
7
 10
-252.853247809345
 20
214.0711495345967
 30
0
 11
-251.153247809345
 21
214.0711495345967
 31
0
  0
LINE
  8
1
 62
7
 10
-182.1527247617429
 20
154.478700299956
 30
0
 11
-182.1527247617429
 21
136.978700299956
 31
0
  0
LINE
  8
1
 62
3
 10
-301.653247809345
 20
229.478700299956
 30
0
 11
-296.653247809345
 21
229.478700299956
 31
0
  0
LINE
  8
1
 62
7
 10
-296.153247809345
 20
-9.5
 30
0
 11
-296.153247809345
 21
9.123475382979789
 31
0
  0
LINE
  8
1
 62
7
 10
-296.653247809345
 20
8.623475382979791
 30
0
 11
-296.153247809345
 21
9.123475382979789
 31
0
  0
LINE
  8
1
 62
7
 10
-296.653247809345
 20
-9
 30
0
 11
-296.653247809345
 21
11.5
 31
0
  0
LINE
  8
1
 62
7
 10
-296.153247809345
 20
-9.5
 30
0
 11
-296.653247809345
 21
-9
 31
0
  0
LINE
  8
1
 62
7
 10
84.6276741862946
 20
-28.13098257811899
 30
0
 11
84.05474588335022
 21
-28.15498952325351
 31
0
  0
LINE
  8
1
 62
7
 10
80.59479591117594
 20
-38.32640590489795
 30
0
 11
80.59479591117594
 21
-39.5
 31
0
  0
LINE
  8
1
 62
7
 10
82.59479591117594
 20
-38.32522050279464
 30
0
 11
82.59479591117594
 21
-39.5
 31
0
  0
LINE
  8
1
 62
7
 10
84.10273659826942
 20
-30.16182406809147
 30
0
 11
84.63141119102664
 21
-30.13258101217261
 31
0
  0
LINE
  8
1
 62
7
 10
87.61154062686262
 20
-64.5
 30
0
 11
69.61154062686262
 21
-64.5
 31
0
  0
LINE
  8
1
 62
7
 10
69.61154062686262
 20
-64.5
 30
0
 11
69.61154062686262
 21
-39.5
 31
0
  0
LINE
  8
1
 62
7
 10
69.61154062686262
 20
-39.5
 30
0
 11
87.61154062686262
 21
-39.5
 31
0
  0
LINE
  8
1
 62
7
 10
87.60112943970285
 20
-24.00287827413221
 30
0
 11
87.61948054715543
 21
-34.00611194025335
 31
0
  0
LINE
  8
1
 62
7
 10
84.63865350320521
 20
-34.01167717480745
 30
0
 11
84.61998343354804
 21
-24.01169460339768
 31
0
  0
LINE
  8
1
 62
7
 10
84.61998343354804
 20
-24.01169460339768
 30
0
 11
87.60112943970285
 21
-24.00287827413221
 31
0
  0
LINE
  8
1
 62
7
 10
-185.653247809345
 20
-30.25
 30
0
 11
-180.653247809345
 21
-30.25
 31
0
  0
LINE
  8
1
 62
7
 10
-185.653247809345
 20
-27.75
 30
0
 11
-180.653247809345
 21
-27.75
 31
0
  0
LINE
  8
1
 62
7
 10
-157.778247809345
 20
-30
 30
0
 11
-168.528247809345
 21
-30
 31
0
  0
LINE
  8
1
 62
7
 10
-154.778247809345
 20
-39.5
 30
0
 11
-154.778247809345
 21
-33
 31
0
  0
LINE
  8
1
 62
7
 10
-152.778247809345
 20
-33
 30
0
 11
-152.778247809345
 21
-39.5
 31
0
  0
LINE
  8
1
 62
7
 10
-167.528247809345
 20
-33
 30
0
 11
-167.528247809345
 21
-39.5
 31
0
  0
LINE
  8
1
 62
7
 10
-185.653247809345
 20
-28
 30
0
 11
-157.778247809345
 21
-28
 31
0
  0
LINE
  8
1
 62
7
 10
-172.528247809345
 20
-30
 30
0
 11
-185.653247809345
 21
-30
 31
0
  0
LINE
  8
1
 62
7
 10
-169.528247809345
 20
-39.5
 30
0
 11
-169.528247809345
 21
-33
 31
0
  0
LINE
  8
1
 62
3
 10
-164.8370031512362
 20
-45.42307849421368
 30
0
 11
-167.4694924674538
 21
-46.94294690957075
 31
0
  0
LINE
  8
1
 62
3
 10
-167.9694924674538
 20
-46.07692150578631
 30
0
 11
-165.3370031512362
 21
-44.55705309042925
 31
0
  0
LINE
  8
1
 62
7
 10
-172.153247809345
 20
-62.5
 30
0
 11
-172.153247809345
 21
-41.5
 31
0
  0
LINE
  8
1
 62
7
 10
-128.153247809345
 20
-64.5
 30
0
 11
-170.153247809345
 21
-64.5
 31
0
  0
LINE
  8
1
 62
7
 10
-170.153247809345
 20
-39.5
 30
0
 11
-128.153247809345
 21
-39.5
 31
0
  0
LINE
  8
1
 62
7
 10
-216.7080615738944
 20
-27.21155864101998
 30
0
 11
-247.7080615738944
 21
-15.08021025797716
 31
0
  0
LINE
  8
1
 62
7
 10
-247.8758409270703
 20
-18.49586740289227
 30
0
 11
-215.5984340447956
 21
-30.99605318159309
 31
0
  0
LINE
  8
1
 62
7
 10
-218.153247809345
 20
-14.66292839209649
 30
0
 11
-248.4713193511329
 21
-14.66292839209649
 31
0
  0
LINE
  8
1
 62
7
 10
-251.153247809345
 20
-8.018407238238751
 30
0
 11
-251.153247809345
 21
-7.103654500897772
 31
0
  0
LINE
  8
1
 62
7
 10
-249.153247809345
 20
35
 30
0
 11
-214.153247809345
 21
54
 31
0
  0
LINE
  8
1
 62
7
 10
132.6115406268626
 20
-77
 30
0
 11
132.6115406268626
 21
-90
 31
0
  0
LINE
  8
1
 62
7
 10
134.6115406268626
 20
-86
 30
0
 11
190.6115406268627
 21
-86
 31
0
  0
LINE
  8
1
 62
7
 10
87.61154062686262
 20
-90
 30
0
 11
87.61154062686262
 21
6.916949745536555e-015
 31
0
  0
LINE
  8
1
 62
7
 10
130.6115406268626
 20
-75
 30
0
 11
89.61154062686262
 21
-75
 31
0
  0
LINE
  8
1
 62
7
 10
87.61154062686262
 20
-90
 30
0
 11
132.6115406268626
 21
-90
 31
0
  0
LINE
  8
1
 62
7
 10
-296.153247809345
 20
9.123475382979789
 30
0
 11
-268.653247809345
 21
9.123475382979791
 31
0
  0
LINE
  8
1
 62
7
 10
-296.153247809345
 20
-9.5
 30
0
 11
-256.653247809345
 21
-9.5
 31
0
  0
LINE
  8
1
 62
7
 10
-266.653247809345
 20
11.5
 30
0
 11
-296.653247809345
 21
11.5
 31
0
  0
LINE
  8
1
 62
7
 10
-266.653247809345
 20
9.5
 30
0
 11
-266.653247809345
 21
11.5
 31
0
  0
LINE
  8
1
 62
7
 10
-256.653247809345
 20
9.5
 30
0
 11
-266.653247809345
 21
9.5
 31
0
  0
LINE
  8
1
 62
7
 10
-256.653247809345
 20
-12.49999999999999
 30
0
 11
-252.9532478093449
 21
-12.5
 31
0
  0
LINE
  8
1
 62
7
 10
-256.653247809345
 20
12.5
 30
0
 11
-256.653247809345
 21
-12.49999999999999
 31
0
  0
LINE
  8
1
 62
7
 10
-252.9532478093449
 20
12.5
 30
0
 11
-256.653247809345
 21
12.5
 31
0
  0
LINE
  8
1
 62
7
 10
-251.153247809345
 20
-14.25000000000007
 30
0
 11
-251.153247809345
 21
14.25000000000009
 31
0
  0
LINE
  8
1
 62
7
 10
-251.153247809345
 20
-14.25000000000007
 30
0
 11
-252.853247809345
 21
-14.25000000000008
 31
0
  0
LINE
  8
1
 62
7
 10
-252.853247809345
 20
14.25000000000008
 30
0
 11
-251.153247809345
 21
14.25000000000009
 31
0
  0
LINE
  8
1
 62
7
 10
-251.153247809345
 20
33
 30
0
 11
-251.153247809345
 21
-33
 31
0
  0
LINE
  8
1
 62
7
 10
-216.153247809345
 20
35
 30
0
 11
-249.153247809345
 21
35
 31
0
  0
LINE
  8
1
 62
7
 10
-214.153247809345
 20
54
 30
0
 11
-214.153247809345
 21
-53.99999999999999
 31
0
  0
LINE
  8
1
 62
7
 10
-202.153247809345
 20
56
 30
0
 11
-212.153247809345
 21
56.00000000000001
 31
0
  0
LINE
  8
1
 62
7
 10
-187.153247809345
 20
-87
 30
0
 11
-111.153247809345
 21
-87
 31
0
  0
LINE
  8
1
 62
7
 10
-229.153247809345
 20
-90
 30
0
 11
-189.153247809345
 21
-90
 31
0
  0
LINE
  8
1
 62
7
 10
-229.153247809345
 20
-78
 30
0
 11
-229.153247809345
 21
-90
 31
0
  0
LINE
  8
1
 62
7
 10
-198.153247809345
 20
75
 30
0
 11
-100.153247809345
 21
75
 31
0
  0
LINE
  8
1
 62
7
 10
-296.153247809345
 20
219.978700299956
 30
0
 11
-296.1532478093449
 21
226.9787002999559
 31
0
  0
LINE
  8
1
 62
7
 10
-214.153247809345
 20
175.478700299956
 30
0
 11
-214.153247809345
 21
225.3120336332892
 31
0
  0
LINE
  8
1
 62
7
 10
-72.15324780934498
 20
154.478700299956
 30
0
 11
-226.153247809345
 21
154.478700299956
 31
0
  0
LINE
  8
1
 62
7
 10
-296.653247809345
 20
220.478700299956
 30
0
 11
-296.653247809345
 21
238.478700299956
 31
0
  0
LINE
  8
1
 62
7
 10
-200.153247809345
 20
302.4787002999561
 30
0
 11
-200.153247809345
 21
156.478700299956
 31
0
  0
LINE
  8
1
 62
7
 10
-269.153247809345
 20
226.9787002999559
 30
0
 11
-296.653247809345
 21
226.9787002999559
 31
0
  0
LINE
  8
1
 62
7
 10
-296.153247809345
 20
219.978700299956
 30
0
 11
-296.653247809345
 21
220.478700299956
 31
0
  0
LINE
  8
1
 62
7
 10
-296.153247809345
 20
219.978700299956
 30
0
 11
-256.653247809345
 21
219.978700299956
 31
0
  0
LINE
  8
1
 62
7
 10
-256.653247809345
 20
241.978700299956
 30
0
 11
-256.653247809345
 21
216.978700299956
 31
0
  0
LINE
  8
1
 62
7
 10
-256.653247809345
 20
216.978700299956
 30
0
 11
-252.853247809345
 21
216.9787002999559
 31
0
  0
LINE
  8
1
 62
7
 10
-216.1252744037115
 20
226.9787002999559
 30
0
 11
-246.9022635421201
 21
226.9787002999559
 31
0
  0
LINE
  8
1
 62
7
 10
-249.153247809345
 20
194.478700299956
 30
0
 11
-215.5984340447956
 21
187.9832461302001
 31
0
  0
LINE
  8
1
 62
7
 10
-251.153247809345
 20
196.478700299956
 30
0
 11
-251.153247809345
 21
229.4787002999353
 31
0
  0
LINE
  8
1
 62
7
 10
-216.153247809345
 20
194.478700299956
 30
0
 11
-249.153247809345
 21
194.478700299956
 31
0
  0
LINE
  8
1
 62
7
 10
-202.153247809345
 20
173.478700299956
 30
0
 11
-212.153247809345
 21
173.478700299956
 31
0
  0
LINE
  8
1
 62
7
 10
-229.153247809345
 20
157.478700299956
 30
0
 11
-229.153247809345
 21
190.0560148679636
 31
0
  0
LINE
  8
1
 62
7
 10
160.1115406268626
 20
38.92163830759679
 30
0
 11
160.1115406268626
 21
50.54469868914942
 31
0
  0
LINE
  8
1
 62
7
 10
-200.153247809345
 20
-72
 30
0
 11
-200.153247809345
 21
73
 31
0
  0
LINE
  8
1
 62
7
 10
-212.153247809345
 20
-56
 30
0
 11
-202.153247809345
 21
-56
 31
0
  0
LINE
  8
1
 62
7
 10
-249.153247809345
 20
-35
 30
0
 11
-216.153247809345
 21
-35
 31
0
  0
LINE
  8
1
 62
7
 10
-249.153247809345
 20
-35
 30
0
 11
-216.153247809345
 21
-35
 31
0
  0
LINE
  8
1
 62
7
 10
-203.153247809345
 20
-75
 30
0
 11
-226.153247809345
 21
-75
 31
0
  0
LINE
  8
1
 62
7
 10
165.1115406268627
 20
50.54469868914942
 30
0
 11
165.1115406268627
 21
38.92163830759679
 31
0
  0
LINE
  8
1
 62
3
  6
DASHDOT
 10
-88.91987729458339
 20
281.978700299956
 30
0
 11
-73.98786771142838
 21
281.978700299956
 31
0
  0
LINE
  8
1
 62
3
  6
DASHDOT
 10
-88.91987729458339
 20
176.978700299956
 30
0
 11
-73.98786771142838
 21
176.978700299956
 31
0
  0
LINE
  8
1
 62
3
  6
DASHDOT
 10
-223.9198772945834
 20
281.978700299956
 30
0
 11
-208.9878677114284
 21
281.978700299956
 31
0
  0
LINE
  8
1
 62
3
  6
DASHDOT
 10
-223.9198772945834
 20
176.978700299956
 30
0
 11
-208.9878677114284
 21
176.978700299956
 31
0
  0
LINE
  8
1
 62
3
  6
DASHDOT
 10
-81.65324780934498
 20
-68.7027989248958
 30
0
 11
-81.65324780934498
 21
-100.058149398109
 31
0
  0
LINE
  8
1
 62
3
  6
DASHDOT
 10
-216.653247809345
 20
-68.7027989248958
 30
0
 11
-216.653247809345
 21
-100.058149398109
 31
0
  0
LINE
  8
1
 62
3
  6
DASHDOT
 10
110.1115406268626
 20
-68.7027989248958
 30
0
 11
110.1115406268626
 21
-100.058149398109
 31
0
  0
LINE
  8
1
 62
3
  6
DASHDOT
 10
215.1115406268627
 20
-68.7027989248958
 30
0
 11
215.1115406268627
 21
-100.058149398109
 31
0
  0
ARC
  8
1
 62
7
 10
79.61154062686262
 20
-55.00648467481611
 30
0
 40
2
 50
270
 51
0
  0
ARC
  8
1
 62
7
 10
79.61154062686262
 20
-48.9935153251839
 30
0
 40
2
 50
0
 51
90
  0
ARC
  8
1
 62
7
 10
80.61154062686262
 20
-54.45
 30
0
 40
0.2999999999999972
 50
270
 51
0
  0
ARC
  8
1
 62
7
 10
80.61154062686262
 20
-49.55
 30
0
 40
0.3000000000000114
 50
0
 51
90
  0
ARC
  8
1
 62
7
 10
80.17242048523815
 20
-53.75
 30
0
 40
1.00000000000004
 50
196.9577633000029
 51
270
  0
ARC
  8
1
 62
7
 10
80.17242048523815
 20
-50.25
 30
0
 40
1
 50
90
 51
163.0422366999972
  0
ARC
  8
1
 62
7
 10
-226.153247809345
 20
301.4787002999561
 30
0
 40
3
 50
90
 51
180
  0
ARC
  8
1
 62
7
 10
-72.15324780934498
 20
301.4787002999561
 30
0
 40
3
 50
0
 51
90
  0
ARC
  8
1
 62
7
 10
-72.15324780934498
 20
157.478700299956
 30
0
 40
3
 50
270
 51
0
  0
ARC
  8
1
 62
7
 10
-226.153247809345
 20
157.478700299956
 30
0
 40
3
 50
180
 51
270
  0
ARC
  8
1
 62
7
 10
-149.153247809345
 20
-59.5
 30
0
 40
1
 50
180
 51
0
  0
ARC
  8
1
 62
7
 10
-149.153247809345
 20
-44.5
 30
0
 40
1
 50
0
 51
180
  0
ARC
  8
1
 62
7
 10
-119.153247809345
 20
-52
 30
0
 40
2.999999999999968
 50
316.3971810272957
 51
43.60281897270425
  0
ARC
  8
1
 62
7
 10
-128.153247809345
 20
-62.5
 30
0
 40
2
 50
270
 51
0
  0
ARC
  8
1
 62
7
 10
-128.153247809345
 20
-41.5
 30
0
 40
2
 50
0
 51
90
  0
ARC
  8
1
 62
7
 10
-137.653247809345
 20
-59.5
 30
0
 40
1
 50
180
 51
0
  0
ARC
  8
1
 62
7
 10
-137.653247809345
 20
-44.5
 30
0
 40
1
 50
0
 51
180
  0
ARC
  8
1
 62
7
 10
-179.153247809345
 20
-52
 30
0
 40
3.000000000000029
 50
136.3971810272969
 51
223.6028189727032
  0
ARC
  8
1
 62
7
 10
-170.153247809345
 20
-62.5
 30
0
 40
2
 50
180
 51
270
  0
ARC
  8
1
 62
7
 10
-170.153247809345
 20
-41.5
 30
0
 40
2
 50
90
 51
180
  0
ARC
  8
1
 62
7
 10
-160.653247809345
 20
-59.5
 30
0
 40
1
 50
180
 51
0
  0
ARC
  8
1
 62
7
 10
-160.653247809345
 20
-44.5
 30
0
 40
1
 50
0
 51
180
  0
ARC
  8
1
 62
7
 10
-49.15324780934498
 20
262.478700299956
 30
0
 40
2
 50
0
 51
90
  0
ARC
  8
1
 62
7
 10
-82.15324780934498
 20
266.4787002999561
 30
0
 40
2
 50
180
 51
270
  0
ARC
  8
1
 62
7
 10
-51.40423207656988
 20
233.9787002999561
 30
0
 40
2
 50
270
 51
7.18075578145828
  0
ARC
  8
1
 62
7
 10
-82.18122121497848
 20
233.9787002999561
 30
0
 40
1.999999999999956
 50
189.5940682268601
 51
270
  0
ARC
  8
1
 62
7
 10
-82.15324780934498
 20
272.8956595273858
 30
0
 40
2
 50
180
 51
253.8944998764206
  0
ARC
  8
1
 62
7
 10
-86.15324780934498
 20
283.4787002999561
 30
0
 40
2
 50
0
 51
90
  0
ARC
  8
1
 62
7
 10
-96.15324780934498
 20
287.4787002999561
 30
0
 40
2
 50
180
 51
270
  0
ARC
  8
1
 62
7
 10
-100.153247809345
 20
302.4787002999561
 30
0
 40
2.000000000000028
 50
0
 51
90
  0
ARC
  8
1
 62
7
 10
-249.153247809345
 20
262.478700299956
 30
0
 40
2
 50
90
 51
180
  0
ARC
  8
1
 62
7
 10
-216.153247809345
 20
266.4787002999561
 30
0
 40
2.000000000000057
 50
270
 51
0
  0
ARC
  8
1
 62
7
 10
-246.9022635421201
 20
233.9787002999561
 30
0
 40
1.999999999999951
 50
172.8192442185415
 51
270
  0
ARC
  8
1
 62
7
 10
-216.1252744037115
 20
233.9787002999561
 30
0
 40
2
 50
270
 51
350.4059317731399
  0
ARC
  8
1
 62
7
 10
-216.153247809345
 20
272.8956595273858
 30
0
 40
1.999999999999991
 50
286.1055001235794
 51
0
  0
ARC
  8
1
 62
7
 10
-212.153247809345
 20
283.4787002999561
 30
0
 40
2
 50
90
 51
180
  0
ARC
  8
1
 62
7
 10
-202.153247809345
 20
287.4787002999561
 30
0
 40
2
 50
270
 51
0
  0
ARC
  8
1
 62
7
 10
-198.153247809345
 20
302.4787002999561
 30
0
 40
2
 50
90
 51
180
  0
ARC
  8
1
 62
7
 10
-140.528247809345
 20
-33
 30
0
 40
3
 50
90
 51
180
  0
ARC
  8
1
 62
7
 10
-140.528247809345
 20
-33
 30
0
 40
5
 50
90
 51
180
  0
ARC
  8
1
 62
7
 10
-131.278247809345
 20
-33
 30
0
 40
5
 50
90
 51
180
  0
ARC
  8
1
 62
7
 10
-131.278247809345
 20
-33
 30
0
 40
3
 50
90
 51
180
  0
ARC
  8
1
 62
7
 10
-50.15324780934498
 20
-19.45661993172924
 30
0
 40
1
 50
0
 51
106.1055001235789
  0
ARC
  8
1
 62
7
 10
-51.15324780934498
 20
-13.15870520030322
 30
0
 40
2.000000000000006
 50
286.1055001235795
 51
0
  0
ARC
  8
1
 62
7
 10
-82.15324780934498
 20
-25.29005358334604
 30
0
 40
2
 50
180
 51
286.1055001235794
  0
ARC
  8
1
 62
7
 10
-82.15324780934498
 20
-32.91755823926703
 30
0
 40
2.000000000000004
 50
106.1055001235793
 51
180
  0
ARC
  8
1
 62
7
 10
-100.153247809345
 20
73
 30
0
 40
2.000000000000028
 50
0
 51
90
  0
ARC
  8
1
 62
7
 10
-49.15324780934498
 20
33
 30
0
 40
2
 50
0
 51
90
  0
ARC
  8
1
 62
7
 10
-86.15324780934498
 20
54
 30
0
 40
2
 50
0
 51
90
  0
ARC
  8
1
 62
7
 10
-82.15324780934498
 20
37
 30
0
 40
2
 50
180
 51
270
  0
ARC
  8
1
 62
7
 10
-96.15324780934498
 20
58
 30
0
 40
2
 50
180
 51
270
  0
ARC
  8
1
 62
7
 10
-111.153247809345
 20
-89
 30
0
 40
2
 50
0
 51
90
  0
ARC
  8
1
 62
7
 10
-49.15324780934498
 20
196.478700299956
 30
0
 40
2
 50
270
 51
0
  0
ARC
  8
1
 62
7
 10
-82.15324780934498
 20
192.478700299956
 30
0
 40
2
 50
90
 51
180
  0
ARC
  8
1
 62
7
 10
-51.40423207656988
 20
224.9787002999559
 30
0
 40
2.000000000000057
 50
352.8192442185419
 51
90
  0
ARC
  8
1
 62
7
 10
-82.18122121497848
 20
224.9787002999559
 30
0
 40
2
 50
90
 51
170.4059317731407
  0
ARC
  8
1
 62
7
 10
-82.15324780934498
 20
186.0617410725262
 30
0
 40
1.999999999999963
 50
106.1055001235797
 51
180
  0
ARC
  8
1
 62
7
 10
-86.15324780934498
 20
175.478700299956
 30
0
 40
2
 50
270
 51
0
  0
ARC
  8
1
 62
7
 10
-96.15324780934498
 20
171.478700299956
 30
0
 40
2
 50
90
 51
180
  0
ARC
  8
1
 62
7
 10
-100.153247809345
 20
156.478700299956
 30
0
 40
2
 50
270
 51
0
  0
ARC
  8
1
 62
7
 10
-29.15324780934498
 20
229.478700299956
 30
0
 40
2.500000000000114
 50
90
 51
270
  0
ARC
  8
1
 62
7
 10
-96.15324780934498
 20
-58
 30
0
 40
2
 50
90
 51
180
  0
ARC
  8
1
 62
7
 10
-86.15324780934498
 20
-53.99999999999999
 30
0
 40
2.000000000000007
 50
270
 51
0
  0
ARC
  8
1
 62
7
 10
-82.15324780934498
 20
-37
 30
0
 40
2
 50
90
 51
180
  0
ARC
  8
1
 62
7
 10
-49.15324780934498
 20
-33
 30
0
 40
2
 50
270
 51
0
  0
ARC
  8
1
 62
7
 10
-95.15324780934498
 20
-72
 30
0
 40
3
 50
180
 51
270
  0
ARC
  8
1
 62
7
 10
-72.15324780934498
 20
-78
 30
0
 40
3
 50
0
 51
90
  0
ARC
  8
1
 62
7
 10
77.59479591117594
 20
-38.32522050279464
 30
0
 40
5
 50
0
 51
8.340039587214047
  0
ARC
  8
1
 62
7
 10
75.59479591117594
 20
-38.32640590489795
 30
0
 40
5
 50
0
 51
8.367062884878154
  0
ARC
  8
1
 62
7
 10
84.26842503277402
 20
-33.16106627113557
 30
0
 40
3.000000000000032
 50
93.1660269498219
 51
179.873198272611
  0
ARC
  8
1
 62
7
 10
84.26407309858934
 20
-33.15442695363483
 30
0
 40
4.999999999999949
 50
92.39941445755626
 51
180
  0
ARC
  8
1
 62
7
 10
190.6115406268627
 20
-88
 30
0
 40
2
 50
0
 51
90
  0
ARC
  8
1
 62
7
 10
194.6115406268627
 20
-77
 30
0
 40
2
 50
90
 51
180
  0
ARC
  8
1
 62
7
 10
235.6115406268627
 20
-77
 30
0
 40
2
 50
0
 51
90
  0
ARC
  8
1
 62
7
 10
209.634533718296
 20
-19.64318421997596
 30
0
 40
3.999999999999996
 50
240
 51
330.0000000000004
  0
ARC
  8
1
 62
7
 10
199.568668158151
 20
-13.83165402919964
 30
0
 40
4.00000000000007
 50
161.3598108325144
 51
240
  0
ARC
  8
1
 62
7
 10
203.134533718296
 20
-30.90151446917376
 30
0
 40
3.999999999999935
 50
329.9999999999994
 51
60.00000000000005
  0
ARC
  8
1
 62
7
 10
193.0686681581509
 20
-25.08998427839744
 30
0
 40
4.000000000000005
 50
60.00000000000005
 51
138.6401891674852
  0
ARC
  8
1
 62
7
 10
122.0885475354292
 20
-30.90151446917357
 30
0
 40
3.999999999999996
 50
120
 51
209.9999999999993
  0
ARC
  8
1
 62
7
 10
132.1544130955742
 20
-25.08998427839726
 30
0
 40
3.999999999999973
 50
41.35981083251461
 51
120
  0
ARC
  8
1
 62
7
 10
115.5885475354291
 20
-19.64318421997577
 30
0
 40
3.999999999999959
 50
210.0000000000003
 51
300.0000000000001
  0
ARC
  8
1
 62
7
 10
125.6544130955742
 20
-13.83165402919946
 30
0
 40
3.999999999999996
 50
300.0000000000001
 51
18.64018916748622
  0
ARC
  8
1
 62
7
 10
153.1115406268626
 20
-13.48291092016549
 30
0
 40
3
 50
0
 51
56.46777702130984
  0
ARC
  8
1
 62
7
 10
172.1115406268626
 20
-13.48291092016549
 30
0
 40
2.999999999999976
 50
123.5322229786902
 51
180
  0
ARC
  8
1
 62
7
 10
158.1115406268626
 20
-13.99744871391589
 30
0
 40
2
 50
180
 51
270
  0
ARC
  8
1
 62
7
 10
167.1115406268626
 20
-13.99744871391589
 30
0
 40
2
 50
270
 51
0
  0
ARC
  8
1
 62
7
 10
-157.778247809345
 20
-33
 30
0
 40
3
 50
0
 51
90
  0
ARC
  8
1
 62
7
 10
-157.778247809345
 20
-33
 30
0
 40
5
 50
0
 51
90
  0
ARC
  8
1
 62
7
 10
-172.528247809345
 20
-33
 30
0
 40
5
 50
0
 51
90
  0
ARC
  8
1
 62
7
 10
-172.528247809345
 20
-33
 30
0
 40
3
 50
0
 51
90
  0
ARC
  8
1
 62
7
 10
-248.153247809345
 20
-19.45661993172924
 30
0
 40
1.000000000000002
 50
73.89449987642068
 51
180
  0
ARC
  8
1
 62
7
 10
-247.153247809345
 20
-13.15870520030322
 30
0
 40
2
 50
180
 51
253.8944998764206
  0
ARC
  8
1
 62
7
 10
-216.153247809345
 20
-25.29005358334604
 30
0
 40
2.000000000000004
 50
253.8944998764206
 51
0
  0
ARC
  8
1
 62
7
 10
-216.153247809345
 20
-32.91755823926703
 30
0
 40
2
 50
0
 51
73.89449987642068
  0
ARC
  8
1
 62
7
 10
134.6115406268626
 20
-88
 30
0
 40
2
 50
90
 51
180
  0
ARC
  8
1
 62
7
 10
130.6115406268626
 20
-77
 30
0
 40
2
 50
0
 51
90
  0
ARC
  8
1
 62
7
 10
89.61154062686262
 20
-77
 30
0
 40
2
 50
90
 51
180
  0
ARC
  8
1
 62
7
 10
-198.153247809345
 20
73
 30
0
 40
2
 50
90
 51
180
  0
ARC
  8
1
 62
7
 10
-249.153247809345
 20
33
 30
0
 40
2
 50
90
 51
180
  0
ARC
  8
1
 62
7
 10
-212.153247809345
 20
54
 30
0
 40
2.000000000000007
 50
90
 51
180
  0
ARC
  8
1
 62
7
 10
-216.153247809345
 20
37
 30
0
 40
2
 50
270
 51
0
  0
ARC
  8
1
 62
7
 10
-202.153247809345
 20
58
 30
0
 40
2
 50
270
 51
0
  0
ARC
  8
1
 62
7
 10
-187.153247809345
 20
-89
 30
0
 40
2
 50
90
 51
180
  0
ARC
  8
1
 62
7
 10
-249.153247809345
 20
196.478700299956
 30
0
 40
2
 50
180
 51
270
  0
ARC
  8
1
 62
7
 10
-216.153247809345
 20
192.478700299956
 30
0
 40
2
 50
0
 51
90
  0
ARC
  8
1
 62
7
 10
-246.9022635421201
 20
224.9787002999559
 30
0
 40
2
 50
90
 51
187.180755781458
  0
ARC
  8
1
 62
7
 10
-216.1252744037115
 20
224.9787002999559
 30
0
 40
1.999999999999951
 50
9.594068226859323
 51
90
  0
ARC
  8
1
 62
7
 10
-216.153247809345
 20
186.0617410725262
 30
0
 40
2
 50
0
 51
73.89449987642034
  0
ARC
  8
1
 62
7
 10
-212.153247809345
 20
175.478700299956
 30
0
 40
2
 50
180
 51
270
  0
ARC
  8
1
 62
7
 10
-202.153247809345
 20
171.478700299956
 30
0
 40
2
 50
0
 51
90
  0
ARC
  8
1
 62
7
 10
-198.153247809345
 20
156.478700299956
 30
0
 40
2
 50
180
 51
270
  0
ARC
  8
1
 62
7
 10
-269.153247809345
 20
229.478700299956
 30
0
 40
2.500000000000085
 50
270
 51
90
  0
ARC
  8
1
 62
7
 10
156.1115406268626
 20
50.54469868914942
 30
0
 40
4
 50
0
 51
90
  0
ARC
  8
1
 62
7
 10
-202.153247809345
 20
-58
 30
0
 40
2
 50
0
 51
90
  0
ARC
  8
1
 62
7
 10
-212.153247809345
 20
-53.99999999999999
 30
0
 40
2
 50
180
 51
270
  0
ARC
  8
1
 62
7
 10
-216.153247809345
 20
-37
 30
0
 40
2
 50
0
 51
90
  0
ARC
  8
1
 62
7
 10
-249.153247809345
 20
-33
 30
0
 40
2
 50
180
 51
270
  0
ARC
  8
1
 62
7
 10
-203.153247809345
 20
-72
 30
0
 40
3
 50
270
 51
0
  0
ARC
  8
1
 62
7
 10
-226.153247809345
 20
-78
 30
0
 40
3
 50
90
 51
180
  0
ARC
  8
1
 62
7
 10
156.1115406268626
 20
38.92163830759679
 30
0
 40
3.999999999999996
 50
281.3598108325142
 51
0
  0
ARC
  8
1
 62
7
 10
169.1115406268627
 20
50.54469868914942
 30
0
 40
4
 50
90
 51
180
  0
ARC
  8
1
 62
7
 10
169.1115406268627
 20
38.92163830759679
 30
0
 40
4
 50
180
 51
258.6401891674859
  0
ARC
  8
1
 62
7
 10
85.91154062686263
 20
-52
 30
0
 40
7.000000000000025
 50
163.042236699996
 51
196.957763300004
  0
ARC
  8
1
 62
7
 10
-149.153247809345
 20
-52
 30
0
 40
3.621406041125481
 50
106.0297142583966
 51
253.9702857416035
  0
ARC
  8
1
 62
7
 10
-149.153247809345
 20
-52
 30
0
 40
3.621406041125481
 50
286.0297142583965
 51
73.97028574160352
  0
ARC
  8
1
 62
7
 10
-178.903247809345
 20
-53.75
 30
0
 40
1.487500000000011
 50
0
 51
90
  0
ARC
  8
1
 62
7
 10
-178.903247809345
 20
-50.25
 30
0
 40
1.487499999999997
 50
270
 51
0
  0
ARC
  8
1
 62
7
 10
-175.403247809345
 20
-50.25
 30
0
 40
1.487499999999983
 50
180
 51
270
  0
ARC
  8
1
 62
7
 10
-175.403247809345
 20
-53.75
 30
0
 40
1.487499999999997
 50
90
 51
180
  0
ARC
  8
1
 62
7
 10
-122.903247809345
 20
-53.75
 30
0
 40
1.487499999999997
 50
0
 51
90
  0
ARC
  8
1
 62
7
 10
-122.903247809345
 20
-50.25
 30
0
 40
1.487499999999997
 50
270
 51
0
  0
ARC
  8
1
 62
7
 10
-119.403247809345
 20
-50.25
 30
0
 40
1.487499999999997
 50
180
 51
270
  0
ARC
  8
1
 62
7
 10
-119.403247809345
 20
-53.75
 30
0
 40
1.487499999999997
 50
90
 51
180
  0
ARC
  8
1
 62
7
  6
DASHED
 10
-81.65324780934498
 20
274.9787002999561
 30
0
 40
5.5
 50
180
 51
300.3431490966945
  0
ARC
  8
1
 62
7
 10
-81.65324780934498
 20
288.978808197938
 30
0
 40
5.5
 50
0
 51
180
  0
ARC
  8
1
 62
7
 10
-81.65324780934498
 20
274.9787002999561
 30
0
 40
5.49999999999992
 50
300.3431490966945
 51
0
  0
ARC
  8
1
 62
7
  6
DASHED
 10
-216.653247809345
 20
274.9787002999561
 30
0
 40
5.49999999999992
 50
239.6568509033056
 51
0
  0
ARC
  8
1
 62
7
 10
-216.653247809345
 20
288.978808197938
 30
0
 40
5.5
 50
0
 51
180
  0
ARC
  8
1
 62
7
 10
-216.653247809345
 20
274.9787002999561
 30
0
 40
5.5
 50
180
 51
239.6568509033056
  0
ARC
  8
1
 62
7
  6
DASHED
 10
-81.65324780934498
 20
183.978700299956
 30
0
 40
5.499999999999976
 50
59.65685090330577
 51
180
  0
ARC
  8
1
 62
7
 10
-81.65324780934498
 20
169.9785924019741
 30
0
 40
5.5
 50
180
 51
0
  0
ARC
  8
1
 62
7
 10
-81.65324780934498
 20
183.978700299956
 30
0
 40
5.5
 50
0
 51
59.65685090330577
  0
ARC
  8
1
 62
7
 10
-117.653247809345
 20
-29
 30
0
 40
1.25
 50
233.130102354156
 51
270
  0
ARC
  8
1
 62
7
 10
-117.653247809345
 20
-29
 30
0
 40
1.25
 50
90
 51
126.869897645844
  0
ARC
  8
1
 62
7
 10
-112.653247809345
 20
-29
 30
0
 40
1.25
 50
270
 51
90
  0
ARC
  8
1
 62
7
 10
-115.153247809345
 20
-29
 30
0
 40
5.000000000000043
 50
191.5369590328154
 51
168.4630409671846
  0
ARC
  8
1
 62
7
 10
-112.653247809345
 20
-29
 30
0
 40
1
 50
270
 51
90
  0
ARC
  8
1
 62
7
  6
DASHED
 10
-216.653247809345
 20
183.978700299956
 30
0
 40
5.5
 50
0
 51
120.3431490966941
  0
ARC
  8
1
 62
7
 10
-216.653247809345
 20
169.9785924019741
 30
0
 40
5.5
 50
180
 51
0
  0
ARC
  8
1
 62
7
 10
-216.653247809345
 20
183.978700299956
 30
0
 40
5.499999999999969
 50
120.3431490966941
 51
180
  0
ARC
  8
1
 62
7
 10
162.6115406268626
 20
-1.884776120644477e-016
 30
0
 40
75
 50
0
 51
180
  0
ARC
  8
1
 62
7
 10
162.6115406268626
 20
-1.884776120644477e-016
 30
0
 40
9.5
 50
105.2575232904564
 51
74.74247670954362
  0
ARC
  8
1
 62
7
 10
162.6115406268626
 20
0.8524999999999989
 30
0
 40
14.19750000000002
 50
303.5322229786914
 51
236.4677770213086
  0
ARC
  8
1
 62
7
 10
-180.653247809345
 20
-29
 30
0
 40
1.25
 50
270
 51
306.8698976458441
  0
ARC
  8
1
 62
7
 10
-180.653247809345
 20
-29
 30
0
 40
1.25
 50
53.13010235415598
 51
90
  0
ARC
  8
1
 62
7
 10
-185.653247809345
 20
-29
 30
0
 40
1.25
 50
90
 51
270
  0
ARC
  8
1
 62
7
 10
-183.153247809345
 20
-29
 30
0
 40
4.999999999999959
 50
11.53695903281558
 51
348.4630409671844
  0
ARC
  8
1
 62
7
 10
-185.653247809345
 20
-29
 30
0
 40
1
 50
90
 51
270
  0
CIRCLE
  8
1
 62
7
 10
-177.153247809345
 20
-52
 30
0
 40
2.75
  0
CIRCLE
  8
1
 62
7
 10
-121.153247809345
 20
-52
 30
0
 40
2.75
  0
CIRCLE
  8
1
 62
3
 10
-131.903247809345
 20
-58.25
 30
0
 40
2.442134781882402
  0
CIRCLE
  8
1
 62
3
 10
-131.903247809345
 20
-58.25
 30
0
 40
1.599999999999994
  0
CIRCLE
  8
1
 62
3
 10
-143.403247809345
 20
-58.25
 30
0
 40
2.442134781882402
  0
CIRCLE
  8
1
 62
3
 10
-143.403247809345
 20
-58.25
 30
0
 40
1.599999999999994
  0
CIRCLE
  8
1
 62
3
 10
-143.403247809345
 20
-45.75
 30
0
 40
2.442134781882402
  0
CIRCLE
  8
1
 62
3
 10
-143.403247809345
 20
-45.75
 30
0
 40
1.599999999999994
  0
CIRCLE
  8
1
 62
3
 10
-131.903247809345
 20
-45.75
 30
0
 40
2.442134781882402
  0
CIRCLE
  8
1
 62
3
 10
-131.903247809345
 20
-45.75
 30
0
 40
1.599999999999994
  0
CIRCLE
  8
1
 62
3
 10
-166.403247809345
 20
-58.25
 30
0
 40
2.442134781882402
  0
CIRCLE
  8
1
 62
3
 10
-166.403247809345
 20
-58.25
 30
0
 40
1.599999999999994
  0
CIRCLE
  8
1
 62
3
 10
-154.903247809345
 20
-58.25
 30
0
 40
2.442134781882402
  0
CIRCLE
  8
1
 62
3
 10
-154.903247809345
 20
-58.25
 30
0
 40
1.599999999999994
  0
CIRCLE
  8
1
 62
3
 10
-154.903247809345
 20
-45.75
 30
0
 40
2.442134781882402
  0
CIRCLE
  8
1
 62
3
 10
-154.903247809345
 20
-45.75
 30
0
 40
1.599999999999994
  0
CIRCLE
  8
1
 62
3
 10
-166.403247809345
 20
-45.75
 30
0
 40
2.442134781882402
  0
CIRCLE
  8
1
 62
7
 10
210.9159542828933
 20
-43.49348941332574
 30
0
 40
5.000000000000114
  0
CIRCLE
  8
1
 62
7
 10
118.2816472228002
 20
-47.53799060524609
 30
0
 40
5
  0
CIRCLE
  8
1
 62
7
 10
115.8544536048503
 20
45.1527940798348
 30
0
 40
5
  0
CIRCLE
  8
1
 62
7
 10
208.5734814039882
 20
45.9619407771256
 30
0
 40
5
  0
CIRCLE
  8
1
 62
7
 10
162.6115406268626
 20
-1.884776120644477e-016
 30
0
 40
71.5
  0
CIRCLE
  8
1
 62
7
 10
162.6115406268626
 20
-1.884776120644477e-016
 30
0
 40
26
  0
CIRCLE
  8
1
 62
7
 10
162.6115406268626
 20
-1.884776120644477e-016
 30
0
 40
35
  0
CIRCLE
  8
1
 62
7
 10
162.6115406268626
 20
-1.884776120644477e-016
 30
0
 40
56
  0
CIRCLE
  8
1
 62
3
 10
162.6115406268626
 20
-1.884776120644477e-016
 30
0
 40
3
  0
CIRCLE
  8
1
 62
7
 10
162.6115406268626
 20
-1.884776120644477e-016
 30
0
 40
2.400000000000006
  0
CIRCLE
  8
1
 62
7
 10
158.1115406268626
 20
-14.12244871391589
 30
0
 40
1
  0
CIRCLE
  8
1
 62
7
 10
167.1115406268626
 20
-14.12244871391589
 30
0
 40
1
  0
CIRCLE
  8
1
 62
7
 10
162.6115406268626
 20
-1.884776120644477e-016
 30
0
 40
12.5
  0
CIRCLE
  8
1
 62
3
 10
-166.403247809345
 20
-45.75
 30
0
 40
1.599999999999994
  0
POLYLINE
  8
1
 62
7
 66
1
  0
VERTEX
  8
1
 10
-266.653247809345
 20
9.5
 30
0
 42
-0.1440767915992229
  0
VERTEX
  8
1
 10
-266.6783508574019
 20
9.440501932826374
 30
0
 42
-0.0744734602881762
  0
VERTEX
  8
1
 10
-266.7271385808286
 20
9.398101805742972
 30
0
 42
-0.05848639935955202
  0
VERTEX
  8
1
 10
-266.858889107427
 20
9.333732079858841
 30
0
 42
-0.02651717436551335
  0
VERTEX
  8
1
 10
-267.0554531283437
 20
9.27354851866507
 30
0
 42
-0.02864986736205943
  0
VERTEX
  8
1
 10
-267.5057146430002
 20
9.18624755934731
 30
0
 42
-0.01949316917095089
  0
VERTEX
  8
1
 10
-267.9636959994051
 20
9.142485495516247
 30
0
 42
-0.01058300454242461
  0
VERTEX
  8
1
 10
-268.4239595162118
 20
9.126261209079349
 30
0
  0
VERTEX
  8
1
 10
-268.653247809345
 20
9.123475382979791
 30
0
  0
SEQEND
  8
1
  0
POLYLINE
  8
1
 62
7
 66
1
  0
VERTEX
  8
1
 10
-31.65324780934498
 20
9.5
 30
0
 42
0.1440767915983304
  0
VERTEX
  8
1
 10
-31.62814476128804
 20
9.440501932826374
 30
0
 42
0.07447346028740831
  0
VERTEX
  8
1
 10
-31.57935703786136
 20
9.398101805742972
 30
0
 42
0.0584863993596609
  0
VERTEX
  8
1
 10
-31.447606511263
 20
9.333732079858841
 30
0
 42
0.02651717436534344
  0
VERTEX
  8
1
 10
-31.25104249034626
 20
9.27354851866507
 30
0
 42
0.02864986736208309
  0
VERTEX
  8
1
 10
-30.80078097568974
 20
9.18624755934731
 30
0
 42
0.01949316917098286
  0
VERTEX
  8
1
 10
-30.34279961928488
 20
9.142485495516247
 30
0
 42
0.01058300454242885
  0
VERTEX
  8
1
 10
-29.88253610247821
 20
9.126261209079349
 30
0
  0
VERTEX
  8
1
 10
-29.65324780934498
 20
9.123475382979791
 30
0
  0
SEQEND
  8
1
  0
TEXT
  8
1
 62
7
 10
-11.38570150558236
 20
247.3887412625887
 30
0
 40
3.500000000000001
  1
OUTPUT
 41
0.8910000000000001
  7
SIMPLEX
  0
TEXT
  8
1
 62
7
 10
144.6115406268626
 20
216.60578493184
 30
0
 40
8
  1
DC2412
 41
0.9
  7
SIMPLEX
  0
TEXT
  8
1
 62
7
 10
144.6115406268626
 20
230.728700299956
 30
0
 40
8
  1
TMAU 2.5
 41
0.9
  7
SIMPLEX
  0
TEXT
  8
1
 62
7
 10
-304.8107015055824
 20
247.3887412625887
 30
0
 40
3.5
  1
INPUT
 41
0.8910000000000004
  7
SIMPLEX
  0
TEXT
  8
1
 62
7
 10
-161.3813465592771
 20
-71.01692758034901
 30
0
 40
3.5
  1
CL    BR
 41
0.8910000000000004
  7
SIMPLEX
  0
ENDSEC
  0
EOF
