  0
SECTION
  2
HEADER
  9
$ACADVER
  1
AC1009
  9
$INSBASE
 10
0
 20
0
  9
$EXTMIN
 10
-460.7535225019074
 20
-137.734907071947
  9
$EXTMAX
 10
308.8164384715386
 20
403.478700299956
  9
$LIMMIN
 10
-460.7535225019074
 20
-137.734907071947
  9
$LIMMAX
 10
308.8164384715386
 20
403.478700299956
  9
$VIEWCTR
 10
10
 20
10
  9
$VIEWSIZE
 40
10
  9
$SNAPMODE
 70
0
  9
$SNAPUNIT
 10
1
 20
1
  9
$SNAPBASE
 10
0
 20
0
  9
$SNAPANG
 50
0
  9
$SNAPSTYLE
 70
0
  9
$SNAPISOPAIR
 70
0
  9
$GRIDMODE
 70
0
  9
$GRIDUNIT
 10
0
 20
0
  9
$ORTHOMODE
 70
0
  9
$REGENMODE
 70
1
  9
$FILLMODE
 70
1
  9
$QTEXTMODE
 70
0
  9
$DRAGMODE
 70
2
  9
$LTSCALE
 40
1
  9
$OSMODE
 70
0
  9
$ATTMODE
 70
1
  9
$TEXTSIZE
 40
3.5
  9
$TRACEWID
 40
0.5
  9
$TEXTSTYLE
  7
STANDARD
  9
$CLAYER
  8
0
  9
$CELTYPE
  6
BYLAYER
  9
$CECOLOR
 62
256
  9
$DIMSCALE
 40
1
  9
$DIMASZ
 40
0.18
  9
$DIMEXO
 40
0.0625
  9
$DIMDLI
 40
0.38
  9
$DIMRND
 40
0
  9
$DIMDLE
 40
0
  9
$DIMEXE
 40
0.18
  9
$DIMTP
 40
0
  9
$DIMTM
 40
0
  9
$DIMTXT
 40
0.18
  9
$DIMCEN
 40
0.09
  9
$DIMTSZ
 40
0
  9
$DIMTOL
 70
0
  9
$DIMLIM
 70
0
  9
$DIMTIH
 70
1
  9
$DIMTOH
 70
1
  9
$DIMSE1
 70
0
  9
$DIMSE2
 70
0
  9
$DIMTAD
 70
0
  9
$DIMZIN
 70
0
  9
$DIMBLK
  1

  9
$DIMASO
 70
1
  9
$DIMSHO
 70
1
  9
$DIMPOST
  1

  9
$DIMAPOST
  1

  9
$DIMALT
 70
0
  9
$DIMALTD
 70
2
  9
$DIMALTF
 40
25.4
  9
$DIMLFAC
 40
1
  9
$DIMTOFL
 70
0
  9
$DIMTVP
 40
0
  9
$DIMTIX
 70
0
  9
$DIMSOXD
 70
0
  9
$DIMSAH
 70
0
  9
$DIMBLK1
  1

  9
$DIMBLK2
  1

  9
$DIMSTYLE
  2
*UNNAMED
  9
$DIMCLRD
 70
0
  9
$DIMCLRE
 70
0
  9
$DIMCLRT
 70
0
  9
$DIMTFAC
 40
1
  9
$DIMGAP
 40
0.09
  9
$LUNITS
 70
2
  9
$LUPREC
 70
4
  9
$AXISMODE
 70
0
  9
$AXISUNIT
 10
0
 20
0
  9
$SKETCHINC
 40
0.1
  9
$FILLETRAD
 40
2
  9
$AUNITS
 70
0
  9
$AUPREC
 70
0
  9
$MENU
  1
ACAD
  9
$ELEVATION
 40
0
  9
$THICKNESS
 40
0
  9
$VIEWDIR
 10
0
 20
0
 30
1
  9
$LIMCHECK
 70
0
  9
$BLIPMODE
 70
1
  9
$CHAMFERA
 40
0
  9
$CHAMFERB
 40
0
  9
$FASTZOOM
 70
1
  9
$SKPOLY
 70
0
  9
$ANGBASE
 50
0
  9
$ANGDIR
 70
0
  9
$PDMODE
 70
0
  9
$PDSIZE
 40
0
  9
$PLINEWID
 40
0
  9
$COORDS
 70
2
  0
ENDSEC
  0
SECTION
  2
TABLES
  0
TABLE
  2
DIMSTYLE
 70
0
  0
ENDTAB
  0
TABLE
  2
LTYPE
 70
9
  0
LTYPE
  2
CONTINUOUS
 70
64
  3
Solid line
 72
65
 73
0
 40
0
  0
LTYPE
  2
BORDER
 70
64
  3
__ __ . __ __ .
 72
65
 73
6
 40
35.44072188693502
 49
10.12592053912429
 49
-5.062960269562145
 49
10.12592053912429
 49
-5.062960269562145
 49
0
 49
-5.062960269562145
  0
LTYPE
  2
CENTER
 70
64
  3
____ _ ____ _
 72
65
 73
4
 40
40.50368215649716
 49
25.31480134781073
 49
-5.062960269562145
 49
5.062960269562145
 49
-5.062960269562145
  0
LTYPE
  2
DASHDOT
 70
64
  3
__ . __ . __ .
 72
65
 73
4
 40
20.25184107824858
 49
10.12592053912429
 49
-5.062960269562145
 49
0
 49
-5.062960269562145
  0
LTYPE
  2
DASHED
 70
64
  3
__ __ __ __ __
 72
65
 73
2
 40
15.18888080868644
 49
10.12592053912429
 49
-5.062960269562145
  0
LTYPE
  2
DIVIDE
 70
64
  3
__ . . __ . . 
 72
65
 73
6
 40
25.31480134781073
 49
10.12592053912429
 49
-5.062960269562145
 49
0
 49
-5.062960269562145
 49
0
 49
-5.062960269562145
  0
LTYPE
  2
DOT
 70
64
  3
..............
 72
65
 73
4
 40
10.12592053912429
 49
0
 49
-5.062960269562145
 49
0
 49
-5.062960269562145
  0
LTYPE
  2
HIDDEN
 70
64
  3
_ _ _ _ _ _ _
 72
65
 73
2
 40
7.594440404343218
 49
5.062960269562145
 49
-2.531480134781073
  0
LTYPE
  2
PHANTOM
 70
64
  3
_____ _ _ _____ _ _ 
 72
65
 73
6
 40
50.62960269562146
 49
25.31480134781073
 49
-5.062960269562145
 49
5.062960269562145
 49
-5.062960269562145
 49
5.062960269562145
 49
-5.062960269562145
  0
ENDTAB
  0
TABLE
  2
LAYER
 70
3
  0
LAYER
  2
1
 70
0
 62
7
  6
CONTINUOUS
  0
LAYER
  2
0
 70
0
 62
7
  6
CONTINUOUS
  0
ENDTAB
  0
TABLE
  2
STYLE
 70
4
  0
STYLE
  2
STANDARD
 70
0
 40
0
 41
1
 50
0
 71
0
 42
3.5
  3
txt
  4

  0
STYLE
  2
SIMPLEX
 70
0
 40
0
 41
1
 50
0
 71
0
 42
3.5
  3
simplex
  4

  0
STYLE
  2
COMPLEX
 70
0
 40
0
 41
1
 50
0
 71
0
 42
3.5
  3
complex
  4

  0
STYLE
  2
ITALIC
 70
0
 40
0
 41
1
 50
0
 71
0
 42
3.5
  3
italic
  4

  0
ENDTAB
  0
TABLE
  2
VIEW
 70
0
  0
ENDTAB
  0
ENDSEC
  0
SECTION
  2
BLOCKS
  0
ENDSEC
  0
SECTION
  2
ENTITIES
  0
POLYLINE
  8
1
 62
7
 66
1
  0
VERTEX
  8
1
 10
-403.965237743907
 20
13.62347538297979
 30
0
 42
0.006663071849730164
  0
VERTEX
  8
1
 10
-403.6836481630136
 20
13.62722585384144
 30
0
 42
0.003062739759997321
  0
VERTEX
  8
1
 10
-403.5607758667823
 20
13.63125376504457
 30
0
 42
0.002293321657311591
  0
VERTEX
  8
1
 10
-403.4692163079582
 20
13.63523743583288
 30
0
 42
0.002447580430124184
  0
VERTEX
  8
1
 10
-403.3776987706427
 20
13.64008905561226
 30
0
 42
0.001575744814496742
  0
VERTEX
  8
1
 10
-403.318176707243
 20
13.64372501302064
 30
0
 42
0.001664468633578892
  0
VERTEX
  8
1
 10
-403.2601407454679
 20
13.64764784627481
 30
0
 42
0.001662591345249104
  0
VERTEX
  8
1
 10
-403.2021322295806
 20
13.65195676340031
 30
0
 42
0.001792299216525978
  0
VERTEX
  8
1
 10
-403.144155080161
 20
13.65666638330249
 30
0
 42
0.001790587266558595
  0
VERTEX
  8
1
 10
-403.0862132177894
 20
13.66179132488669
 30
0
 42
0.001852391065166109
  0
VERTEX
  8
1
 10
-403.0304464643159
 20
13.66713364244876
 30
0
 42
0.001820123883981169
  0
VERTEX
  8
1
 10
-402.9768552028979
 20
13.67266508147041
 30
0
 42
0.001990412605626341
  0
VERTEX
  8
1
 10
-402.9233076931529
 20
13.67860477384789
 30
0
 42
0.002029788727301609
  0
VERTEX
  8
1
 10
-402.8698095589991
 20
13.68497482591366
 30
0
 42
0.002200239715222891
  0
VERTEX
  8
1
 10
-402.8163664243542
 20
13.69179734400019
 30
0
 42
0.00212643085468166
  0
VERTEX
  8
1
 10
-402.7657229264926
 20
13.69870834249682
 30
0
 42
0.001148518159435301
  0
VERTEX
  8
1
 10
-402.7417927494945
 20
13.70213374673622
 30
0
 42
0.001082367701715321
  0
VERTEX
  8
1
 10
-402.7178780746453
 20
13.70566589032794
 30
0
 42
0.001244566910399155
  0
VERTEX
  8
1
 10
-402.6939802682624
 20
13.70930926485157
 30
0
 42
0.001178515138078719
  0
VERTEX
  8
1
 10
-402.6701006966632
 20
13.71306836188672
 30
0
 42
0.001340803119770712
  0
VERTEX
  8
1
 10
-402.6462407261652
 20
13.716947673013
 30
0
 42
0.001274827406188075
  0
VERTEX
  8
1
 10
-402.6224017230858
 20
13.72095168980999
 30
0
 42
0.001437176030671921
  0
VERTEX
  8
1
 10
-402.5985850537425
 20
13.72508490385731
 30
0
 42
0.001371242503903105
  0
VERTEX
  8
1
 10
-402.5747920844527
 20
13.72935180673456
 30
0
 42
0.001533611942946566
  0
VERTEX
  8
1
 10
-402.5510241815339
 20
13.73375689002134
 30
0
 42
0.001270779567679728
  0
VERTEX
  8
1
 10
-402.5305221600594
 20
13.73767574934583
 30
0
 42
0.001465016209465533
  0
VERTEX
  8
1
 10
-402.5100417436481
 20
13.74170675642952
 30
0
 42
0.00141511053495506
  0
VERTEX
  8
1
 10
-402.4895848286378
 20
13.74585568002706
 30
0
 42
0.001609456043557624
  0
VERTEX
  8
1
 10
-402.4691533113661
 20
13.75012828889315
 30
0
 42
0.001559628190886036
  0
VERTEX
  8
1
 10
-402.4487490881706
 20
13.75453035178244
 30
0
 42
0.001754013095008635
  0
VERTEX
  8
1
 10
-402.4283740553892
 20
13.75906763744961
 30
0
 42
0.001704178018214405
  0
VERTEX
  8
1
 10
-402.4080301093595
 20
13.76374591464932
 30
0
 42
0.001898500991018642
  0
VERTEX
  8
1
 10
-402.3877191464191
 20
13.76857095213625
 30
0
 42
0.001848540371395453
  0
VERTEX
  8
1
 10
-402.3674430629057
 20
13.77354851866507
 30
0
 42
0.002042665457014545
  0
VERTEX
  8
1
 10
-402.3472037551571
 20
13.77868438299045
 30
0
 42
0.00167082478843998
  0
VERTEX
  8
1
 10
-402.3305985282135
 20
13.78302959232432
 30
0
 42
0.002016078298511157
  0
VERTEX
  8
1
 10
-402.3140248656015
 20
13.78749737603027
 30
0
 42
0.002042171360232749
  0
VERTEX
  8
1
 10
-402.2974882074452
 20
13.79209947642398
 30
0
 42
0.002388418301728161
  0
VERTEX
  8
1
 10
-402.2809939938685
 20
13.79684763582113
 30
0
 42
0.002415453867111852
  0
VERTEX
  8
1
 10
-402.2645476649956
 20
13.80175359653742
 30
0
 42
0.002762519626985102
  0
VERTEX
  8
1
 10
-402.2481546609507
 20
13.80682910088852
 30
0
 42
0.002790168523858686
  0
VERTEX
  8
1
 10
-402.2318204218575
 20
13.81208589119012
 30
0
 42
0.003137555923641221
  0
VERTEX
  8
1
 10
-402.2155503878404
 20
13.8175357097579
 30
0
 42
0.003165139405374085
  0
VERTEX
  8
1
 10
-402.1993499990232
 20
13.82319029890755
 30
0
 42
0.003511975542306187
  0
VERTEX
  8
1
 10
-402.1832246955302
 20
13.82906140095475
 30
0
 42
0.002742752697407366
  0
VERTEX
  8
1
 10
-402.1708790419891
 20
13.83373207985884
 30
0
 42
0.003164016207322306
  0
VERTEX
  8
1
 10
-402.1585883669729
 20
13.83854868977989
 30
0
 42
0.003229473740425311
  0
VERTEX
  8
1
 10
-402.1463600247949
 20
13.84352216745776
 30
0
 42
0.003652629582188577
  0
VERTEX
  8
1
 10
-402.1342013697682
 20
13.84866344963228
 30
0
 42
0.003719540179767458
  0
VERTEX
  8
1
 10
-402.1221197562058
 20
13.85398347304329
 30
0
 42
0.00414351306833098
  0
VERTEX
  8
1
 10
-402.1101225384208
 20
13.85949317443064
 30
0
 42
0.004210387632972256
  0
VERTEX
  8
1
 10
-402.0982170707263
 20
13.86520349053417
 30
0
 42
0.004633245833237289
  0
VERTEX
  8
1
 10
-402.0864107074354
 20
13.87112535809372
 30
0
 42
0.004697684357547467
  0
VERTEX
  8
1
 10
-402.0747108028611
 20
13.87726971384913
 30
0
 42
0.005116540426724119
  0
VERTEX
  8
1
 10
-402.0631247113167
 20
13.88364749454024
 30
0
 42
0.003970243273963218
  0
VERTEX
  8
1
 10
-402.0550250897238
 20
13.8882998436284
 30
0
 42
0.00563271426164583
  0
VERTEX
  8
1
 10
-402.0470162227181
 20
13.89310693584371
 30
0
 42
0.00633036129662641
  0
VERTEX
  8
1
 10
-402.0391285153906
 20
13.89810180574298
 30
0
 42
0.008014693836528565
  0
VERTEX
  8
1
 10
-402.031392372832
 20
13.90331748788303
 30
0
 42
0.008726459000842322
  0
VERTEX
  8
1
 10
-402.0238382001334
 20
13.9087870168207
 30
0
 42
0.01040736440372976
  0
VERTEX
  8
1
 10
-402.0164964023853
 20
13.9145434271128
 30
0
 42
0.01108660178671248
  0
VERTEX
  8
1
 10
-402.0093973846788
 20
13.92061975331615
 30
0
 42
0.0126935316537203
  0
VERTEX
  8
1
 10
-402.0025715521046
 20
13.92704902998758
 30
0
 42
0.013245092203132
  0
VERTEX
  8
1
 10
-401.9960493097536
 20
13.93386429168391
 30
0
 42
0.01466073184811368
  0
VERTEX
  8
1
 10
-401.9898610627167
 20
13.94109857296197
 30
0
 42
0.01031615691398759
  0
VERTEX
  8
1
 10
-401.9858329190895
 20
13.94631378646493
 30
0
 42
0.01184926177606037
  0
VERTEX
  8
1
 10
-401.9820242818855
 20
13.95172448719057
 30
0
 42
0.01246382785709804
  0
VERTEX
  8
1
 10
-401.9784833205082
 20
13.95731361153044
 30
0
 42
0.0143332601004154
  0
VERTEX
  8
1
 10
-401.9752582043613
 20
13.96306409587613
 30
0
 42
0.01529933388990432
  0
VERTEX
  8
1
 10
-401.9723971028479
 20
13.96895887661919
 30
0
 42
0.01752031316076625
  0
VERTEX
  8
1
 10
-401.9699481853717
 20
13.97498089015119
 30
0
 42
0.01880961917086393
  0
VERTEX
  8
1
 10
-401.9679596213361
 20
13.98111307286371
 30
0
 42
0.02128093053087272
  0
VERTEX
  8
1
 10
-401.9664795801444
 20
13.9873383611483
 30
0
 42
0.02268432478918268
  0
VERTEX
  8
1
 10
-401.9655562312003
 20
13.99363969139654
 30
0
 42
0.02505706909701459
  0
VERTEX
  8
1
 10
-401.965237743907
 20
14
 30
0
  0
SEQEND
  8
1
  0
POLYLINE
  8
1
 62
7
 66
1
  0
VERTEX
  8
1
 10
-49.96523774390698
 20
13.62347538297979
 30
0
 42
-0.006663071849730386
  0
VERTEX
  8
1
 10
-50.24682732480044
 20
13.62722585384144
 30
0
 42
-0.003062739759995101
  0
VERTEX
  8
1
 10
-50.36969962103172
 20
13.63125376504457
 30
0
 42
-0.002293321657332463
  0
VERTEX
  8
1
 10
-50.46125917985584
 20
13.63523743583288
 30
0
 42
-0.002447580430065786
  0
VERTEX
  8
1
 10
-50.55277671717138
 20
13.64008905561226
 30
0
 42
-0.001575744814580453
  0
VERTEX
  8
1
 10
-50.61229878057102
 20
13.64372501302064
 30
0
 42
-0.001664468633493848
  0
VERTEX
  8
1
 10
-50.67033474234608
 20
13.64764784627481
 30
0
 42
-0.001662591345303061
  0
VERTEX
  8
1
 10
-50.72834325823347
 20
13.65195676340031
 30
0
 42
-0.001792299216501997
  0
VERTEX
  8
1
 10
-50.78632040765304
 20
13.65666638330249
 30
0
 42
-0.001790587266577469
  0
VERTEX
  8
1
 10
-50.84426227002466
 20
13.66179132488669
 30
0
 42
-0.001852391065163888
  0
VERTEX
  8
1
 10
-50.90002902349817
 20
13.66713364244876
 30
0
 42
-0.001820123884006482
  0
VERTEX
  8
1
 10
-50.95362028491611
 20
13.67266508147041
 30
0
 42
-0.001990412605627007
  0
VERTEX
  8
1
 10
-51.00716779466104
 20
13.67860477384789
 30
0
 42
-0.002029788727205464
  0
VERTEX
  8
1
 10
-51.06066592881495
 20
13.68497482591366
 30
0
 42
-0.002200239715423398
  0
VERTEX
  8
1
 10
-51.1141090634598
 20
13.69179734400019
 30
0
 42
-0.002126430854375903
  0
VERTEX
  8
1
 10
-51.16475256132143
 20
13.69870834249682
 30
0
 42
-0.001148518159842532
  0
VERTEX
  8
1
 10
-51.18868273831949
 20
13.70213374673623
 30
0
 42
-0.001082367701247473
  0
VERTEX
  8
1
 10
-51.21259741316869
 20
13.70566589032794
 30
0
 42
-0.001244566910912078
  0
VERTEX
  8
1
 10
-51.23649521955161
 20
13.70930926485157
 30
0
 42
-0.001178515137387049
  0
VERTEX
  8
1
 10
-51.2603747911508
 20
13.71306836188672
 30
0
 42
-0.00134080312060005
  0
VERTEX
  8
1
 10
-51.28423476164879
 20
13.716947673013
 30
0
 42
-0.001274827405408254
  0
VERTEX
  8
1
 10
-51.30807376472816
 20
13.72095168980999
 30
0
 42
-0.001437176031420212
  0
VERTEX
  8
1
 10
-51.33189043407147
 20
13.72508490385731
 30
0
 42
-0.001371242503154147
  0
VERTEX
  8
1
 10
-51.35568340336126
 20
13.72935180673456
 30
0
 42
-0.001533611943727498
  0
VERTEX
  8
1
 10
-51.37945130628009
 20
13.73375689002134
 30
0
 42
-0.001270779566789772
  0
VERTEX
  8
1
 10
-51.3999533277546
 20
13.73767574934583
 30
0
 42
-0.001465016210426988
  0
VERTEX
  8
1
 10
-51.42043374416587
 20
13.74170675642952
 30
0
 42
-0.001415110534046008
  0
VERTEX
  8
1
 10
-51.4408906591762
 20
13.74585568002706
 30
0
 42
-0.001609456044241523
  0
VERTEX
  8
1
 10
-51.46132217644792
 20
13.75012828889315
 30
0
 42
-0.001559628190510336
  0
VERTEX
  8
1
 10
-51.48172639964334
 20
13.75453035178244
 30
0
 42
-0.00175401309524467
  0
VERTEX
  8
1
 10
-51.50210143242477
 20
13.75906763744961
 30
0
 42
-0.001704178017674614
  0
VERTEX
  8
1
 10
-51.52244537845452
 20
13.76374591464932
 30
0
 42
-0.001898500991899053
  0
VERTEX
  8
1
 10
-51.54275634139492
 20
13.76857095213625
 30
0
 42
-0.001848540370475297
  0
VERTEX
  8
1
 10
-51.56303242490827
 20
13.77354851866507
 30
0
 42
-0.002042665457939808
  0
VERTEX
  8
1
 10
-51.5832717326569
 20
13.77868438299045
 30
0
 42
-0.001670824787463203
  0
VERTEX
  8
1
 10
-51.59987695960052
 20
13.78302959232432
 30
0
 42
-0.00201607829949282
  0
VERTEX
  8
1
 10
-51.61645062221254
 20
13.78749737603026
 30
0
 42
-0.002042171359028152
  0
VERTEX
  8
1
 10
-51.63298728036889
 20
13.79209947642397
 30
0
 42
-0.002388418303493425
  0
VERTEX
  8
1
 10
-51.64948149394552
 20
13.79684763582113
 30
0
 42
-0.002415453865180941
  0
VERTEX
  8
1
 10
-51.66592782281837
 20
13.80175359653741
 30
0
 42
-0.002762519628495017
  0
VERTEX
  8
1
 10
-51.68232082686337
 20
13.80682910088852
 30
0
 42
-0.002790168522665187
  0
VERTEX
  8
1
 10
-51.69865506595648
 20
13.81208589119012
 30
0
 42
-0.003137555925059656
  0
VERTEX
  8
1
 10
-51.71492509997363
 20
13.8175357097579
 30
0
 42
-0.003165139403829527
  0
VERTEX
  8
1
 10
-51.73112548879076
 20
13.82319029890755
 30
0
 42
-0.003511975543608939
  0
VERTEX
  8
1
 10
-51.74725079228381
 20
13.82906140095475
 30
0
 42
-0.002742752695808188
  0
VERTEX
  8
1
 10
-51.759596445825
 20
13.83373207985884
 30
0
 42
-0.003164016209302742
  0
VERTEX
  8
1
 10
-51.77188712084113
 20
13.83854868977989
 30
0
 42
-0.003229473739755396
  0
VERTEX
  8
1
 10
-51.78411546301909
 20
13.84352216745776
 30
0
 42
-0.003652629581650334
  0
VERTEX
  8
1
 10
-51.79627411804582
 20
13.84866344963229
 30
0
 42
-0.003719540179863382
  0
VERTEX
  8
1
 10
-51.80835573160822
 20
13.8539834730433
 30
0
 42
-0.004143513068893651
  0
VERTEX
  8
1
 10
-51.8203529493932
 20
13.85949317443065
 30
0
 42
-0.004210387631839585
  0
VERTEX
  8
1
 10
-51.83225841708769
 20
13.86520349053418
 30
0
 42
-0.004633245835210642
  0
VERTEX
  8
1
 10
-51.84406478037858
 20
13.87112535809373
 30
0
 42
-0.00469768435505274
  0
VERTEX
  8
1
 10
-51.85576468495282
 20
13.87726971384913
 30
0
 42
-0.005116540429090067
  0
VERTEX
  8
1
 10
-51.86735077649729
 20
13.88364749454024
 30
0
 42
-0.003970243271456738
  0
VERTEX
  8
1
 10
-51.87545039809022
 20
13.8882998436284
 30
0
 42
-0.005632714264044654
  0
VERTEX
  8
1
 10
-51.88345926509586
 20
13.89310693584371
 30
0
 42
-0.006330361295381578
  0
VERTEX
  8
1
 10
-51.89134697242337
 20
13.89810180574298
 30
0
 42
-0.008014693836973794
  0
VERTEX
  8
1
 10
-51.89908311498191
 20
13.90331748788303
 30
0
 42
-0.00872645899957657
  0
VERTEX
  8
1
 10
-51.90663728768063
 20
13.90878701682069
 30
0
 42
-0.01040736440536063
  0
VERTEX
  8
1
 10
-51.91397908542869
 20
13.91454342711279
 30
0
 42
-0.01108660178548276
  0
VERTEX
  8
1
 10
-51.92107810313523
 20
13.92061975331615
 30
0
 42
-0.01269353165535315
  0
VERTEX
  8
1
 10
-51.9279039357094
 20
13.92704902998758
 30
0
 42
-0.01324509220104319
  0
VERTEX
  8
1
 10
-51.93442617806038
 20
13.93386429168391
 30
0
 42
-0.01466073185028829
  0
VERTEX
  8
1
 10
-51.94061442509729
 20
13.94109857296197
 30
0
 42
-0.01031615690942587
  0
VERTEX
  8
1
 10
-51.94464256872457
 20
13.94631378646493
 30
0
 42
-0.0118492617836397
  0
VERTEX
  8
1
 10
-51.94845120592854
 20
13.95172448719057
 30
0
 42
-0.01246382785364293
  0
VERTEX
  8
1
 10
-51.95199216730573
 20
13.95731361153044
 30
0
 42
-0.0143332600969991
  0
VERTEX
  8
1
 10
-51.95521728345272
 20
13.96306409587613
 30
0
 42
-0.01529933389856664
  0
VERTEX
  8
1
 10
-51.95807838496604
 20
13.96895887661919
 30
0
 42
-0.01752031314970315
  0
VERTEX
  8
1
 10
-51.96052730244224
 20
13.97498089015119
 30
0
 42
-0.01880961917982627
  0
VERTEX
  8
1
 10
-51.96251586647789
 20
13.98111307286371
 30
0
 42
-0.02128093052456447
  0
VERTEX
  8
1
 10
-51.96399590766953
 20
13.9873383611483
 30
0
 42
-0.02268432479498359
  0
VERTEX
  8
1
 10
-51.96491925661371
 20
13.99363969139655
 30
0
 42
-0.02505706909070323
  0
VERTEX
  8
1
 10
-51.96523774390698
 20
14
 30
0
  0
SEQEND
  8
1
  0
LINE
  8
1
 62
7
 10
-388.465237743907
 20
47
 30
0
 11
-388.465237743907
 21
-46.83646178829913
 31
0
  0
LINE
  8
1
 62
7
 10
-390.065237743907
 20
310.2756387566758
 30
0
 11
-388.465237743907
 21
310.2756387566758
 31
0
  0
LINE
  8
1
 62
7
 10
-338.965237743907
 20
389.4787002999559
 30
0
 11
-291.965237743907
 21
389.4787002999559
 31
0
  0
LINE
  8
1
 62
7
 10
-309.9104239793576
 20
360.1893784186108
 30
0
 11
-376.8515384225201
 21
338.478700299956
 31
0
  0
LINE
  8
1
 62
7
 10
-299.065237743907
 20
355.1893784186108
 30
0
 11
-299.065237743907
 21
365.1893784186108
 31
0
  0
LINE
  8
1
 62
7
 10
-299.065237743907
 20
365.1893784186108
 30
0
 11
-293.465237743907
 21
365.1893784186108
 31
0
  0
LINE
  8
1
 62
7
 10
-299.465237743907
 20
364.4965580955832
 30
0
 11
-299.065237743907
 21
365.1893784186108
 31
0
  0
LINE
  8
1
 62
7
 10
-299.465237743907
 20
355.8821987416384
 30
0
 11
-299.465237743907
 21
364.4965580955832
 31
0
  0
LINE
  8
1
 62
7
 10
-299.065237743907
 20
355.1893784186108
 30
0
 11
-299.465237743907
 21
355.8821987416384
 31
0
  0
LINE
  8
1
 62
7
 10
-293.465237743907
 20
355.1893784186108
 30
0
 11
-299.065237743907
 21
355.1893784186108
 31
0
  0
LINE
  8
1
 62
7
 10
-293.465237743907
 20
366.2893784186107
 30
0
 11
-291.965237743907
 21
366.2893784186107
 31
0
  0
LINE
  8
1
 62
7
 10
-293.465237743907
 20
354.0893784186108
 30
0
 11
-293.465237743907
 21
366.2893784186107
 31
0
  0
LINE
  8
1
 62
7
 10
-291.965237743907
 20
354.0893784186108
 30
0
 11
-293.465237743907
 21
354.0893784186108
 31
0
  0
LINE
  8
1
 62
7
 10
-291.965237743907
 20
361.6893784186108
 30
0
 11
-293.465237743907
 21
360.1893784186108
 31
0
  0
LINE
  8
1
 62
7
 10
-291.965237743907
 20
360.1893784186108
 30
0
 11
-293.465237743907
 21
358.6893784186108
 31
0
  0
LINE
  8
1
 62
7
 10
-451.4652377439069
 20
292.978700299956
 30
0
 11
-451.465237743907
 21
303.478700299956
 31
0
  0
LINE
  8
1
 62
7
 10
-308.465237743907
 20
294.1453669666227
 30
0
 11
-308.465237743907
 21
376.7680221813013
 31
0
  0
LINE
  8
1
 62
7
 10
-451.965237743907
 20
292.978700299956
 30
0
 11
-405.465237743907
 21
292.978700299956
 31
0
  0
LINE
  8
1
 62
7
 10
-451.965237743907
 20
302.978700299956
 30
0
 11
-451.465237743907
 21
303.478700299956
 31
0
  0
LINE
  8
1
 62
7
 10
-391.965237743907
 20
303.478700299956
 30
0
 11
-451.465237743907
 21
303.478700299956
 31
0
  0
LINE
  8
1
 62
7
 10
-390.165237743907
 20
306.4787002999561
 30
0
 11
-391.965237743907
 21
306.478700299956
 31
0
  0
LINE
  8
1
 62
7
 10
-384.2142534766821
 20
292.478700299956
 30
0
 11
-310.4372643382735
 21
292.478700299956
 31
0
  0
LINE
  8
1
 62
7
 10
-388.465237743907
 20
242.478700299956
 30
0
 11
-388.465237743907
 21
336.4787002999561
 31
0
  0
LINE
  8
1
 62
7
 10
-386.465237743907
 20
338.478700299956
 30
0
 11
-310.465237743907
 21
338.478700299956
 31
0
  0
LINE
  8
1
 62
7
 10
-306.465237743907
 20
378.7680221813013
 30
0
 11
-293.965237743907
 21
378.7680221813013
 31
0
  0
LINE
  8
1
 62
3
  6
DASHDOT
 10
117.3164384715386
 20
-107.7297957819469
 30
0
 11
117.3164384715386
 21
-136.997588817424
 31
0
  0
LINE
  8
1
 62
3
  6
DASHDOT
 10
-326.965237743907
 20
-106.9521085078687
 30
0
 11
-326.965237743907
 21
-137.734907071947
 31
0
  0
LINE
  8
1
 62
7
 10
146.8164384715386
 20
-129
 30
0
 11
242.8164384715385
 21
-129
 31
0
  0
LINE
  8
1
 62
7
 10
144.8164384715386
 20
-114
 30
0
 11
144.8164384715386
 21
-132
 31
0
  0
LINE
  8
1
 62
7
 10
142.8164384715386
 20
-112
 30
0
 11
96.81643847153862
 21
-112
 31
0
  0
LINE
  8
1
 62
7
 10
94.81643847153862
 20
-132
 30
0
 11
144.8164384715386
 21
-132
 31
0
  0
LINE
  8
1
 62
7
 10
86.81643847153862
 20
-72.00648467481611
 30
0
 11
81.10547245068756
 21
-72.00648467481611
 31
0
  0
LINE
  8
1
 62
7
 10
88.81643847153862
 20
-63.99351532518389
 30
0
 11
88.81643847153862
 21
-70.00648467481611
 31
0
  0
LINE
  8
1
 62
7
 10
81.10547245068756
 20
-61.99351532518389
 30
0
 11
86.81643847153862
 21
-61.99351532518389
 31
0
  0
LINE
  8
1
 62
7
 10
88.11643847153869
 20
-69.75
 30
0
 11
88.81643847153862
 21
-69.75
 31
0
  0
LINE
  8
1
 62
7
 10
88.11643847153869
 20
-64.25
 30
0
 11
88.11643847153869
 21
-69.75
 31
0
  0
LINE
  8
1
 62
7
 10
88.81643847153862
 20
-64.25
 30
0
 11
88.11643847153869
 21
-64.25
 31
0
  0
LINE
  8
1
 62
7
 10
88.11643847153869
 20
-67.7
 30
0
 11
88.81643847153862
 21
-67
 31
0
  0
LINE
  8
1
 62
7
 10
88.11643847153869
 20
-67
 30
0
 11
88.81643847153862
 21
-66.30000000000001
 31
0
  0
LINE
  8
1
 62
7
 10
87.81643847153862
 20
-69.75
 30
0
 11
87.37731832991403
 21
-69.75
 31
0
  0
LINE
  8
1
 62
7
 10
88.11643847153869
 20
-64.55000000000001
 30
0
 11
88.11643847153869
 21
-69.45
 31
0
  0
LINE
  8
1
 62
7
 10
87.37731832991403
 20
-64.25
 30
0
 11
87.81643847153862
 21
-64.25
 31
0
  0
LINE
  8
1
 62
7
 10
-227.965237743907
 20
-63.51939923077924
 30
0
 11
-227.965237743907
 21
-59.5
 31
0
  0
LINE
  8
1
 62
7
 10
-255.227737743907
 20
-68.75
 30
0
 11
-254.702737743907
 21
-68.75
 31
0
  0
LINE
  8
1
 62
7
 10
-256.715237743907
 20
-66.73750000000001
 30
0
 11
-256.715237743907
 21
-67.2625
 31
0
  0
LINE
  8
1
 62
7
 10
-254.702737743907
 20
-65.25
 30
0
 11
-255.227737743907
 21
-65.25
 31
0
  0
LINE
  8
1
 62
7
 10
-253.215237743907
 20
-67.2625
 30
0
 11
-253.215237743907
 21
-66.73750000000001
 31
0
  0
LINE
  8
1
 62
7
 10
-227.965237743907
 20
-74.5
 30
0
 11
-227.965237743907
 21
-70.48060076922076
 31
0
  0
LINE
  8
1
 62
7
 10
-259.1376515370105
 20
-69.06896551724138
 30
0
 11
-249.965237743907
 21
-77.5
 31
0
  0
LINE
  8
1
 62
7
 10
-259.1376515370105
 20
-64.93103448275862
 30
0
 11
-249.965237743907
 21
-56.5
 31
0
  0
LINE
  8
1
 62
3
 10
-245.2814824020158
 20
-72.05705309042925
 30
0
 11
-242.6489930857982
 21
-73.57692150578632
 31
0
  0
LINE
  8
1
 62
3
 10
-243.1489930857982
 20
-74.44294690957075
 30
0
 11
-245.7814824020158
 21
-72.92307849421368
 31
0
  0
LINE
  8
1
 62
3
 10
-234.2814824020158
 20
-73.57692150578632
 30
0
 11
-231.6489930857982
 21
-72.05705309042925
 31
0
  0
LINE
  8
1
 62
3
 10
-231.1489930857982
 20
-72.92307849421368
 30
0
 11
-233.7814824020158
 21
-74.44294690957075
 31
0
  0
LINE
  8
1
 62
3
 10
-231.6489930857982
 20
-61.94294690957075
 30
0
 11
-234.2814824020158
 21
-60.42307849421368
 31
0
  0
LINE
  8
1
 62
3
 10
-233.7814824020158
 20
-59.55705309042925
 30
0
 11
-231.1489930857982
 21
-61.07692150578632
 31
0
  0
LINE
  8
1
 62
7
 10
-239.465237743907
 20
-74.5
 30
0
 11
-239.465237743907
 21
-59.5
 31
0
  0
LINE
  8
1
 62
7
 10
-237.465237743907
 20
-59.5
 30
0
 11
-237.465237743907
 21
-74.5
 31
0
  0
LINE
  8
1
 62
3
  6
DASHDOT
 10
-454.965237743907
 20
0
 30
0
 11
-429.5795970978518
 21
0
 31
0
  0
LINE
  8
1
 62
3
  6
DASHED
 10
-439.965237743907
 20
-3.000000000000002
 30
0
 11
-438.9260072593656
 21
-2.400000000000002
 31
0
  0
LINE
  8
1
 62
3
  6
DASHED
 10
-439.965237743907
 20
3
 30
0
 11
-438.9260072593656
 21
2.4
 31
0
  0
LINE
  8
1
 62
3
  6
DASHED
 10
-439.965237743907
 20
-3.000000000000002
 30
0
 11
-451.965237743907
 21
-3.000000000000002
 31
0
  0
LINE
  8
1
 62
3
  6
DASHED
 10
-439.965237743907
 20
3
 30
0
 11
-439.965237743907
 21
-3.000000000000002
 31
0
  0
LINE
  8
1
 62
3
  6
DASHED
 10
-451.965237743907
 20
3
 30
0
 11
-439.965237743907
 21
3
 31
0
  0
LINE
  8
1
 62
7
  6
DASHED
 10
-433.4331869363381
 20
0
 30
0
 11
-435.1652377439069
 21
-2.400000000000002
 31
0
  0
LINE
  8
1
 62
7
  6
DASHED
 10
-435.1652377439069
 20
2.4
 30
0
 11
-433.4331869363381
 21
0
 31
0
  0
LINE
  8
1
 62
7
  6
DASHED
 10
-435.1652377439069
 20
-2.400000000000002
 30
0
 11
-451.965237743907
 21
-2.400000000000002
 31
0
  0
LINE
  8
1
 62
7
  6
DASHED
 10
-435.1652377439069
 20
2.4
 30
0
 11
-435.1652377439069
 21
-2.400000000000002
 31
0
  0
LINE
  8
1
 62
7
  6
DASHED
 10
-451.965237743907
 20
2.4
 30
0
 11
-435.1652377439069
 21
2.4
 31
0
  0
LINE
  8
1
 62
7
 10
-279.965237743907
 20
-131
 30
0
 11
-279.965237743907
 21
-132
 31
0
  0
LINE
  8
1
 62
7
 10
83.69975670654299
 20
-37.56888010336546
 30
0
 11
86.59562860794745
 21
-36.86229974940589
 31
0
  0
LINE
  8
1
 62
7
 10
79.43223371519139
 20
-36.94456624751458
 30
0
 11
89.74681709624429
 21
-52.59998215925108
 31
0
  0
LINE
  8
1
 62
7
 10
76.95353869313499
 20
-37.01313789160641
 30
0
 11
87.25026063997439
 21
-52.59883435354999
 31
0
  0
LINE
  8
1
 62
7
 10
-299.065237743907
 20
65.71067811865476
 30
0
 11
-299.065237743907
 21
75.71067811865476
 31
0
  0
LINE
  8
1
 62
7
 10
-299.065237743907
 20
75.71067811865476
 30
0
 11
-293.465237743907
 21
75.71067811865476
 31
0
  0
LINE
  8
1
 62
7
 10
-299.465237743907
 20
75.01785779562721
 30
0
 11
-299.065237743907
 21
75.71067811865476
 31
0
  0
LINE
  8
1
 62
7
 10
-299.465237743907
 20
66.4034984416823
 30
0
 11
-299.465237743907
 21
75.01785779562721
 31
0
  0
LINE
  8
1
 62
7
 10
-299.065237743907
 20
65.71067811865476
 30
0
 11
-299.465237743907
 21
66.4034984416823
 31
0
  0
LINE
  8
1
 62
7
 10
-293.465237743907
 20
65.71067811865476
 30
0
 11
-299.065237743907
 21
65.71067811865476
 31
0
  0
LINE
  8
1
 62
7
 10
-293.465237743907
 20
76.81067811865474
 30
0
 11
-291.965237743907
 21
76.81067811865474
 31
0
  0
LINE
  8
1
 62
7
 10
-293.465237743907
 20
64.61067811865475
 30
0
 11
-293.465237743907
 21
76.81067811865474
 31
0
  0
LINE
  8
1
 62
7
 10
-291.965237743907
 20
64.61067811865473
 30
0
 11
-293.465237743907
 21
64.61067811865475
 31
0
  0
LINE
  8
1
 62
7
 10
-291.965237743907
 20
72.21067811865476
 30
0
 11
-293.465237743907
 21
70.71067811865476
 31
0
  0
LINE
  8
1
 62
7
 10
-291.965237743907
 20
70.71067811865476
 30
0
 11
-293.465237743907
 21
69.21067811865476
 31
0
  0
LINE
  8
1
 62
3
  6
DASHDOT
 10
194.8164384715386
 20
5.000000000000003
 30
0
 11
194.8164384715386
 21
-6.000000000000002
 31
0
  0
LINE
  8
1
 62
3
  6
DASHDOT
 10
200.8164384715386
 20
0
 30
0
 11
188.8164384715386
 21
0
 31
0
  0
LINE
  8
1
 62
7
 10
-390.165237743907
 20
18.75000000000009
 30
0
 11
-390.165237743907
 21
-18.75000000000008
 31
0
  0
LINE
  8
1
 62
7
 10
-451.465237743907
 20
-14
 30
0
 11
-451.465237743907
 21
13.62347538297979
 31
0
  0
LINE
  8
1
 62
7
 10
-451.965237743907
 20
13.12347538297979
 30
0
 11
-451.465237743907
 21
13.62347538297979
 31
0
  0
LINE
  8
1
 62
7
 10
-451.965237743907
 20
-13.5
 30
0
 11
-451.965237743907
 21
17
 31
0
  0
LINE
  8
1
 62
7
 10
-451.465237743907
 20
-14
 30
0
 11
-451.965237743907
 21
-13.5
 31
0
  0
LINE
  8
1
 62
7
 10
82.29512037465929
 20
-31.85839095968673
 30
0
 11
81.74421147789576
 21
-32.01752160160177
 31
0
  0
LINE
  8
1
 62
7
 10
87.30347990522682
 20
-53.32640590489795
 30
0
 11
87.30347990522682
 21
-54.5
 31
0
  0
LINE
  8
1
 62
7
 10
89.79969375585188
 20
-53.32522050279464
 30
0
 11
89.79969375585188
 21
-54.5
 31
0
  0
LINE
  8
1
 62
7
 10
82.26653793392188
 20
-33.95578450234791
 30
0
 11
82.77321319789428
 21
-33.80205695691504
 31
0
  0
LINE
  8
1
 62
7
 10
94.81643847153862
 20
-79.5
 30
0
 11
76.81643847153862
 21
-79.5
 31
0
  0
LINE
  8
1
 62
7
 10
76.81643847153862
 20
-79.5
 30
0
 11
76.81643847153862
 21
-54.5
 31
0
  0
LINE
  8
1
 62
7
 10
76.81643847153862
 20
-54.5
 30
0
 11
94.81643847153862
 21
-54.5
 31
0
  0
LINE
  8
1
 62
7
 10
84.20529766243283
 20
-27.14310687302887
 30
0
 11
86.59430941520554
 21
-36.85689312697113
 31
0
  0
LINE
  8
1
 62
7
 10
83.69975670654299
 20
-37.56888010336546
 30
0
 11
81.31120572722193
 21
-27.85832789356891
 31
0
  0
LINE
  8
1
 62
7
 10
81.31120572722193
 20
-27.85832789356891
 30
0
 11
84.20529766243283
 21
-27.14310687302887
 31
0
  0
LINE
  8
1
 62
7
 10
-273.465237743907
 20
-33.25
 30
0
 11
-268.465237743907
 21
-33.25
 31
0
  0
LINE
  8
1
 62
7
 10
-273.465237743907
 20
-30.75
 30
0
 11
-268.465237743907
 21
-30.75
 31
0
  0
LINE
  8
1
 62
7
 10
-235.590237743907
 20
-33
 30
0
 11
-246.340237743907
 21
-33
 31
0
  0
LINE
  8
1
 62
7
 10
-232.590237743907
 20
-54.5
 30
0
 11
-232.590237743907
 21
-36
 31
0
  0
LINE
  8
1
 62
7
 10
-230.590237743907
 20
-36
 30
0
 11
-230.590237743907
 21
-54.5
 31
0
  0
LINE
  8
1
 62
7
 10
-245.340237743907
 20
-36
 30
0
 11
-245.340237743907
 21
-54.5
 31
0
  0
LINE
  8
1
 62
7
 10
-273.465237743907
 20
-31
 30
0
 11
-235.590237743907
 21
-31
 31
0
  0
LINE
  8
1
 62
7
 10
-250.340237743907
 20
-33
 30
0
 11
-273.465237743907
 21
-33
 31
0
  0
LINE
  8
1
 62
7
 10
-247.340237743907
 20
-54.5
 30
0
 11
-247.340237743907
 21
-36
 31
0
  0
LINE
  8
1
 62
3
 10
-242.6489930857982
 20
-60.42307849421368
 30
0
 11
-245.2814824020158
 21
-61.94294690957075
 31
0
  0
LINE
  8
1
 62
3
 10
-245.7814824020158
 20
-61.07692150578632
 30
0
 11
-243.1489930857982
 21
-59.55705309042925
 31
0
  0
LINE
  8
1
 62
7
 10
-249.965237743907
 20
-77.5
 30
0
 11
-249.965237743907
 21
-56.5
 31
0
  0
LINE
  8
1
 62
7
 10
-311.0200515084564
 20
-43.13046219005208
 30
0
 11
-385.0200515084564
 21
-19.31422623945008
 31
0
  0
LINE
  8
1
 62
7
 10
-385.1878308616323
 20
-22.72988338436519
 30
0
 11
-309.9104239793576
 21
-46.91495673062518
 31
0
  0
LINE
  8
1
 62
7
 10
-312.465237743907
 20
-18.89694437356941
 30
0
 11
-385.7833092856949
 21
-18.89694437356941
 31
0
  0
LINE
  8
1
 62
7
 10
-386.465237743907
 20
49
 30
0
 11
-308.465237743907
 21
88
 31
0
  0
LINE
  8
1
 62
7
 10
-451.465237743907
 20
13.62347538297979
 30
0
 11
-403.965237743907
 21
13.62347538297979
 31
0
  0
LINE
  8
1
 62
7
 10
-451.465237743907
 20
-14
 30
0
 11
-391.965237743907
 21
-14
 31
0
  0
LINE
  8
1
 62
7
 10
-401.965237743907
 20
17
 30
0
 11
-451.965237743907
 21
17
 31
0
  0
LINE
  8
1
 62
7
 10
-401.965237743907
 20
14
 30
0
 11
-401.965237743907
 21
17
 31
0
  0
LINE
  8
1
 62
7
 10
-391.965237743907
 20
14
 30
0
 11
-401.965237743907
 21
14
 31
0
  0
LINE
  8
1
 62
7
 10
-391.965237743907
 20
-16.99999999999999
 30
0
 11
-390.265237743907
 21
-17
 31
0
  0
LINE
  8
1
 62
7
 10
-391.965237743907
 20
17
 30
0
 11
-391.965237743907
 21
-16.99999999999999
 31
0
  0
LINE
  8
1
 62
7
 10
-390.265237743907
 20
17
 30
0
 11
-391.965237743907
 21
17
 31
0
  0
LINE
  8
1
 62
7
 10
-388.465237743907
 20
-18.75000000000007
 30
0
 11
-390.165237743907
 21
-18.75000000000008
 31
0
  0
LINE
  8
1
 62
7
 10
-390.165237743907
 20
18.75000000000009
 30
0
 11
-388.465237743907
 21
18.75000000000009
 31
0
  0
LINE
  8
1
 62
7
 10
-310.465237743907
 20
49
 30
0
 11
-386.465237743907
 21
49
 31
0
  0
LINE
  8
1
 62
7
 10
-308.465237743907
 20
88
 30
0
 11
-308.465237743907
 21
-51.83646178829912
 31
0
  0
LINE
  8
1
 62
7
 10
-293.965237743907
 20
90
 30
0
 11
-306.465237743907
 21
90
 31
0
  0
LINE
  8
1
 62
7
 10
-341.965237743907
 20
-132
 30
0
 11
-279.965237743907
 21
-132
 31
0
  0
LINE
  8
1
 62
7
 10
-341.965237743907
 20
-115
 30
0
 11
-341.965237743907
 21
-132
 31
0
  0
LINE
  8
1
 62
7
 10
190.8164384715386
 20
52.38796999900574
 30
0
 11
190.8164384715386
 21
83.6151221595533
 31
0
  0
LINE
  8
1
 62
7
 10
-291.965237743907
 20
-109
 30
0
 11
-291.965237743907
 21
112
 31
0
  0
LINE
  8
1
 62
7
 10
-306.465237743907
 20
-90
 30
0
 11
-293.965237743907
 21
-90
 31
0
  0
LINE
  8
1
 62
7
 10
-308.465237743907
 20
-50.83646178829911
 30
0
 11
-308.465237743907
 21
-88
 31
0
  0
LINE
  8
1
 62
7
 10
-386.465237743907
 20
-48.83646178829912
 30
0
 11
-310.465237743907
 21
-48.83646178829912
 31
0
  0
LINE
  8
1
 62
7
 10
-386.465237743907
 20
-48.83646178829912
 30
0
 11
-310.465237743907
 21
-48.83646178829912
 31
0
  0
LINE
  8
1
 62
7
 10
-294.965237743907
 20
-112
 30
0
 11
-338.965237743907
 21
-112
 31
0
  0
LINE
  8
1
 62
7
 10
198.8164384715386
 20
83.6151221595533
 30
0
 11
198.8164384715386
 21
52.38796999900573
 31
0
  0
LINE
  8
1
 62
7
 10
203.8164384715386
 20
-21.89591794226543
 30
0
 11
203.8164384715386
 21
-21.43600119081744
 31
0
  0
LINE
  8
1
 62
7
 10
185.8164384715386
 20
-21.89591794226543
 30
0
 11
185.8164384715386
 21
-21.43600119081744
 31
0
  0
LINE
  8
1
 62
7
 10
198.8164384715386
 20
-19.59591794226542
 30
0
 11
198.8164384715386
 21
-24.39591794226543
 31
0
  0
LINE
  8
1
 62
7
 10
198.8164384715386
 20
-24.39591794226543
 30
0
 11
201.3164384715386
 21
-24.39591794226543
 31
0
  0
LINE
  8
1
 62
7
 10
190.8164384715386
 20
-19.59591794226542
 30
0
 11
190.8164384715386
 21
-24.39591794226543
 31
0
  0
LINE
  8
1
 62
7
 10
190.8164384715386
 20
-24.39591794226543
 30
0
 11
188.3164384715386
 21
-24.39591794226543
 31
0
  0
LINE
  8
1
 62
7
 10
191.3164384715386
 20
17
 30
0
 11
198.3164384715386
 21
17
 31
0
  0
LINE
  8
1
 62
7
 10
198.3164384715386
 20
17
 30
0
 11
198.3164384715386
 21
10
 31
0
  0
LINE
  8
1
 62
7
 10
198.3164384715386
 20
10
 30
0
 11
191.3164384715386
 21
10
 31
0
  0
LINE
  8
1
 62
7
 10
191.3164384715386
 20
10
 30
0
 11
191.3164384715386
 21
17
 31
0
  0
LINE
  8
1
 62
7
 10
94.81643847153862
 20
-132
 30
0
 11
94.81643847153862
 21
-54.5
 31
0
  0
LINE
  8
1
 62
3
  6
DASHDOT
 10
272.3164384715385
 20
-136.997588817424
 30
0
 11
272.3164384715385
 21
-107.7297957819469
 31
0
  0
LINE
  8
1
 62
7
 10
244.8164384715385
 20
-132
 30
0
 11
244.8164384715385
 21
-114
 31
0
  0
LINE
  8
1
 62
7
 10
292.8164384715385
 20
-112
 30
0
 11
246.8164384715385
 21
-112
 31
0
  0
LINE
  8
1
 62
7
 10
244.8164384715385
 20
-132
 30
0
 11
294.8164384715385
 21
-132
 31
0
  0
LINE
  8
1
 62
7
 10
294.8164384715385
 20
-54.5
 30
0
 11
294.8164384715385
 21
-132
 31
0
  0
LINE
  8
1
 62
7
 10
263.0776268474102
 20
68.26118837587157
 30
0
 11
266.4236920623614
 21
67.36461290370352
 31
0
  0
LINE
  8
1
 62
7
 10
266.4236920623614
 20
67.36461290370352
 30
0
 11
268.8731818051446
 21
69.81410264648669
 31
0
  0
LINE
  8
1
 62
7
 10
268.8731818051446
 20
69.81410264648669
 30
0
 11
267.9766063329765
 21
73.16016786143793
 31
0
  0
LINE
  8
1
 62
7
 10
267.9766063329765
 20
73.16016786143793
 30
0
 11
264.6305411180253
 21
74.05674333360598
 31
0
  0
LINE
  8
1
 62
7
 10
264.6305411180253
 20
74.05674333360598
 30
0
 11
262.1810513752422
 21
71.60725359082281
 31
0
  0
LINE
  8
1
 62
7
 10
262.1810513752422
 20
71.60725359082281
 30
0
 11
263.0776268474102
 21
68.26118837587157
 31
0
  0
LINE
  8
1
 62
7
 10
151.4471255997025
 20
-29.65808661464062
 30
0
 11
124.4036185408263
 21
-45.27166269491439
 31
0
  0
LINE
  8
1
 62
7
 10
120.4036185408263
 20
-38.34345946463888
 30
0
 11
147.4471255997025
 21
-22.7298833843651
 31
0
  0
LINE
  8
1
 62
7
 10
242.1857513433746
 20
-22.72988338436519
 30
0
 11
269.2292584022508
 21
-38.34345946463899
 31
0
  0
LINE
  8
1
 62
7
 10
265.2292584022508
 20
-45.2716626949145
 30
0
 11
238.1857513433746
 21
-29.65808661464069
 31
0
  0
LINE
  8
1
 62
7
 10
126.555250095667
 20
68.26118837587161
 30
0
 11
127.4518255678352
 21
71.60725359082278
 31
0
  0
LINE
  8
1
 62
7
 10
127.4518255678352
 20
71.60725359082278
 30
0
 11
125.0023358250519
 21
74.05674333360594
 31
0
  0
LINE
  8
1
 62
7
 10
125.0023358250519
 20
74.05674333360594
 30
0
 11
121.6562706101006
 21
73.16016786143791
 31
0
  0
LINE
  8
1
 62
7
 10
121.6562706101006
 20
73.16016786143791
 30
0
 11
120.7596951379326
 21
69.81410264648673
 31
0
  0
LINE
  8
1
 62
7
 10
120.7596951379326
 20
69.81410264648673
 30
0
 11
123.2091848807158
 21
67.36461290370357
 31
0
  0
LINE
  8
1
 62
7
 10
123.2091848807158
 20
67.36461290370357
 30
0
 11
126.555250095667
 21
68.26118837587161
 31
0
  0
LINE
  8
1
 62
7
 10
126.555250095667
 20
-68.2611883758716
 30
0
 11
123.2091848807158
 21
-67.36461290370353
 31
0
  0
LINE
  8
1
 62
7
 10
123.2091848807158
 20
-67.36461290370353
 30
0
 11
120.7596951379327
 21
-69.8141026464867
 31
0
  0
LINE
  8
1
 62
7
 10
120.7596951379327
 20
-69.8141026464867
 30
0
 11
121.6562706101007
 21
-73.16016786143794
 31
0
  0
LINE
  8
1
 62
7
 10
121.6562706101007
 20
-73.16016786143794
 30
0
 11
125.0023358250519
 21
-74.05674333360599
 31
0
  0
LINE
  8
1
 62
7
 10
125.0023358250519
 20
-74.05674333360599
 30
0
 11
127.4518255678349
 21
-71.60725359082282
 31
0
  0
LINE
  8
1
 62
7
 10
127.4518255678349
 20
-71.60725359082282
 30
0
 11
126.555250095667
 21
-68.2611883758716
 31
0
  0
LINE
  8
1
 62
7
 10
263.0776268474102
 20
-68.26118837587161
 30
0
 11
262.1810513752422
 21
-71.60725359082279
 31
0
  0
LINE
  8
1
 62
7
 10
262.1810513752422
 20
-71.60725359082279
 30
0
 11
264.6305411180253
 21
-74.05674333360595
 31
0
  0
LINE
  8
1
 62
7
 10
264.6305411180253
 20
-74.05674333360595
 30
0
 11
267.9766063329765
 21
-73.16016786143793
 31
0
  0
LINE
  8
1
 62
7
 10
267.9766063329765
 20
-73.16016786143793
 30
0
 11
268.8731818051446
 21
-69.81410264648675
 31
0
  0
LINE
  8
1
 62
7
 10
268.8731818051446
 20
-69.81410264648675
 30
0
 11
266.4236920623614
 21
-67.36461290370359
 31
0
  0
LINE
  8
1
 62
7
 10
266.4236920623614
 20
-67.36461290370359
 30
0
 11
263.0776268474102
 21
-68.26118837587161
 31
0
  0
LINE
  8
1
 62
7
 10
-299.065237743907
 20
-75.71067811865476
 30
0
 11
-299.065237743907
 21
-65.71067811865476
 31
0
  0
LINE
  8
1
 62
7
 10
-293.465237743907
 20
-75.71067811865476
 30
0
 11
-299.065237743907
 21
-75.71067811865476
 31
0
  0
LINE
  8
1
 62
7
 10
-299.065237743907
 20
-75.71067811865476
 30
0
 11
-299.465237743907
 21
-75.01785779562721
 31
0
  0
LINE
  8
1
 62
7
 10
-299.465237743907
 20
-75.01785779562721
 30
0
 11
-299.465237743907
 21
-66.4034984416823
 31
0
  0
LINE
  8
1
 62
7
 10
-299.465237743907
 20
-66.4034984416823
 30
0
 11
-299.065237743907
 21
-65.71067811865476
 31
0
  0
LINE
  8
1
 62
7
 10
-299.065237743907
 20
-65.71067811865476
 30
0
 11
-293.465237743907
 21
-65.71067811865476
 31
0
  0
LINE
  8
1
 62
7
 10
-291.965237743907
 20
-76.81067811865474
 30
0
 11
-293.465237743907
 21
-76.81067811865474
 31
0
  0
LINE
  8
1
 62
7
 10
-293.465237743907
 20
-76.81067811865474
 30
0
 11
-293.465237743907
 21
-64.61067811865475
 31
0
  0
LINE
  8
1
 62
7
 10
-293.465237743907
 20
-64.61067811865475
 30
0
 11
-291.965237743907
 21
-64.61067811865473
 31
0
  0
LINE
  8
1
 62
7
 10
-293.465237743907
 20
-70.71067811865476
 30
0
 11
-291.965237743907
 21
-72.21067811865476
 31
0
  0
LINE
  8
1
 62
7
 10
-293.465237743907
 20
-69.21067811865476
 30
0
 11
-291.965237743907
 21
-70.71067811865476
 31
0
  0
LINE
  8
1
 62
7
 10
-341.965237743907
 20
349.7932003808751
 30
0
 11
-341.965237743907
 21
386.4787002999559
 31
0
  0
LINE
  8
1
 62
7
 10
-319.965237743907
 20
373.9787002999559
 30
0
 11
-319.965237743907
 21
359.9787002999559
 31
0
  0
LINE
  8
1
 62
7
 10
-333.965237743907
 20
359.9787002999559
 30
0
 11
-333.965237743907
 21
373.9787002999559
 31
0
  0
LINE
  8
1
 62
3
  6
DASHDOT
 10
-326.965237743907
 20
382.3988886830142
 30
0
 11
-326.965237743907
 21
351.5585119168976
 31
0
  0
LINE
  8
1
 62
3
  6
DASHDOT
 10
-316.7054183236422
 20
366.9787002999559
 30
0
 11
-337.162595283288
 21
366.9787002999559
 31
0
  0
LINE
  8
1
 62
7
 10
-390.065237743907
 20
268.6817618432362
 30
0
 11
-390.065237743907
 21
310.2756387566758
 31
0
  0
LINE
  8
1
 62
7
 10
-388.465237743907
 20
268.6817618432362
 30
0
 11
-390.065237743907
 21
268.6817618432362
 31
0
  0
LINE
  8
1
 62
7
 10
-291.965237743907
 20
189.4787002999561
 30
0
 11
-338.965237743907
 21
189.4787002999561
 31
0
  0
LINE
  8
1
 62
7
 10
-376.8515384225201
 20
240.478700299956
 30
0
 11
-309.9104239793576
 21
218.7680221813013
 31
0
  0
LINE
  8
1
 62
7
 10
-299.065237743907
 20
213.7680221813013
 30
0
 11
-299.065237743907
 21
223.7680221813013
 31
0
  0
LINE
  8
1
 62
7
 10
-293.465237743907
 20
213.7680221813013
 30
0
 11
-299.065237743907
 21
213.7680221813013
 31
0
  0
LINE
  8
1
 62
7
 10
-299.065237743907
 20
213.7680221813013
 30
0
 11
-299.465237743907
 21
214.4608425043288
 31
0
  0
LINE
  8
1
 62
7
 10
-299.465237743907
 20
214.4608425043288
 30
0
 11
-299.465237743907
 21
223.0752018582737
 31
0
  0
LINE
  8
1
 62
7
 10
-299.465237743907
 20
223.0752018582737
 30
0
 11
-299.065237743907
 21
223.7680221813013
 31
0
  0
LINE
  8
1
 62
7
 10
-299.065237743907
 20
223.7680221813013
 30
0
 11
-293.465237743907
 21
223.7680221813013
 31
0
  0
LINE
  8
1
 62
7
 10
-291.965237743907
 20
212.6680221813013
 30
0
 11
-293.465237743907
 21
212.6680221813013
 31
0
  0
LINE
  8
1
 62
7
 10
-293.465237743907
 20
212.6680221813013
 30
0
 11
-293.465237743907
 21
224.8680221813013
 31
0
  0
LINE
  8
1
 62
7
 10
-293.465237743907
 20
224.8680221813013
 30
0
 11
-291.965237743907
 21
224.8680221813013
 31
0
  0
LINE
  8
1
 62
7
 10
-293.465237743907
 20
218.7680221813013
 30
0
 11
-291.965237743907
 21
217.2680221813013
 31
0
  0
LINE
  8
1
 62
7
 10
-293.465237743907
 20
220.2680221813013
 30
0
 11
-291.965237743907
 21
218.7680221813013
 31
0
  0
LINE
  8
1
 62
7
 10
-451.465237743907
 20
275.478700299956
 30
0
 11
-451.4652377439069
 21
285.978700299956
 31
0
  0
LINE
  8
1
 62
7
 10
-308.465237743907
 20
202.1893784186108
 30
0
 11
-308.465237743907
 21
284.8120336332893
 31
0
  0
LINE
  8
1
 62
7
 10
-451.965237743907
 20
275.978700299956
 30
0
 11
-451.965237743907
 21
302.978700299956
 31
0
  0
LINE
  8
1
 62
7
 10
-291.965237743907
 20
401.478700299956
 30
0
 11
-291.965237743907
 21
177.478700299956
 31
0
  0
LINE
  8
1
 62
7
 10
-405.465237743907
 20
285.978700299956
 30
0
 11
-451.965237743907
 21
285.978700299956
 31
0
  0
LINE
  8
1
 62
7
 10
-451.465237743907
 20
275.478700299956
 30
0
 11
-451.965237743907
 21
275.978700299956
 31
0
  0
LINE
  8
1
 62
7
 10
-451.465237743907
 20
275.478700299956
 30
0
 11
-391.965237743907
 21
275.478700299956
 31
0
  0
LINE
  8
1
 62
7
 10
-391.965237743907
 20
306.478700299956
 30
0
 11
-391.965237743907
 21
272.478700299956
 31
0
  0
LINE
  8
1
 62
7
 10
-391.965237743907
 20
272.478700299956
 30
0
 11
-390.165237743907
 21
272.478700299956
 31
0
  0
LINE
  8
1
 62
7
 10
-310.4372643382735
 20
286.478700299956
 30
0
 11
-384.2142534766821
 21
286.478700299956
 31
0
  0
LINE
  8
1
 62
7
 10
-310.465237743907
 20
240.478700299956
 30
0
 11
-386.465237743907
 21
240.478700299956
 31
0
  0
LINE
  8
1
 62
7
 10
-293.965237743907
 20
200.1893784186108
 30
0
 11
-306.465237743907
 21
200.1893784186108
 31
0
  0
LINE
  8
1
 62
7
 10
-341.965237743907
 20
192.4787002999561
 30
0
 11
-341.965237743907
 21
229.164200219037
 31
0
  0
LINE
  8
1
 62
7
 10
-319.965237743907
 20
218.9787002999561
 30
0
 11
-319.965237743907
 21
204.9787002999561
 31
0
  0
LINE
  8
1
 62
7
 10
-333.965237743907
 20
204.9787002999561
 30
0
 11
-333.965237743907
 21
218.9787002999561
 31
0
  0
LINE
  8
1
 62
3
  6
DASHDOT
 10
-326.965237743907
 20
227.3988886830144
 30
0
 11
-326.965237743907
 21
196.5585119168978
 31
0
  0
LINE
  8
1
 62
3
  6
DASHDOT
 10
-337.162595283288
 20
211.9787002999561
 30
0
 11
-316.7054183236422
 21
211.9787002999561
 31
0
  0
LINE
  8
1
 62
3
 10
-451.965237743907
 20
289.478700299956
 30
0
 11
-458.7885222217434
 21
289.478700299956
 31
0
  0
LINE
  8
1
 62
7
 10
-259.9510395325631
 20
175.478700299956
 30
0
 11
-259.9510395325631
 21
171.478700299956
 31
0
  0
LINE
  8
1
 62
7
 10
-65.46523774390698
 20
310.2756387566758
 30
0
 11
-63.86523774390696
 21
310.2756387566758
 31
0
  0
LINE
  8
1
 62
7
 10
-161.965237743907
 20
389.4787002999559
 30
0
 11
-114.965237743907
 21
389.4787002999559
 31
0
  0
LINE
  8
1
 62
7
 10
-77.07893706529387
 20
338.478700299956
 30
0
 11
-144.0200515084564
 21
360.1893784186108
 31
0
  0
LINE
  8
1
 62
7
 10
-154.865237743907
 20
365.1893784186108
 30
0
 11
-154.865237743907
 21
355.1893784186108
 31
0
  0
LINE
  8
1
 62
7
 10
-160.465237743907
 20
365.1893784186108
 30
0
 11
-154.865237743907
 21
365.1893784186108
 31
0
  0
LINE
  8
1
 62
7
 10
-154.865237743907
 20
365.1893784186108
 30
0
 11
-154.465237743907
 21
364.4965580955832
 31
0
  0
LINE
  8
1
 62
7
 10
-154.465237743907
 20
364.4965580955832
 30
0
 11
-154.465237743907
 21
355.8821987416384
 31
0
  0
LINE
  8
1
 62
7
 10
-154.465237743907
 20
355.8821987416384
 30
0
 11
-154.865237743907
 21
355.1893784186108
 31
0
  0
LINE
  8
1
 62
7
 10
-154.865237743907
 20
355.1893784186108
 30
0
 11
-160.465237743907
 21
355.1893784186108
 31
0
  0
LINE
  8
1
 62
7
 10
-161.965237743907
 20
366.2893784186107
 30
0
 11
-160.465237743907
 21
366.2893784186107
 31
0
  0
LINE
  8
1
 62
7
 10
-160.465237743907
 20
366.2893784186107
 30
0
 11
-160.465237743907
 21
354.0893784186108
 31
0
  0
LINE
  8
1
 62
7
 10
-160.465237743907
 20
354.0893784186108
 30
0
 11
-161.965237743907
 21
354.0893784186108
 31
0
  0
LINE
  8
1
 62
7
 10
-160.465237743907
 20
360.1893784186108
 30
0
 11
-161.965237743907
 21
361.6893784186108
 31
0
  0
LINE
  8
1
 62
7
 10
-160.465237743907
 20
358.6893784186108
 30
0
 11
-161.965237743907
 21
360.1893784186108
 31
0
  0
LINE
  8
1
 62
7
 10
-2.465237743906982
 20
303.478700299956
 30
0
 11
-2.465237743907096
 21
292.978700299956
 31
0
  0
LINE
  8
1
 62
7
 10
-289.965237743907
 20
403.478700299956
 30
0
 11
-163.965237743907
 21
403.478700299956
 31
0
  0
LINE
  8
1
 62
7
 10
-145.465237743907
 20
376.7680221813013
 30
0
 11
-145.465237743907
 21
294.1453669666227
 31
0
  0
LINE
  8
1
 62
7
 10
-48.46523774390698
 20
292.978700299956
 30
0
 11
-1.965237743906982
 21
292.978700299956
 31
0
  0
LINE
  8
1
 62
7
 10
-2.465237743906982
 20
303.478700299956
 30
0
 11
-1.965237743906982
 21
302.978700299956
 31
0
  0
LINE
  8
1
 62
7
 10
-2.465237743906982
 20
303.478700299956
 30
0
 11
-61.96523774390698
 21
303.478700299956
 31
0
  0
LINE
  8
1
 62
7
 10
-61.96523774390698
 20
306.478700299956
 30
0
 11
-63.76523774390688
 21
306.4787002999561
 31
0
  0
LINE
  8
1
 62
7
 10
-143.4932111495405
 20
292.478700299956
 30
0
 11
-69.71622201113189
 21
292.478700299956
 31
0
  0
LINE
  8
1
 62
7
 10
-65.46523774390698
 20
336.4787002999561
 30
0
 11
-65.46523774390698
 21
289.4787002999767
 31
0
  0
LINE
  8
1
 62
7
 10
-143.465237743907
 20
338.478700299956
 30
0
 11
-67.46523774390687
 21
338.478700299956
 31
0
  0
LINE
  8
1
 62
7
 10
-159.965237743907
 20
378.7680221813013
 30
0
 11
-147.465237743907
 21
378.7680221813013
 31
0
  0
LINE
  8
1
 62
3
  6
DASHDOT
 10
-126.965237743907
 20
-137.734907071947
 30
0
 11
-126.965237743907
 21
-106.9521085078687
 31
0
  0
LINE
  8
1
 62
7
 10
-225.965237743907
 20
-59.5
 30
0
 11
-225.965237743907
 21
-63.51939923077924
 31
0
  0
LINE
  8
1
 62
7
 10
-199.227737743907
 20
-68.75
 30
0
 11
-198.702737743907
 21
-68.75
 31
0
  0
LINE
  8
1
 62
7
 10
-197.215237743907
 20
-67.2625
 30
0
 11
-197.215237743907
 21
-66.73750000000001
 31
0
  0
LINE
  8
1
 62
7
 10
-198.702737743907
 20
-65.25
 30
0
 11
-199.227737743907
 21
-65.25
 31
0
  0
LINE
  8
1
 62
7
 10
-200.715237743907
 20
-66.73750000000001
 30
0
 11
-200.715237743907
 21
-67.2625
 31
0
  0
LINE
  8
1
 62
7
 10
-225.965237743907
 20
-70.48060076922076
 30
0
 11
-225.965237743907
 21
-74.5
 31
0
  0
LINE
  8
1
 62
7
 10
-203.965237743907
 20
-77.5
 30
0
 11
-194.7928239508036
 21
-69.06896551724138
 31
0
  0
LINE
  8
1
 62
7
 10
-203.965237743907
 20
-56.5
 30
0
 11
-194.7928239508036
 21
-64.93103448275862
 31
0
  0
LINE
  8
1
 62
3
 10
-211.2814824020158
 20
-73.57692150578632
 30
0
 11
-208.6489930857982
 21
-72.05705309042925
 31
0
  0
LINE
  8
1
 62
3
 10
-208.1489930857982
 20
-72.92307849421368
 30
0
 11
-210.7814824020158
 21
-74.44294690957075
 31
0
  0
LINE
  8
1
 62
3
 10
-222.2814824020158
 20
-72.05705309042925
 30
0
 11
-219.6489930857982
 21
-73.57692150578632
 31
0
  0
LINE
  8
1
 62
3
 10
-220.1489930857982
 20
-74.44294690957075
 30
0
 11
-222.7814824020158
 21
-72.92307849421368
 31
0
  0
LINE
  8
1
 62
3
 10
-219.6489930857982
 20
-60.42307849421368
 30
0
 11
-222.2814824020158
 21
-61.94294690957075
 31
0
  0
LINE
  8
1
 62
3
 10
-222.7814824020158
 20
-61.07692150578632
 30
0
 11
-220.1489930857982
 21
-59.55705309042925
 31
0
  0
LINE
  8
1
 62
7
 10
-214.465237743907
 20
-59.5
 30
0
 11
-214.465237743907
 21
-74.5
 31
0
  0
LINE
  8
1
 62
7
 10
-216.465237743907
 20
-74.5
 30
0
 11
-216.465237743907
 21
-59.5
 31
0
  0
LINE
  8
1
 62
3
  6
DASHDOT
 10
-23.85087838996219
 20
0
 30
0
 11
1.034762256093018
 21
0
 31
0
  0
LINE
  8
1
 62
3
  6
DASHED
 10
-14.5044682284485
 20
-2.400000000000002
 30
0
 11
-13.46523774390698
 21
-3.000000000000002
 31
0
  0
LINE
  8
1
 62
3
  6
DASHED
 10
-14.5044682284485
 20
2.4
 30
0
 11
-13.46523774390698
 21
3
 31
0
  0
LINE
  8
1
 62
3
  6
DASHED
 10
-1.965237743906982
 20
-3.000000000000002
 30
0
 11
-13.46523774390698
 21
-3.000000000000002
 31
0
  0
LINE
  8
1
 62
3
  6
DASHED
 10
-13.46523774390698
 20
-3.000000000000002
 30
0
 11
-13.46523774390698
 21
3
 31
0
  0
LINE
  8
1
 62
3
  6
DASHED
 10
-13.46523774390698
 20
3
 30
0
 11
-1.965237743906982
 21
3
 31
0
  0
LINE
  8
1
 62
7
  6
DASHED
 10
-18.2652377439071
 20
-2.400000000000002
 30
0
 11
-19.99728855147589
 21
0
 31
0
  0
LINE
  8
1
 62
7
  6
DASHED
 10
-19.99728855147589
 20
0
 30
0
 11
-18.26523774390711
 21
2.4
 31
0
  0
LINE
  8
1
 62
7
  6
DASHED
 10
-1.965237743906982
 20
-2.400000000000002
 30
0
 11
-18.2652377439071
 21
-2.400000000000002
 31
0
  0
LINE
  8
1
 62
7
  6
DASHED
 10
-18.2652377439071
 20
-2.400000000000002
 30
0
 11
-18.26523774390711
 21
2.4
 31
0
  0
LINE
  8
1
 62
7
  6
DASHED
 10
-18.26523774390711
 20
2.4
 30
0
 11
-1.965237743906982
 21
2.4
 31
0
  0
LINE
  8
1
 62
7
 10
-173.965237743907
 20
-132
 30
0
 11
-173.965237743907
 21
-131
 31
0
  0
LINE
  8
1
 62
7
 10
-154.865237743907
 20
75.71067811865476
 30
0
 11
-154.865237743907
 21
65.71067811865476
 31
0
  0
LINE
  8
1
 62
7
 10
-160.465237743907
 20
75.71067811865476
 30
0
 11
-154.865237743907
 21
75.71067811865476
 31
0
  0
LINE
  8
1
 62
7
 10
-154.865237743907
 20
75.71067811865476
 30
0
 11
-154.465237743907
 21
75.01785779562721
 31
0
  0
LINE
  8
1
 62
7
 10
-154.465237743907
 20
75.01785779562721
 30
0
 11
-154.465237743907
 21
66.4034984416823
 31
0
  0
LINE
  8
1
 62
7
 10
-154.465237743907
 20
66.4034984416823
 30
0
 11
-154.865237743907
 21
65.71067811865476
 31
0
  0
LINE
  8
1
 62
7
 10
-154.865237743907
 20
65.71067811865476
 30
0
 11
-160.465237743907
 21
65.71067811865476
 31
0
  0
LINE
  8
1
 62
7
 10
-161.965237743907
 20
76.81067811865474
 30
0
 11
-160.465237743907
 21
76.81067811865474
 31
0
  0
LINE
  8
1
 62
7
 10
-160.465237743907
 20
76.81067811865474
 30
0
 11
-160.465237743907
 21
64.61067811865475
 31
0
  0
LINE
  8
1
 62
7
 10
-160.465237743907
 20
64.61067811865475
 30
0
 11
-161.965237743907
 21
64.61067811865473
 31
0
  0
LINE
  8
1
 62
7
 10
-160.465237743907
 20
70.71067811865476
 30
0
 11
-161.965237743907
 21
72.21067811865476
 31
0
  0
LINE
  8
1
 62
7
 10
-160.465237743907
 20
69.21067811865476
 30
0
 11
-161.965237743907
 21
70.71067811865476
 31
0
  0
LINE
  8
1
 62
7
 10
-63.76523774390699
 20
-18.75000000000008
 30
0
 11
-63.76523774390699
 21
18.75000000000009
 31
0
  0
LINE
  8
1
 62
7
 10
-2.465237743906982
 20
13.62347538297979
 30
0
 11
-2.465237743906982
 21
-14
 31
0
  0
LINE
  8
1
 62
7
 10
-2.465237743906982
 20
13.62347538297979
 30
0
 11
-1.965237743906982
 21
13.12347538297979
 31
0
  0
LINE
  8
1
 62
7
 10
-1.965237743906982
 20
17
 30
0
 11
-1.965237743906982
 21
-13.5
 31
0
  0
LINE
  8
1
 62
7
 10
-1.965237743906982
 20
-13.5
 30
0
 11
-2.465237743906982
 21
-14
 31
0
  0
LINE
  8
1
 62
7
 10
-185.465237743907
 20
-33.25
 30
0
 11
-180.465237743907
 21
-33.25
 31
0
  0
LINE
  8
1
 62
7
 10
-185.465237743907
 20
-30.75
 30
0
 11
-180.465237743907
 21
-30.75
 31
0
  0
LINE
  8
1
 62
7
 10
-207.590237743907
 20
-33
 30
0
 11
-218.340237743907
 21
-33
 31
0
  0
LINE
  8
1
 62
7
 10
-221.340237743907
 20
-36
 30
0
 11
-221.340237743907
 21
-54.5
 31
0
  0
LINE
  8
1
 62
7
 10
-223.340237743907
 20
-54.5
 30
0
 11
-223.340237743907
 21
-36
 31
0
  0
LINE
  8
1
 62
7
 10
-208.590237743907
 20
-54.5
 30
0
 11
-208.590237743907
 21
-36
 31
0
  0
LINE
  8
1
 62
7
 10
-218.340237743907
 20
-31
 30
0
 11
-180.465237743907
 21
-31
 31
0
  0
LINE
  8
1
 62
7
 10
-180.465237743907
 20
-33
 30
0
 11
-203.590237743907
 21
-33
 31
0
  0
LINE
  8
1
 62
7
 10
-206.590237743907
 20
-36
 30
0
 11
-206.590237743907
 21
-54.5
 31
0
  0
LINE
  8
1
 62
3
 10
-208.6489930857982
 20
-61.94294690957075
 30
0
 11
-211.2814824020158
 21
-60.42307849421368
 31
0
  0
LINE
  8
1
 62
3
 10
-210.7814824020158
 20
-59.55705309042925
 30
0
 11
-208.1489930857982
 21
-61.07692150578632
 31
0
  0
LINE
  8
1
 62
7
 10
-203.965237743907
 20
-56.5
 30
0
 11
-203.965237743907
 21
-77.5
 31
0
  0
LINE
  8
1
 62
7
 10
-205.965237743907
 20
-79.5
 30
0
 11
-247.965237743907
 21
-79.5
 31
0
  0
LINE
  8
1
 62
7
 10
-247.965237743907
 20
-54.5
 30
0
 11
-205.965237743907
 21
-54.5
 31
0
  0
LINE
  8
1
 62
7
 10
-68.91042397935757
 20
-19.31422623945008
 30
0
 11
-142.9104239793576
 21
-43.13046219005208
 31
0
  0
LINE
  8
1
 62
7
 10
-144.0200515084564
 20
-46.91495673062518
 30
0
 11
-68.74264462618169
 21
-22.72988338436519
 31
0
  0
LINE
  8
1
 62
7
 10
-68.14716620211897
 20
-18.89694437356941
 30
0
 11
-141.465237743907
 21
-18.89694437356941
 31
0
  0
LINE
  8
1
 62
7
 10
-145.465237743907
 20
88
 30
0
 11
-67.46523774390698
 21
49
 31
0
  0
LINE
  8
1
 62
7
 10
-49.96523774390698
 20
13.62347538297979
 30
0
 11
-2.465237743906982
 21
13.62347538297979
 31
0
  0
LINE
  8
1
 62
7
 10
-61.96523774390698
 20
-14
 30
0
 11
-2.465237743906982
 21
-14
 31
0
  0
LINE
  8
1
 62
7
 10
-1.965237743906982
 20
17
 30
0
 11
-51.96523774390698
 21
17
 31
0
  0
LINE
  8
1
 62
7
 10
-51.96523774390698
 20
17
 30
0
 11
-51.96523774390698
 21
14
 31
0
  0
LINE
  8
1
 62
7
 10
-51.96523774390698
 20
14
 30
0
 11
-61.96523774390698
 21
14
 31
0
  0
LINE
  8
1
 62
7
 10
-63.66523774390697
 20
-17
 30
0
 11
-61.96523774390698
 21
-16.99999999999999
 31
0
  0
LINE
  8
1
 62
7
 10
-61.96523774390698
 20
-16.99999999999999
 30
0
 11
-61.96523774390698
 21
17
 31
0
  0
LINE
  8
1
 62
7
 10
-61.96523774390698
 20
17
 30
0
 11
-63.66523774390697
 21
17
 31
0
  0
LINE
  8
1
 62
7
 10
-63.76523774390699
 20
-18.75000000000008
 30
0
 11
-65.46523774390698
 21
-18.75000000000007
 31
0
  0
LINE
  8
1
 62
7
 10
-65.46523774390698
 20
18.75000000000009
 30
0
 11
-63.76523774390699
 21
18.75000000000009
 31
0
  0
LINE
  8
1
 62
7
 10
-65.46523774390698
 20
-46.83646178829913
 30
0
 11
-65.46523774390698
 21
47
 31
0
  0
LINE
  8
1
 62
7
 10
-67.46523774390698
 20
49
 30
0
 11
-143.465237743907
 21
49
 31
0
  0
LINE
  8
1
 62
7
 10
-145.465237743907
 20
-51.83646178829912
 30
0
 11
-145.465237743907
 21
88
 31
0
  0
LINE
  8
1
 62
7
 10
-147.465237743907
 20
90
 30
0
 11
-159.965237743907
 21
90
 31
0
  0
LINE
  8
1
 62
7
 10
-277.965237743907
 20
-129
 30
0
 11
-175.965237743907
 21
-129
 31
0
  0
LINE
  8
1
 62
7
 10
-173.965237743907
 20
-132
 30
0
 11
-111.965237743907
 21
-132
 31
0
  0
LINE
  8
1
 62
7
 10
-111.965237743907
 20
-132
 30
0
 11
-111.965237743907
 21
-115
 31
0
  0
LINE
  8
1
 62
7
 10
-289.965237743907
 20
114
 30
0
 11
-163.965237743907
 21
114
 31
0
  0
LINE
  8
1
 62
7
 10
-161.965237743907
 20
112
 30
0
 11
-161.965237743907
 21
-109
 31
0
  0
LINE
  8
1
 62
7
 10
-159.965237743907
 20
-90
 30
0
 11
-147.465237743907
 21
-90
 31
0
  0
LINE
  8
1
 62
7
 10
-145.465237743907
 20
-88
 30
0
 11
-145.465237743907
 21
-50.83646178829911
 31
0
  0
LINE
  8
1
 62
7
 10
-143.465237743907
 20
-48.83646178829912
 30
0
 11
-67.46523774390698
 21
-48.83646178829912
 31
0
  0
LINE
  8
1
 62
7
 10
-143.465237743907
 20
-48.83646178829912
 30
0
 11
-67.46523774390698
 21
-48.83646178829912
 31
0
  0
LINE
  8
1
 62
7
 10
-114.965237743907
 20
-112
 30
0
 11
-158.965237743907
 21
-112
 31
0
  0
LINE
  8
1
 62
7
 10
-154.865237743907
 20
-65.71067811865476
 30
0
 11
-154.865237743907
 21
-75.71067811865476
 31
0
  0
LINE
  8
1
 62
7
 10
-154.865237743907
 20
-75.71067811865476
 30
0
 11
-160.465237743907
 21
-75.71067811865476
 31
0
  0
LINE
  8
1
 62
7
 10
-154.465237743907
 20
-75.01785779562721
 30
0
 11
-154.865237743907
 21
-75.71067811865476
 31
0
  0
LINE
  8
1
 62
7
 10
-154.465237743907
 20
-66.4034984416823
 30
0
 11
-154.465237743907
 21
-75.01785779562721
 31
0
  0
LINE
  8
1
 62
7
 10
-154.865237743907
 20
-65.71067811865476
 30
0
 11
-154.465237743907
 21
-66.4034984416823
 31
0
  0
LINE
  8
1
 62
7
 10
-160.465237743907
 20
-65.71067811865476
 30
0
 11
-154.865237743907
 21
-65.71067811865476
 31
0
  0
LINE
  8
1
 62
7
 10
-160.465237743907
 20
-76.81067811865474
 30
0
 11
-161.965237743907
 21
-76.81067811865474
 31
0
  0
LINE
  8
1
 62
7
 10
-160.465237743907
 20
-64.61067811865475
 30
0
 11
-160.465237743907
 21
-76.81067811865474
 31
0
  0
LINE
  8
1
 62
7
 10
-161.965237743907
 20
-64.61067811865473
 30
0
 11
-160.465237743907
 21
-64.61067811865475
 31
0
  0
LINE
  8
1
 62
7
 10
-161.965237743907
 20
-72.21067811865476
 30
0
 11
-160.465237743907
 21
-70.71067811865476
 31
0
  0
LINE
  8
1
 62
7
 10
-161.965237743907
 20
-70.71067811865476
 30
0
 11
-160.465237743907
 21
-69.21067811865476
 31
0
  0
LINE
  8
1
 62
7
 10
-111.965237743907
 20
386.4787002999559
 30
0
 11
-111.965237743907
 21
349.7932003808751
 31
0
  0
LINE
  8
1
 62
7
 10
-133.965237743907
 20
359.9787002999559
 30
0
 11
-133.965237743907
 21
373.9787002999559
 31
0
  0
LINE
  8
1
 62
7
 10
-119.965237743907
 20
373.9787002999559
 30
0
 11
-119.965237743907
 21
359.9787002999559
 31
0
  0
LINE
  8
1
 62
3
  6
DASHDOT
 10
-126.965237743907
 20
351.5585119168976
 30
0
 11
-126.965237743907
 21
382.3988886830142
 31
0
  0
LINE
  8
1
 62
3
  6
DASHDOT
 10
-116.767880204526
 20
366.9787002999559
 30
0
 11
-137.2250571641718
 21
366.9787002999559
 31
0
  0
LINE
  8
1
 62
7
 10
-63.86523774390696
 20
310.2756387566758
 30
0
 11
-63.86523774390696
 21
268.6817618432362
 31
0
  0
LINE
  8
1
 62
7
 10
-63.86523774390696
 20
268.6817618432362
 30
0
 11
-65.46523774390698
 21
268.6817618432362
 31
0
  0
LINE
  8
1
 62
7
 10
-114.965237743907
 20
189.4787002999561
 30
0
 11
-161.965237743907
 21
189.4787002999561
 31
0
  0
LINE
  8
1
 62
7
 10
-144.0200515084564
 20
218.7680221813013
 30
0
 11
-77.07893706529387
 21
240.478700299956
 31
0
  0
LINE
  8
1
 62
7
 10
-154.865237743907
 20
223.7680221813013
 30
0
 11
-154.865237743907
 21
213.7680221813013
 31
0
  0
LINE
  8
1
 62
7
 10
-154.865237743907
 20
213.7680221813013
 30
0
 11
-160.465237743907
 21
213.7680221813013
 31
0
  0
LINE
  8
1
 62
7
 10
-154.465237743907
 20
214.4608425043288
 30
0
 11
-154.865237743907
 21
213.7680221813013
 31
0
  0
LINE
  8
1
 62
7
 10
-154.465237743907
 20
223.0752018582737
 30
0
 11
-154.465237743907
 21
214.4608425043288
 31
0
  0
LINE
  8
1
 62
7
 10
-154.865237743907
 20
223.7680221813013
 30
0
 11
-154.465237743907
 21
223.0752018582737
 31
0
  0
LINE
  8
1
 62
7
 10
-160.465237743907
 20
223.7680221813013
 30
0
 11
-154.865237743907
 21
223.7680221813013
 31
0
  0
LINE
  8
1
 62
7
 10
-160.465237743907
 20
212.6680221813013
 30
0
 11
-161.965237743907
 21
212.6680221813013
 31
0
  0
LINE
  8
1
 62
7
 10
-160.465237743907
 20
224.8680221813013
 30
0
 11
-160.465237743907
 21
212.6680221813013
 31
0
  0
LINE
  8
1
 62
7
 10
-161.965237743907
 20
224.8680221813013
 30
0
 11
-160.465237743907
 21
224.8680221813013
 31
0
  0
LINE
  8
1
 62
7
 10
-161.965237743907
 20
217.2680221813013
 30
0
 11
-160.465237743907
 21
218.7680221813013
 31
0
  0
LINE
  8
1
 62
7
 10
-161.965237743907
 20
218.7680221813013
 30
0
 11
-160.465237743907
 21
220.2680221813013
 31
0
  0
LINE
  8
1
 62
7
 10
-2.465237743907096
 20
285.978700299956
 30
0
 11
-2.465237743906982
 21
275.478700299956
 31
0
  0
LINE
  8
1
 62
7
 10
-163.965237743907
 20
175.478700299956
 30
0
 11
-289.965237743907
 21
175.478700299956
 31
0
  0
LINE
  8
1
 62
7
 10
-145.465237743907
 20
284.8120336332893
 30
0
 11
-145.465237743907
 21
202.1893784186108
 31
0
  0
LINE
  8
1
 62
7
 10
-1.965237743906982
 20
302.978700299956
 30
0
 11
-1.965237743906982
 21
275.978700299956
 31
0
  0
LINE
  8
1
 62
7
 10
-161.965237743907
 20
177.478700299956
 30
0
 11
-161.965237743907
 21
401.478700299956
 31
0
  0
LINE
  8
1
 62
7
 10
-1.965237743906982
 20
285.978700299956
 30
0
 11
-48.46523774390698
 21
285.978700299956
 31
0
  0
LINE
  8
1
 62
7
 10
-1.965237743906982
 20
275.978700299956
 30
0
 11
-2.465237743906982
 21
275.478700299956
 31
0
  0
LINE
  8
1
 62
7
 10
-61.96523774390698
 20
275.478700299956
 30
0
 11
-2.465237743906982
 21
275.478700299956
 31
0
  0
LINE
  8
1
 62
7
 10
-61.96523774390698
 20
272.478700299956
 30
0
 11
-61.96523774390698
 21
306.478700299956
 31
0
  0
LINE
  8
1
 62
7
 10
-63.76523774390688
 20
272.478700299956
 30
0
 11
-61.96523774390698
 21
272.478700299956
 31
0
  0
LINE
  8
1
 62
7
 10
-69.71622201113189
 20
286.478700299956
 30
0
 11
-143.4932111495405
 21
286.478700299956
 31
0
  0
LINE
  8
1
 62
7
 10
-65.46523774390698
 20
289.4787002999353
 30
0
 11
-65.46523774390698
 21
242.478700299956
 31
0
  0
LINE
  8
1
 62
7
 10
-67.46523774390687
 20
240.478700299956
 30
0
 11
-143.465237743907
 21
240.478700299956
 31
0
  0
LINE
  8
1
 62
7
 10
-147.465237743907
 20
200.1893784186108
 30
0
 11
-159.965237743907
 21
200.1893784186108
 31
0
  0
LINE
  8
1
 62
7
 10
-111.965237743907
 20
229.164200219037
 30
0
 11
-111.965237743907
 21
192.4787002999561
 31
0
  0
LINE
  8
1
 62
7
 10
-133.965237743907
 20
204.9787002999561
 30
0
 11
-133.965237743907
 21
218.9787002999561
 31
0
  0
LINE
  8
1
 62
7
 10
-119.965237743907
 20
218.9787002999561
 30
0
 11
-119.965237743907
 21
204.9787002999561
 31
0
  0
LINE
  8
1
 62
3
  6
DASHDOT
 10
-126.965237743907
 20
196.5585119168978
 30
0
 11
-126.965237743907
 21
227.3988886830144
 31
0
  0
LINE
  8
1
 62
3
  6
DASHDOT
 10
-137.2250571641718
 20
211.9787002999561
 30
0
 11
-116.767880204526
 21
211.9787002999561
 31
0
  0
LINE
  8
1
 62
3
 10
4.858046733929427
 20
289.478700299956
 30
0
 11
-1.965237743906982
 21
289.478700299956
 31
0
  0
LINE
  8
1
 62
7
 10
-193.9794359552509
 20
171.478700299956
 30
0
 11
-193.9794359552509
 21
175.478700299956
 31
0
  0
LINE
  8
1
 62
7
 10
-259.9510395325631
 20
171.478700299956
 30
0
 11
-193.9794359552509
 21
171.478700299956
 31
0
  0
ARC
  8
1
 62
7
 10
93.11643847153869
 20
-67
 30
0
 40
7.000000000000133
 50
163.0422366999963
 51
196.9577633000037
  0
ARC
  8
1
 62
7
 10
-226.965237743907
 20
-67
 30
0
 40
3.621406041125481
 50
106.0297142583966
 51
253.9702857416035
  0
ARC
  8
1
 62
7
 10
-256.715237743907
 20
-68.75
 30
0
 40
1.487499999999983
 50
0
 51
90
  0
ARC
  8
1
 62
7
 10
-256.715237743907
 20
-65.25
 30
0
 40
1.487500000000011
 50
270
 51
0
  0
ARC
  8
1
 62
7
 10
-253.215237743907
 20
-65.25
 30
0
 40
1.487499999999983
 50
180
 51
270
  0
ARC
  8
1
 62
7
 10
-253.215237743907
 20
-68.75
 30
0
 40
1.487499999999997
 50
90
 51
180
  0
ARC
  8
1
 62
7
 10
-268.465237743907
 20
-32
 30
0
 40
1.25
 50
270
 51
306.8698976458441
  0
ARC
  8
1
 62
7
 10
-268.465237743907
 20
-32
 30
0
 40
1.25
 50
53.13010235415598
 51
90
  0
ARC
  8
1
 62
7
 10
-273.465237743907
 20
-32
 30
0
 40
1.25
 50
90
 51
270
  0
ARC
  8
1
 62
7
 10
-270.965237743907
 20
-32
 30
0
 40
4.999999999999903
 50
11.53695903281571
 51
348.4630409671843
  0
ARC
  8
1
 62
7
 10
-273.465237743907
 20
-32
 30
0
 40
1
 50
90
 51
270
  0
ARC
  8
1
 62
7
 10
194.8164384715386
 20
1.237500000000001
 30
0
 40
22.26250000000009
 50
299.3503732025814
 51
240.6496267974191
  0
ARC
  8
1
 62
7
 10
194.8164384715386
 20
0
 30
0
 40
14
 50
104.4775121859299
 51
75.52248781407008
  0
ARC
  8
1
 62
7
 10
-226.965237743907
 20
-67
 30
0
 40
3.621406041125481
 50
286.0297142583965
 51
73.97028574160346
  0
ARC
  8
1
 62
7
 10
-197.215237743907
 20
-68.75
 30
0
 40
1.487499999999997
 50
90
 51
180
  0
ARC
  8
1
 62
7
 10
-197.215237743907
 20
-65.25
 30
0
 40
1.487499999999983
 50
180
 51
270
  0
ARC
  8
1
 62
7
 10
-200.715237743907
 20
-65.25
 30
0
 40
1.487500000000011
 50
270
 51
0
  0
ARC
  8
1
 62
7
 10
-200.715237743907
 20
-68.75
 30
0
 40
1.487500000000011
 50
0
 51
90
  0
ARC
  8
1
 62
7
 10
-185.465237743907
 20
-32
 30
0
 40
1.25
 50
233.130102354156
 51
270
  0
ARC
  8
1
 62
7
 10
-185.465237743907
 20
-32
 30
0
 40
1.25
 50
90
 51
126.869897645844
  0
ARC
  8
1
 62
7
 10
-180.465237743907
 20
-32
 30
0
 40
1.25
 50
270
 51
90
  0
ARC
  8
1
 62
7
 10
-182.965237743907
 20
-32
 30
0
 40
5.000000000000043
 50
191.5369590328154
 51
168.4630409671846
  0
ARC
  8
1
 62
7
 10
-180.465237743907
 20
-32
 30
0
 40
1
 50
270
 51
90
  0
ARC
  8
1
 62
7
 10
-338.965237743907
 20
386.4787002999559
 30
0
 40
3
 50
90
 51
180
  0
ARC
  8
1
 62
7
 10
-386.465237743907
 20
336.4787002999561
 30
0
 40
1.999999999999943
 50
90
 51
180
  0
ARC
  8
1
 62
7
 10
-310.465237743907
 20
340.478700299956
 30
0
 40
2
 50
270
 51
0
  0
ARC
  8
1
 62
7
 10
-384.2142534766821
 20
294.478700299956
 30
0
 40
2.000000000000092
 50
172.8192442185421
 51
270
  0
ARC
  8
1
 62
7
 10
-310.4372643382735
 20
294.478700299956
 30
0
 40
2
 50
270
 51
350.40593177314
  0
ARC
  8
1
 62
7
 10
-310.465237743907
 20
362.1108834762847
 30
0
 40
1.999999999999991
 50
286.1055001235794
 51
0
  0
ARC
  8
1
 62
7
 10
-306.465237743907
 20
376.7680221813013
 30
0
 40
2
 50
90
 51
180
  0
ARC
  8
1
 62
7
 10
-293.965237743907
 20
380.7680221813013
 30
0
 40
2
 50
270
 51
0
  0
ARC
  8
1
 62
7
 10
-289.965237743907
 20
401.478700299956
 30
0
 40
2
 50
90
 51
180
  0
ARC
  8
1
 62
7
 10
146.8164384715386
 20
-131
 30
0
 40
2
 50
90
 51
180
  0
ARC
  8
1
 62
7
 10
142.8164384715386
 20
-114
 30
0
 40
2
 50
0
 51
90
  0
ARC
  8
1
 62
7
 10
96.81643847153862
 20
-114
 30
0
 40
2
 50
90
 51
180
  0
ARC
  8
1
 62
7
 10
86.81643847153862
 20
-70.00648467481611
 30
0
 40
2
 50
270
 51
0
  0
ARC
  8
1
 62
7
 10
86.81643847153862
 20
-63.99351532518389
 30
0
 40
2
 50
0
 51
90
  0
ARC
  8
1
 62
7
 10
87.81643847153862
 20
-69.45
 30
0
 40
0.2999999999999972
 50
270
 51
0
  0
ARC
  8
1
 62
7
 10
87.81643847153862
 20
-64.55000000000001
 30
0
 40
0.3000000000000682
 50
0
 51
90
  0
ARC
  8
1
 62
7
 10
87.37731832991403
 20
-68.75
 30
0
 40
0.9999999999999857
 50
196.9577633000039
 51
270
  0
ARC
  8
1
 62
7
 10
87.37731832991403
 20
-65.25
 30
0
 40
1
 50
90
 51
163.0422366999962
  0
ARC
  8
1
 62
7
 10
-256.965237743907
 20
-67
 30
0
 40
3.00000000000007
 50
136.3971810272976
 51
223.6028189727024
  0
ARC
  8
1
 62
7
 10
-247.965237743907
 20
-77.5
 30
0
 40
2
 50
180
 51
270
  0
ARC
  8
1
 62
7
 10
-247.965237743907
 20
-56.5
 30
0
 40
2
 50
90
 51
180
  0
ARC
  8
1
 62
7
 10
-238.465237743907
 20
-74.5
 30
0
 40
1
 50
180
 51
0
  0
ARC
  8
1
 62
7
 10
-238.465237743907
 20
-59.5
 30
0
 40
1
 50
0
 51
180
  0
ARC
  8
1
 62
7
 10
84.79969375585188
 20
-53.32522050279464
 30
0
 40
5
 50
0
 51
8.340039587214019
  0
ARC
  8
1
 62
7
 10
82.30347990522682
 20
-53.32640590489795
 30
0
 40
5
 50
0
 51
8.367062884878139
  0
ARC
  8
1
 62
7
 10
82.43222636842643
 20
-36.95120556501534
 30
0
 40
3.000000000000043
 50
93.1660269498208
 51
179.8731982726105
  0
ARC
  8
1
 62
7
 10
81.95353869313499
 20
-37.01313789160642
 30
0
 40
4.999999999999962
 50
92.39941445755754
 51
180
  0
ARC
  8
1
 62
7
 10
-235.590237743907
 20
-36
 30
0
 40
3
 50
0
 51
90
  0
ARC
  8
1
 62
7
 10
-235.590237743907
 20
-36
 30
0
 40
5
 50
0
 51
90
  0
ARC
  8
1
 62
7
 10
-250.340237743907
 20
-36
 30
0
 40
5
 50
0
 51
90
  0
ARC
  8
1
 62
7
 10
-250.340237743907
 20
-36
 30
0
 40
3
 50
0
 51
90
  0
ARC
  8
1
 62
7
 10
-385.465237743907
 20
-23.69063591320216
 30
0
 40
1.000000000000002
 50
73.89449987642068
 51
180
  0
ARC
  8
1
 62
7
 10
-384.465237743907
 20
-17.39272118177614
 30
0
 40
2
 50
180
 51
253.8944998764206
  0
ARC
  8
1
 62
7
 10
-310.465237743907
 20
-41.20895713237814
 30
0
 40
2.000000000000004
 50
253.8944998764206
 51
0
  0
ARC
  8
1
 62
7
 10
-310.465237743907
 20
-48.83646178829912
 30
0
 40
2
 50
0
 51
73.89449987642068
  0
ARC
  8
1
 62
7
 10
-289.965237743907
 20
112
 30
0
 40
2
 50
90
 51
180
  0
ARC
  8
1
 62
7
 10
-386.465237743907
 20
47
 30
0
 40
2
 50
90
 51
180
  0
ARC
  8
1
 62
7
 10
-306.465237743907
 20
88
 30
0
 40
2
 50
90
 51
180
  0
ARC
  8
1
 62
7
 10
-310.465237743907
 20
51
 30
0
 40
2
 50
270
 51
0
  0
ARC
  8
1
 62
7
 10
-293.965237743907
 20
92
 30
0
 40
2
 50
270
 51
0
  0
ARC
  8
1
 62
7
 10
-277.965237743907
 20
-131
 30
0
 40
2
 50
90
 51
180
  0
ARC
  8
1
 62
7
 10
186.8164384715386
 20
83.6151221595533
 30
0
 40
4
 50
0
 51
90
  0
ARC
  8
1
 62
7
 10
-293.965237743907
 20
-92
 30
0
 40
2
 50
0
 51
90
  0
ARC
  8
1
 62
7
 10
-306.465237743907
 20
-88
 30
0
 40
2
 50
180
 51
270
  0
ARC
  8
1
 62
7
 10
-310.465237743907
 20
-50.83646178829912
 30
0
 40
2
 50
0
 51
90
  0
ARC
  8
1
 62
7
 10
-386.465237743907
 20
-46.83646178829912
 30
0
 40
2
 50
180
 51
270
  0
ARC
  8
1
 62
7
 10
-294.965237743907
 20
-109
 30
0
 40
3
 50
270
 51
0
  0
ARC
  8
1
 62
7
 10
-338.965237743907
 20
-115
 30
0
 40
3
 50
90
 51
180
  0
ARC
  8
1
 62
7
 10
186.8164384715386
 20
52.38796999900574
 30
0
 40
4.00000000000002
 50
281.3598108325158
 51
0
  0
ARC
  8
1
 62
7
 10
202.8164384715386
 20
83.6151221595533
 30
0
 40
4
 50
90
 51
180
  0
ARC
  8
1
 62
7
 10
202.8164384715386
 20
52.38796999900574
 30
0
 40
4
 50
180
 51
258.6401891674863
  0
ARC
  8
1
 62
7
 10
201.3164384715386
 20
-21.89591794226543
 30
0
 40
2.5
 50
270
 51
0
  0
ARC
  8
1
 62
7
 10
188.3164384715386
 20
-21.89591794226543
 30
0
 40
2.5
 50
180
 51
270
  0
ARC
  8
1
 62
7
 10
207.5664384715386
 20
-21.43600119081744
 30
0
 40
3.749999999999909
 50
119.3503732025789
 51
180
  0
ARC
  8
1
 62
7
 10
182.0664384715386
 20
-21.43600119081744
 30
0
 40
3.75
 50
0
 51
60.6496267974188
  0
ARC
  8
1
 62
7
 10
242.8164384715385
 20
-131
 30
0
 40
2
 50
0
 51
90
  0
ARC
  8
1
 62
7
 10
246.8164384715385
 20
-114
 30
0
 40
2
 50
90
 51
180
  0
ARC
  8
1
 62
7
 10
292.8164384715385
 20
-114
 30
0
 40
2
 50
0
 51
90
  0
ARC
  8
1
 62
7
 10
126.4036185408263
 20
-48.73576431005215
 30
0
 40
4.000000000000003
 50
120
 51
210.0000000000006
  0
ARC
  8
1
 62
7
 10
153.4471255997025
 20
-33.12218822977838
 30
0
 40
4.000000000000122
 50
41.35981083251273
 51
120
  0
ARC
  8
1
 62
7
 10
118.4036185408263
 20
-34.87935784950112
 30
0
 40
3.999999999999959
 50
210.0000000000003
 51
299.9999999999999
  0
ARC
  8
1
 62
7
 10
145.4471255997025
 20
-19.26578176922735
 30
0
 40
3.999999999999996
 50
300.0000000000001
 51
18.64018916748515
  0
ARC
  8
1
 62
7
 10
271.2292584022508
 20
-34.87935784950124
 30
0
 40
3.999999999999996
 50
240
 51
330.0000000000003
  0
ARC
  8
1
 62
7
 10
244.1857513433746
 20
-19.26578176922744
 30
0
 40
4.000000000000044
 50
161.3598108325143
 51
240
  0
ARC
  8
1
 62
7
 10
263.2292584022508
 20
-48.73576431005225
 30
0
 40
4.000000000000033
 50
330.0000000000002
 51
59.99999999999997
  0
ARC
  8
1
 62
7
 10
236.1857513433746
 20
-33.12218822977846
 30
0
 40
4.000000000000011
 50
60.00000000000009
 51
138.6401891674868
  0
ARC
  8
1
 62
7
 10
-326.965237743907
 20
373.9787002999559
 30
0
 40
7
 50
0
 51
180
  0
ARC
  8
1
 62
7
 10
-326.965237743907
 20
359.9787002999559
 30
0
 40
6.999999999999925
 50
331.6652833123598
 51
0
  0
ARC
  8
1
 62
7
 10
-326.965237743907
 20
359.9787002999559
 30
0
 40
7
 50
180
 51
244.2730680484349
  0
ARC
  8
1
 62
7
  6
DASHED
 10
-326.965237743907
 20
359.9787002999559
 30
0
 40
7.000000000000009
 50
244.2730680484349
 51
331.6652833123598
  0
ARC
  8
1
 62
7
 10
-405.465237743907
 20
289.478700299956
 30
0
 40
3.5
 50
270
 51
90
  0
ARC
  8
1
 62
7
 10
-338.965237743907
 20
192.4787002999561
 30
0
 40
3
 50
180
 51
270
  0
ARC
  8
1
 62
7
 10
-386.465237743907
 20
242.478700299956
 30
0
 40
2
 50
180
 51
270
  0
ARC
  8
1
 62
7
 10
-310.465237743907
 20
238.478700299956
 30
0
 40
2
 50
0
 51
90
  0
ARC
  8
1
 62
7
 10
-384.2142534766821
 20
284.478700299956
 30
0
 40
2
 50
90
 51
187.1807557814584
  0
ARC
  8
1
 62
7
 10
-310.4372643382735
 20
284.478700299956
 30
0
 40
1.999999999999974
 50
9.594068226858385
 51
90
  0
ARC
  8
1
 62
7
 10
-310.465237743907
 20
216.8465171236273
 30
0
 40
2
 50
0
 51
73.89449987642102
  0
ARC
  8
1
 62
7
 10
-306.465237743907
 20
202.1893784186108
 30
0
 40
2
 50
180
 51
270
  0
ARC
  8
1
 62
7
 10
-293.965237743907
 20
198.1893784186108
 30
0
 40
2
 50
0
 51
90
  0
ARC
  8
1
 62
7
 10
-289.965237743907
 20
177.478700299956
 30
0
 40
2
 50
180
 51
270
  0
ARC
  8
1
 62
7
 10
-326.965237743907
 20
204.9787002999561
 30
0
 40
7
 50
180
 51
0
  0
ARC
  8
1
 62
7
 10
-326.965237743907
 20
218.9787002999561
 30
0
 40
7
 50
0
 51
28.33471668763981
  0
ARC
  8
1
 62
7
 10
-326.965237743907
 20
218.9787002999561
 30
0
 40
7.000000000000009
 50
115.7269319515651
 51
180
  0
ARC
  8
1
 62
7
  6
DASHED
 10
-326.965237743907
 20
218.9787002999561
 30
0
 40
7.000000000000026
 50
28.33471668763981
 51
115.7269319515651
  0
ARC
  8
1
 62
7
 10
-114.965237743907
 20
386.4787002999559
 30
0
 40
3
 50
0
 51
90
  0
ARC
  8
1
 62
7
 10
-67.46523774390698
 20
336.4787002999561
 30
0
 40
2
 50
0
 51
90
  0
ARC
  8
1
 62
7
 10
-143.465237743907
 20
340.478700299956
 30
0
 40
2
 50
180
 51
270
  0
ARC
  8
1
 62
7
 10
-69.71622201113189
 20
294.478700299956
 30
0
 40
2
 50
270
 51
7.180755781458257
  0
ARC
  8
1
 62
7
 10
-143.4932111495405
 20
294.478700299956
 30
0
 40
1.999999999999956
 50
189.5940682268601
 51
270
  0
ARC
  8
1
 62
7
 10
-143.465237743907
 20
362.1108834762847
 30
0
 40
2
 50
180
 51
253.8944998764214
  0
ARC
  8
1
 62
7
 10
-147.465237743907
 20
376.7680221813013
 30
0
 40
2
 50
0
 51
90
  0
ARC
  8
1
 62
7
 10
-159.965237743907
 20
380.7680221813013
 30
0
 40
2
 50
180
 51
270
  0
ARC
  8
1
 62
7
 10
-163.965237743907
 20
401.478700299956
 30
0
 40
2
 50
0
 51
90
  0
ARC
  8
1
 62
7
 10
-226.965237743907
 20
-74.5
 30
0
 40
1
 50
180
 51
0
  0
ARC
  8
1
 62
7
 10
-226.965237743907
 20
-59.5
 30
0
 40
1
 50
0
 51
180
  0
ARC
  8
1
 62
7
 10
-196.965237743907
 20
-67
 30
0
 40
2.999999999999968
 50
316.3971810272957
 51
43.60281897270425
  0
ARC
  8
1
 62
7
 10
-205.965237743907
 20
-77.5
 30
0
 40
2
 50
270
 51
0
  0
ARC
  8
1
 62
7
 10
-205.965237743907
 20
-56.5
 30
0
 40
2
 50
0
 51
90
  0
ARC
  8
1
 62
7
 10
-215.465237743907
 20
-74.5
 30
0
 40
1
 50
180
 51
0
  0
ARC
  8
1
 62
7
 10
-215.465237743907
 20
-59.5
 30
0
 40
1
 50
0
 51
180
  0
ARC
  8
1
 62
7
 10
-218.340237743907
 20
-36
 30
0
 40
3
 50
90
 51
180
  0
ARC
  8
1
 62
7
 10
-218.340237743907
 20
-36
 30
0
 40
5
 50
90
 51
180
  0
ARC
  8
1
 62
7
 10
-203.590237743907
 20
-36
 30
0
 40
5
 50
90
 51
180
  0
ARC
  8
1
 62
7
 10
-203.590237743907
 20
-36
 30
0
 40
3
 50
90
 51
180
  0
ARC
  8
1
 62
7
 10
-68.46523774390698
 20
-23.69063591320216
 30
0
 40
1
 50
0
 51
106.1055001235793
  0
ARC
  8
1
 62
7
 10
-69.46523774390698
 20
-17.39272118177614
 30
0
 40
2.000000000000004
 50
286.1055001235794
 51
0
  0
ARC
  8
1
 62
7
 10
-143.465237743907
 20
-41.20895713237814
 30
0
 40
2
 50
180
 51
286.1055001235794
  0
ARC
  8
1
 62
7
 10
-143.465237743907
 20
-48.83646178829912
 30
0
 40
1.999999999999997
 50
106.1055001235785
 51
180
  0
ARC
  8
1
 62
7
 10
-163.965237743907
 20
112
 30
0
 40
2
 50
0
 51
90
  0
ARC
  8
1
 62
7
 10
-67.46523774390698
 20
47
 30
0
 40
2
 50
0
 51
90
  0
ARC
  8
1
 62
7
 10
-147.465237743907
 20
88
 30
0
 40
2
 50
0
 51
90
  0
ARC
  8
1
 62
7
 10
-143.465237743907
 20
51
 30
0
 40
2
 50
180
 51
270
  0
ARC
  8
1
 62
7
 10
-159.965237743907
 20
92
 30
0
 40
2
 50
180
 51
270
  0
ARC
  8
1
 62
7
 10
-175.965237743907
 20
-131
 30
0
 40
2
 50
0
 51
90
  0
ARC
  8
1
 62
7
 10
-159.965237743907
 20
-92
 30
0
 40
2
 50
90
 51
180
  0
ARC
  8
1
 62
7
 10
-147.465237743907
 20
-88
 30
0
 40
2
 50
270
 51
0
  0
ARC
  8
1
 62
7
 10
-143.465237743907
 20
-50.83646178829912
 30
0
 40
2
 50
90
 51
180
  0
ARC
  8
1
 62
7
 10
-67.46523774390698
 20
-46.83646178829912
 30
0
 40
2
 50
270
 51
0
  0
ARC
  8
1
 62
7
 10
-158.965237743907
 20
-109
 30
0
 40
3
 50
180
 51
270
  0
ARC
  8
1
 62
7
 10
-114.965237743907
 20
-115
 30
0
 40
3
 50
0
 51
90
  0
ARC
  8
1
 62
7
 10
-126.965237743907
 20
373.9787002999559
 30
0
 40
7
 50
0
 51
180
  0
ARC
  8
1
 62
7
 10
-126.965237743907
 20
359.9787002999559
 30
0
 40
7.000000000000014
 50
180
 51
208.3347166876398
  0
ARC
  8
1
 62
7
 10
-126.965237743907
 20
359.9787002999559
 30
0
 40
6.999999999999996
 50
295.7269319515649
 51
0
  0
ARC
  8
1
 62
7
  6
DASHED
 10
-126.965237743907
 20
359.9787002999559
 30
0
 40
7.000000000000038
 50
208.3347166876398
 51
295.7269319515649
  0
ARC
  8
1
 62
7
 10
-48.46523774390698
 20
289.478700299956
 30
0
 40
3.5
 50
90
 51
270
  0
ARC
  8
1
 62
7
 10
-114.965237743907
 20
192.4787002999561
 30
0
 40
3
 50
270
 51
0
  0
ARC
  8
1
 62
7
 10
-67.46523774390698
 20
242.478700299956
 30
0
 40
2
 50
270
 51
0
  0
ARC
  8
1
 62
7
 10
-143.465237743907
 20
238.478700299956
 30
0
 40
2
 50
90
 51
180
  0
ARC
  8
1
 62
7
 10
-69.71622201113189
 20
284.478700299956
 30
0
 40
2.000000000000092
 50
352.8192442185421
 51
90
  0
ARC
  8
1
 62
7
 10
-143.4932111495405
 20
284.478700299956
 30
0
 40
2
 50
90
 51
170.4059317731415
  0
ARC
  8
1
 62
7
 10
-143.465237743907
 20
216.8465171236273
 30
0
 40
2.000000000000038
 50
106.1055001235782
 51
180
  0
ARC
  8
1
 62
7
 10
-147.465237743907
 20
202.1893784186108
 30
0
 40
2
 50
270
 51
0
  0
ARC
  8
1
 62
7
 10
-159.965237743907
 20
198.1893784186108
 30
0
 40
2
 50
90
 51
180
  0
ARC
  8
1
 62
7
 10
-163.965237743907
 20
177.478700299956
 30
0
 40
2
 50
270
 51
0
  0
ARC
  8
1
 62
7
 10
-126.965237743907
 20
204.9787002999561
 30
0
 40
7.000000000000014
 50
180
 51
0
  0
ARC
  8
1
 62
7
 10
-126.965237743907
 20
218.9787002999561
 30
0
 40
7.000000000000038
 50
151.6652833123603
 51
180
  0
ARC
  8
1
 62
7
 10
-126.965237743907
 20
218.9787002999561
 30
0
 40
7
 50
0
 51
64.27306804843509
  0
ARC
  8
1
 62
7
  6
DASHED
 10
-126.965237743907
 20
218.9787002999561
 30
0
 40
6.999999999999996
 50
64.27306804843509
 51
151.6652833123603
  0
CIRCLE
  8
1
 62
7
 10
194.8164384715386
 20
0
 30
0
 40
114
  0
CIRCLE
  8
1
 62
7
 10
-254.965237743907
 20
-67
 30
0
 40
2.75
  0
CIRCLE
  8
1
 62
3
 10
-244.215237743907
 20
-73.25
 30
0
 40
2.442134781882402
  0
CIRCLE
  8
1
 62
3
 10
-244.215237743907
 20
-73.25
 30
0
 40
1.600000000000023
  0
CIRCLE
  8
1
 62
3
 10
-232.715237743907
 20
-73.25
 30
0
 40
2.442134781882402
  0
CIRCLE
  8
1
 62
3
 10
-232.715237743907
 20
-73.25
 30
0
 40
1.600000000000023
  0
CIRCLE
  8
1
 62
3
 10
-232.715237743907
 20
-60.75
 30
0
 40
2.442134781882402
  0
CIRCLE
  8
1
 62
3
 10
-232.715237743907
 20
-60.75
 30
0
 40
1.600000000000023
  0
CIRCLE
  8
1
 62
3
 10
-244.215237743907
 20
-60.75
 30
0
 40
2.442134781882402
  0
CIRCLE
  8
1
 62
3
 10
194.8164384715386
 20
0
 30
0
 40
3
  0
CIRCLE
  8
1
 62
7
 10
194.8164384715386
 20
0
 30
0
 40
2.400000000000006
  0
CIRCLE
  8
1
 62
3
 10
-244.215237743907
 20
-60.75
 30
0
 40
1.600000000000023
  0
CIRCLE
  8
1
 62
7
 10
194.8164384715386
 20
0
 30
0
 40
20
  0
CIRCLE
  8
1
 62
7
 10
201.3164384715386
 20
-21.99591794226542
 30
0
 40
1.25
  0
CIRCLE
  8
1
 62
7
 10
188.3164384715386
 20
-21.99591794226542
 30
0
 40
1.25
  0
CIRCLE
  8
1
 62
7
 10
194.8164384715386
 20
0
 30
0
 40
40
  0
CIRCLE
  8
1
 62
7
 10
194.8164384715386
 20
0
 30
0
 40
49
  0
CIRCLE
  8
1
 62
7
 10
194.8164384715386
 20
0
 30
0
 40
90.00000000000003
  0
CIRCLE
  8
1
 62
7
 10
194.8164384715386
 20
0
 30
0
 40
110
  0
CIRCLE
  8
1
 62
7
 10
265.5271165901934
 20
70.71067811865476
 30
0
 40
6.5
  0
CIRCLE
  8
1
 62
7
 10
124.1057603528839
 20
70.71067811865476
 30
0
 40
6.499999999999986
  0
CIRCLE
  8
1
 62
7
 10
124.1057603528839
 20
-70.71067811865477
 30
0
 40
6.499999999999986
  0
CIRCLE
  8
1
 62
7
 10
265.5271165901934
 20
-70.71067811865477
 30
0
 40
6.5
  0
CIRCLE
  8
1
 62
7
 10
-198.965237743907
 20
-67
 30
0
 40
2.75
  0
CIRCLE
  8
1
 62
3
 10
-209.715237743907
 20
-73.25
 30
0
 40
2.442134781882402
  0
CIRCLE
  8
1
 62
3
 10
-209.715237743907
 20
-73.25
 30
0
 40
1.600000000000023
  0
CIRCLE
  8
1
 62
3
 10
-221.215237743907
 20
-73.25
 30
0
 40
2.442134781882402
  0
CIRCLE
  8
1
 62
3
 10
-221.215237743907
 20
-73.25
 30
0
 40
1.600000000000023
  0
CIRCLE
  8
1
 62
3
 10
-221.215237743907
 20
-60.75
 30
0
 40
2.442134781882402
  0
CIRCLE
  8
1
 62
3
 10
-221.215237743907
 20
-60.75
 30
0
 40
1.600000000000023
  0
CIRCLE
  8
1
 62
3
 10
-209.715237743907
 20
-60.75
 30
0
 40
2.442134781882402
  0
CIRCLE
  8
1
 62
3
 10
-209.715237743907
 20
-60.75
 30
0
 40
1.600000000000023
  0
TEXT
  8
1
 62
7
 10
-460.7535225019074
 20
309.121875076944
 30
0
 40
5
  1
INPUT
 41
0.891
  7
SIMPLEX
  0
TEXT
  8
1
 62
7
 10
-239.431318400963
 20
-85.8846102178199
 30
0
 40
3.5
  1
CL    BR
 41
0.8910000000000004
  7
SIMPLEX
  0
TEXT
  8
1
 62
7
 10
-17.93180005014216
 20
309.121875076944
 30
0
 40
5
  1
OUTPUT
 41
0.891
  7
SIMPLEX
  0
TEXT
  8
1
 62
7
 10
146.1388985418446
 20
347.911350654487
 30
0
 40
10
  1
TMAU 10
 41
0.9
  7
SIMPLEX
  0
TEXT
  8
1
 62
7
 10
146.1388985418446
 20
332.911350654487
 30
0
 40
10
  1
DC2414
 41
0.9
  7
SIMPLEX
  0
ENDSEC
  0
EOF
