  0
SECTION
  2
HEADER
  9
$ACADVER
  1
AC1009
  9
$INSBASE
 10
0.0
 20
0.0
 30
0.0
  9
$EXTMIN
 10
-1665.6374177714299
 20
-829.2323036144395
 30
0.0
  9
$EXTMAX
 10
-887.67076368556775
 20
-558.37375651973878
 30
0.0
  9
$LIMMIN
 10
-1665.6374177714299
 20
-829.2323036144395
  9
$LIMMAX
 10
-888.32498413744781
 20
-558.37375651973878
  9
$ORTHOMODE
 70
     0
  9
$REGENMODE
 70
     1
  9
$FILLMODE
 70
     1
  9
$QTEXTMODE
 70
     0
  9
$MIRRTEXT
 70
     1
  9
$DRAGMODE
 70
     2
  9
$LTSCALE
 40
1.0
  9
$OSMODE
 70
    37
  9
$ATTMODE
 70
     1
  9
$TEXTSIZE
 40
3.5
  9
$TRACEWID
 40
0.5
  9
$TEXTSTYLE
  7
STANDARD
  9
$CLAYER
  8
0
  9
$CELTYPE
  6
BYLAYER
  9
$CECOLOR
 62
   256
  9
$DIMSCALE
 40
1.0
  9
$DIMASZ
 40
0.18
  9
$DIMEXO
 40
0.0625
  9
$DIMDLI
 40
0.38
  9
$DIMRND
 40
0.0
  9
$DIMDLE
 40
0.0
  9
$DIMEXE
 40
0.18
  9
$DIMTP
 40
0.0
  9
$DIMTM
 40
0.0
  9
$DIMTXT
 40
0.18
  9
$DIMCEN
 40
0.09
  9
$DIMTSZ
 40
0.0
  9
$DIMTOL
 70
     0
  9
$DIMLIM
 70
     0
  9
$DIMTIH
 70
     1
  9
$DIMTOH
 70
     1
  9
$DIMSE1
 70
     0
  9
$DIMSE2
 70
     0
  9
$DIMTAD
 70
     0
  9
$DIMZIN
 70
     0
  9
$DIMBLK
  1

  9
$DIMASO
 70
     1
  9
$DIMSHO
 70
     1
  9
$DIMPOST
  1

  9
$DIMAPOST
  1

  9
$DIMALT
 70
     0
  9
$DIMALTD
 70
     2
  9
$DIMALTF
 40
25.399999999999999
  9
$DIMLFAC
 40
1.0
  9
$DIMTOFL
 70
     0
  9
$DIMTVP
 40
0.0
  9
$DIMTIX
 70
     0
  9
$DIMSOXD
 70
     0
  9
$DIMSAH
 70
     0
  9
$DIMBLK1
  1

  9
$DIMBLK2
  1

  9
$DIMSTYLE
  2
STANDARD
  9
$DIMCLRD
 70
     0
  9
$DIMCLRE
 70
     0
  9
$DIMCLRT
 70
     0
  9
$DIMTFAC
 40
1.0
  9
$DIMGAP
 40
0.09
  9
$LUNITS
 70
     2
  9
$LUPREC
 70
     4
  9
$SKETCHINC
 40
0.1
  9
$FILLETRAD
 40
2.0
  9
$AUNITS
 70
     0
  9
$AUPREC
 70
     0
  9
$MENU
  1
ACAD
  9
$ELEVATION
 40
0.0
  9
$PELEVATION
 40
0.0
  9
$THICKNESS
 40
0.0
  9
$LIMCHECK
 70
     0
  9
$BLIPMODE
 70
     0
  9
$CHAMFERA
 40
0.0
  9
$CHAMFERB
 40
0.0
  9
$SKPOLY
 70
     0
  9
$TDCREATE
 40
2452094.891478241
  9
$TDUPDATE
 40
2452094.8928361111
  9
$TDINDWG
 40
0.001371875
  9
$TDUSRTIMER
 40
0.001371875
  9
$USRTIMER
 70
     1
  9
$ANGBASE
 50
0.0
  9
$ANGDIR
 70
     0
  9
$PDMODE
 70
     0
  9
$PDSIZE
 40
0.0
  9
$PLINEWID
 40
0.0
  9
$COORDS
 70
     1
  9
$SPLFRAME
 70
     0
  9
$SPLINETYPE
 70
     6
  9
$SPLINESEGS
 70
     8
  9
$ATTDIA
 70
     0
  9
$ATTREQ
 70
     1
  9
$HANDLING
 70
 10241
  9
$HANDSEED
  5
39F
  9
$SURFTAB1
 70
     6
  9
$SURFTAB2
 70
     6
  9
$SURFTYPE
 70
     6
  9
$SURFU
 70
     6
  9
$SURFV
 70
     6
  9
$UCSNAME
  2

  9
$UCSORG
 10
0.0
 20
0.0
 30
0.0
  9
$UCSXDIR
 10
1.0
 20
0.0
 30
0.0
  9
$UCSYDIR
 10
0.0
 20
1.0
 30
0.0
  9
$PUCSNAME
  2

  9
$PUCSORG
 10
0.0
 20
0.0
 30
0.0
  9
$PUCSXDIR
 10
1.0
 20
0.0
 30
0.0
  9
$PUCSYDIR
 10
0.0
 20
1.0
 30
0.0
  9
$USERI1
 70
     0
  9
$USERI2
 70
     0
  9
$USERI3
 70
     0
  9
$USERI4
 70
     0
  9
$USERI5
 70
     0
  9
$USERR1
 40
0.0
  9
$USERR2
 40
0.0
  9
$USERR3
 40
0.0
  9
$USERR4
 40
0.0
  9
$USERR5
 40
0.0
  9
$WORLDVIEW
 70
     1
  9
$SHADEDGE
 70
     3
  9
$SHADEDIF
 70
    70
  9
$TILEMODE
 70
     1
  9
$MAXACTVP
 70
    64
  9
$PLIMCHECK
 70
     0
  9
$PEXTMIN
 10
1.0000000000000000E+020
 20
1.0000000000000000E+020
 30
1.0000000000000000E+020
  9
$PEXTMAX
 10
-1.0000000000000000E+020
 20
-1.0000000000000000E+020
 30
-1.0000000000000000E+020
  9
$PLIMMIN
 10
0.0
 20
0.0
  9
$PLIMMAX
 10
12.0
 20
9.0
  9
$UNITMODE
 70
     0
  9
$VISRETAIN
 70
     1
  9
$PLINEGEN
 70
     0
  9
$PSLTSCALE
 70
     1
  0
ENDSEC
  0
SECTION
  2
TABLES
  0
TABLE
  2
VPORT
 70
     2
  0
VPORT
  2
*ACTIVE
 70
     0
 10
0.0
 20
0.0
 11
1.0
 21
1.0
 12
-1588.89604172499
 22
-579.41940185366866
 13
0.0
 23
0.0
 14
1.0
 24
1.0
 15
0.0
 25
0.0
 16
0.0
 26
0.0
 36
1.0
 17
0.0
 27
0.0
 37
0.0
 40
8.999999964759672
 41
2.4144144144144142
 42
50.0
 43
0.0
 44
0.0
 50
0.0
 51
0.0
 71
     0
 72
   100
 73
     1
 74
     1
 75
     0
 76
     0
 77
     0
 78
     0
  0
ENDTAB
  0
TABLE
  2
LTYPE
 70
     9
  0
LTYPE
  2
CONTINUOUS
 70
     0
  3
Solid line
 72
    65
 73
     0
 40
0.0
  0
LTYPE
  2
BORDER
 70
     0
  3
__ __ . __ __ .
 72
    65
 73
     6
 40
35.797283127880739
 49
10.2277951793945
 49
-5.1138975896972481
 49
10.2277951793945
 49
-5.1138975896972481
 49
0.0
 49
-5.1138975896972481
  0
LTYPE
  2
CENTER
 70
     0
  3
____ _ ____ _
 72
    65
 73
     4
 40
40.911180717577992
 49
25.569487948486248
 49
-5.1138975896972481
 49
5.1138975896972481
 49
-5.1138975896972481
  0
LTYPE
  2
DASHDOT
 70
     0
  3
__ . __ . __ .
 72
    65
 73
     4
 40
20.455590358788999
 49
10.2277951793945
 49
-5.1138975896972481
 49
0.0
 49
-5.1138975896972481
  0
LTYPE
  2
DASHED
 70
     0
  3
__ __ __ __ __
 72
    65
 73
     2
 40
15.34169276909175
 49
10.2277951793945
 49
-5.1138975896972481
  0
LTYPE
  2
DIVIDE
 70
     0
  3
__ . . __ . . 
 72
    65
 73
     6
 40
25.569487948486248
 49
10.2277951793945
 49
-5.1138975896972481
 49
0.0
 49
-5.1138975896972481
 49
0.0
 49
-5.1138975896972481
  0
LTYPE
  2
DOT
 70
     0
  3
..............
 72
    65
 73
     4
 40
10.2277951793945
 49
0.0
 49
-5.1138975896972481
 49
0.0
 49
-5.1138975896972481
  0
LTYPE
  2
HIDDEN
 70
     0
  3
_ _ _ _ _ _ _
 72
    65
 73
     2
 40
7.6708463845458716
 49
5.1138975896972481
 49
-2.556948794848624
  0
LTYPE
  2
PHANTOM
 70
     0
  3
_____ _ _ _____ _ _ 
 72
    65
 73
     6
 40
51.138975896972489
 49
25.569487948486248
 49
-5.1138975896972481
 49
5.1138975896972481
 49
-5.1138975896972481
 49
5.1138975896972481
 49
-5.1138975896972481
  0
ENDTAB
  0
TABLE
  2
LAYER
 70
     2
  0
LAYER
  2
0
 70
     0
 62
     7
  6
CONTINUOUS
  0
LAYER
  2
1
 70
     0
 62
     7
  6
CONTINUOUS
  0
ENDTAB
  0
TABLE
  2
STYLE
 70
     4
  0
STYLE
  2
STANDARD
 70
     0
 40
0.0
 41
1.0
 50
0.0
 71
     0
 42
3.5
  3
txt
  4

  0
STYLE
  2
SIMPLEX
 70
     0
 40
0.0
 41
1.0
 50
0.0
 71
     0
 42
3.5
  3
simplex
  4

  0
STYLE
  2
COMPLEX
 70
     0
 40
0.0
 41
1.0
 50
0.0
 71
     0
 42
3.5
  3
complex
  4

  0
STYLE
  2
ITALIC
 70
     0
 40
0.0
 41
1.0
 50
0.0
 71
     0
 42
3.5
  3
italic
  4

  0
ENDTAB
  0
TABLE
  2
VIEW
 70
     0
  0
ENDTAB
  0
TABLE
  2
UCS
 70
     0
  0
ENDTAB
  0
TABLE
  2
APPID
 70
     1
  0
APPID
  2
ACAD
 70
     0
  0
ENDTAB
  0
TABLE
  2
DIMSTYLE
 70
     1
  0
DIMSTYLE
  2
STANDARD
 70
     0
  3

  4

  5

  6

  7

 40
1.0
 41
0.18
 42
0.0625
 43
0.38
 44
0.18
 45
0.0
 46
0.0
 47
0.0
 48
0.0
140
0.18
141
0.09
142
0.0
143
25.399999999999999
144
1.0
145
0.0
146
1.0
147
0.09
 71
     0
 72
     0
 73
     1
 74
     1
 75
     0
 76
     0
 77
     0
 78
     0
170
     0
171
     2
172
     0
173
     0
174
     0
175
     0
176
     0
177
     0
178
     0
  0
ENDTAB
  0
ENDSEC
  0
SECTION
  2
BLOCKS
  0
BLOCK
  8
0
  2
$MODEL_SPACE
 70
     0
 10
0.0
 20
0.0
 30
0.0
  3
$MODEL_SPACE
  1

  0
ENDBLK
  5
20
  8
0
  0
BLOCK
 67
     1
  8
0
  2
$PAPER_SPACE
 70
     0
 10
0.0
 20
0.0
 30
0.0
  3
$PAPER_SPACE
  1

  0
ENDBLK
  5
1C
 67
     1
  8
0
  0
ENDSEC
  0
SECTION
  2
ENTITIES
  0
POLYLINE
  5
33
  8
1
 62
     2
 66
     1
 10
0.0
 20
0.0
 30
0.0
  0
VERTEX
  5
324
  8
1
 62
     2
 10
-1233.578450393773
 20
-647.14686980743204
 30
0.0
 42
-0.0013743971570926
  0
VERTEX
  5
325
  8
1
 62
     2
 10
-1233.6404809860239
 20
-647.1946869827085
 30
0.0
 42
-0.0100798071536512
  0
VERTEX
  5
326
  8
1
 62
     2
 10
-1233.70235125819
 20
-647.24129324928947
 30
0.0
 42
-0.0014138466227072
  0
VERTEX
  5
327
  8
1
 62
     2
 10
-1233.763900890181
 20
-647.28547769848024
 30
0.0
 42
-0.016807002357181
  0
VERTEX
  5
328
  8
1
 62
     2
 10
-1233.8249695619149
 20
-647.32602942158485
 30
0.0
 42
-0.0094238339178169
  0
VERTEX
  5
329
  8
1
 62
     2
 10
-1233.885396953302
 20
-647.36173750990849
 30
0.0
 42
-0.0266893103295158
  0
VERTEX
  5
32A
  8
1
 62
     2
 10
-1233.945022744256
 20
-647.39139105475567
 30
0.0
 42
-0.0217873586438632
  0
VERTEX
  5
32B
  8
1
 62
     2
 10
-1234.003686614692
 20
-647.41377914743123
 30
0.0
 42
-0.0419193181564711
  0
VERTEX
  5
32C
  8
1
 62
     2
 10
-1234.061228244522
 20
-647.42769087923989
 30
0.0
 42
-0.039259032281141
  0
VERTEX
  5
32D
  8
1
 62
     2
 10
-1234.117487313659
 20
-647.43191534148616
 30
0.0
 42
-0.0588788820934833
  0
VERTEX
  5
32E
  8
1
 62
     2
 10
-1234.17230350202
 20
-647.42524162547488
 30
0.0
 42
-0.0757849765601002
  0
VERTEX
  5
32F
  8
1
 62
     2
 10
-1234.2582047830449
 20
-647.38992609085835
 30
0.0
 42
-0.0476220313349532
  0
VERTEX
  5
330
  8
1
 62
     2
 10
-1234.340559132728
 20
-647.32905568782337
 30
0.0
 42
-0.0282373939541874
  0
VERTEX
  5
331
  8
1
 62
     2
 10
-1234.42006168956
 20
-647.24911619461363
 30
0.0
 42
-0.0149551712800181
  0
VERTEX
  5
332
  8
1
 62
     2
 10
-1234.49740759203
 20
-647.15659338947239
 30
0.0
 42
-0.005271173065724
  0
VERTEX
  5
333
  8
1
 62
     2
 10
-1234.5732919786269
 20
-647.05797305064323
 30
0.0
 42
0.0110951804169867
  0
VERTEX
  5
334
  8
1
 62
     2
 10
-1234.6484099878401
 20
-646.95974095636996
 30
0.0
 42
0.0063283908713305
  0
VERTEX
  5
335
  8
1
 62
     2
 10
-1234.723456758162
 20
-646.8683828848956
 30
0.0
 42
0.0349679150945958
  0
VERTEX
  5
336
  8
1
 62
     2
 10
-1234.7991274280789
 20
-646.79038461446385
 30
0.0
 42
0.0418907100122309
  0
VERTEX
  5
337
  8
1
 62
     2
 10
-1234.876117136082
 20
-646.73223192331795
 30
0.0
 42
0.0903795531685979
  0
VERTEX
  5
338
  8
1
 62
     2
 10
-1234.95512102066
 20
-646.70041058970185
 30
0.0
 42
0.070096451303628
  0
VERTEX
  5
339
  8
1
 62
     2
 10
-1235.0134658214261
 20
-646.69674938758612
 30
0.0
 42
0.0574717556665598
  0
VERTEX
  5
33A
  8
1
 62
     2
 10
-1235.0730700337319
 20
-646.70834306669826
 30
0.0
 42
0.0429181647571148
  0
VERTEX
  5
33B
  8
1
 62
     2
 10
-1235.1337937229639
 20
-646.73349664023544
 30
0.0
 42
0.0309506277095076
  0
VERTEX
  5
33C
  8
1
 62
     2
 10
-1235.195496954505
 20
-646.7705151213944
 30
0.0
 42
0.0220602594745047
  0
VERTEX
  5
33D
  8
1
 62
     2
 10
-1235.25803979374
 20
-646.8177035233723
 30
0.0
 42
0.0156296558761426
  0
VERTEX
  5
33E
  8
1
 62
     2
 10
-1235.321282306053
 20
-646.87336685936543
 30
0.0
 42
0.0108174431032653
  0
VERTEX
  5
33F
  8
1
 62
     2
 10
-1235.3850845568279
 20
-646.9358101425712
 30
0.0
 42
0.0071096765296218
  0
VERTEX
  5
340
  8
1
 62
     2
 10
-1235.4493066114501
 20
-647.00333838618621
 30
0.0
 42
0.0040185369624662
  0
VERTEX
  5
341
  8
1
 62
     2
 10
-1235.513808535304
 20
-647.07425660340766
 30
0.0
 42
0.0013147246195629
  0
VERTEX
  5
342
  8
1
 62
     2
 10
-1235.578450393773
 20
-647.14686980743204
 30
0.0
  0
SEQEND
  5
343
  8
1
 62
     2
  0
LINE
  5
54
  8
1
 62
     7
 10
-1246.781233012387
 20
-791.23230361443973
 30
0.0
 11
-1225.781233012387
 21
-791.23230361443973
 31
0.0
  0
LINE
  5
55
  8
1
 62
     7
 10
-1225.781233012387
 20
-768.73230361443973
 30
0.0
 11
-1246.781233012387
 21
-768.73230361443973
 31
0.0
  0
LINE
  5
56
  8
1
 62
     7
 10
-1246.781233012387
 20
-767.73230361443973
 30
0.0
 11
-1246.781233012387
 21
-791.23230361443973
 31
0.0
  0
LINE
  5
57
  8
1
 62
     7
 10
-1225.781233012387
 20
-768.73230361443973
 30
0.0
 11
-1225.781233012387
 21
-792.23230361443973
 31
0.0
  0
LINE
  5
58
  8
1
 62
     7
 10
-1246.781233012387
 20
-691.23230361443939
 30
0.0
 11
-1225.781233012387
 21
-691.23230361443939
 31
0.0
  0
LINE
  5
59
  8
1
 62
     7
 10
-1246.781233012387
 20
-714.7323036144395
 30
0.0
 11
-1246.781233012387
 21
-691.23230361443939
 31
0.0
  0
LINE
  5
5A
  8
1
 62
     7
 10
-1225.781233012387
 20
-690.2323036144395
 30
0.0
 11
-1225.781233012387
 21
-713.7323036144395
 31
0.0
  0
LINE
  5
5B
  8
1
 62
     7
 10
-1333.1374177714299
 20
-791.23230361443939
 30
0.0
 11
-1321.6374177714299
 21
-791.23230361443939
 31
0.0
  0
LINE
  5
5C
  8
1
 62
     7
 10
-1335.33741777143
 20
-829.2323036144395
 30
0.0
 11
-1335.33741777143
 21
-653.23230361443939
 31
0.0
  0
LINE
  5
5D
  8
1
 62
     7
 10
-1366.6374177714299
 20
-658.7323036144395
 30
0.0
 11
-1389.6374177714299
 21
-658.7323036144395
 31
0.0
  0
LINE
  5
5E
  8
1
 62
     7
 10
-1366.6374177714299
 20
-826.73230361443973
 30
0.0
 11
-1366.6374177714299
 21
-655.7323036144395
 31
0.0
  0
LINE
  5
5F
  8
1
 62
     7
 10
-1391.6374177714299
 20
-660.7323036144395
 30
0.0
 11
-1391.6374177714299
 21
-821.73230361443984
 31
0.0
  0
LINE
  5
60
  8
1
 62
     7
 10
-1391.6374177714299
 20
-660.7323036144395
 30
0.0
 11
-1391.6374177714299
 21
-651.3704093894371
 31
0.0
  0
LINE
  5
61
  8
1
 62
     7
 10
-1394.6374177714299
 20
-677.7323036144395
 30
0.0
 11
-1394.6374177714299
 21
-804.73230361443984
 31
0.0
  0
LINE
  5
62
  8
1
 62
     3
 10
-1187.281233012387
 20
-741.23230361443939
 30
0.0
 11
-1182.982216140322
 21
-741.23230361443939
 31
0.0
  0
LINE
  5
63
  8
1
 62
     7
 10
-1233.578450393773
 20
-658.7323036144395
 30
0.0
 11
-1233.578450393773
 21
-647.14686980743204
 31
0.0
  0
LINE
  5
64
  8
1
 62
     7
 10
-1251.781233012387
 20
-756.2323036144395
 30
0.0
 11
-1203.781233012387
 21
-756.2323036144395
 31
0.0
  0
LINE
  5
65
  8
1
 62
     7
 10
-1203.781233012387
 20
-766.23230361443973
 30
0.0
 11
-1203.781233012387
 21
-716.23230361443939
 31
0.0
  0
LINE
  5
66
  8
1
 62
     7
 10
-1199.781233012387
 20
-653.73230361443939
 30
0.0
 11
-1218.781233012387
 21
-653.73230361443939
 31
0.0
  0
LINE
  5
67
  8
1
 62
     7
 10
-1220.781233012387
 20
-657.83230361443952
 30
0.0
 11
-1220.781233012387
 21
-655.7323036144395
 31
0.0
  0
LINE
  5
68
  8
1
 62
     7
 10
-1220.781233012387
 20
-657.83230361443952
 30
0.0
 11
-1207.281233012387
 21
-657.83230361443952
 31
0.0
  0
LINE
  5
69
  8
1
 62
     7
 10
-1207.281233012387
 20
-657.83230361443952
 30
0.0
 11
-1207.281233012387
 21
-677.2323036144395
 31
0.0
  0
LINE
  5
6A
  8
1
 62
     7
 10
-1207.281233012387
 20
-677.2323036144395
 30
0.0
 11
-1209.781233012387
 21
-677.2323036144395
 31
0.0
  0
LINE
  5
6B
  8
1
 62
     7
 10
-1209.781233012387
 20
-677.2323036144395
 30
0.0
 11
-1209.781233012387
 21
-692.13230361443959
 31
0.0
  0
LINE
  5
6C
  8
1
 62
     7
 10
-1209.781233012387
 20
-692.13230361443959
 30
0.0
 11
-1220.781233012387
 21
-692.13230361443959
 31
0.0
  0
LINE
  5
6D
  8
1
 62
     7
 10
-1220.781233012387
 20
-692.13230361443959
 30
0.0
 11
-1220.781233012387
 21
-705.2323036144395
 31
0.0
  0
LINE
  5
6E
  8
1
 62
     7
 10
-1220.781233012387
 20
-705.2323036144395
 30
0.0
 11
-1221.781233012387
 21
-705.2323036144395
 31
0.0
  0
LINE
  5
6F
  8
1
 62
     7
 10
-1225.781233012387
 20
-713.7323036144395
 30
0.0
 11
-1246.781233012387
 21
-713.7323036144395
 31
0.0
  0
LINE
  5
70
  8
1
 62
     7
 10
-1199.781233012387
 20
-683.23230361443939
 30
0.0
 11
-1201.781233012387
 21
-683.23230361443939
 31
0.0
  0
LINE
  5
71
  8
1
 62
     7
 10
-1201.781233012387
 20
-683.23230361443939
 30
0.0
 11
-1201.781233012387
 21
-716.23230361443939
 31
0.0
  0
LINE
  5
72
  8
1
 62
     7
 10
-1201.781233012387
 20
-716.23230361443939
 30
0.0
 11
-1203.781233012387
 21
-716.23230361443939
 31
0.0
  0
LINE
  5
73
  8
1
 62
     7
 10
-1203.781233012387
 20
-723.2323036144395
 30
0.0
 11
-1251.781233012387
 21
-723.2323036144395
 31
0.0
  0
LINE
  5
74
  8
1
 62
     7
 10
-1203.781233012387
 20
-726.2323036144395
 30
0.0
 11
-1251.781233012387
 21
-726.2323036144395
 31
0.0
  0
LINE
  5
75
  8
1
 62
     7
 10
-1220.781233012387
 20
-655.7323036144395
 30
0.0
 11
-1218.781233012387
 21
-653.73230361443939
 31
0.0
  0
LINE
  5
76
  8
1
 62
     7
 10
-1251.781233012387
 20
-714.7323036144395
 30
0.0
 11
-1250.781233012387
 21
-713.7323036144395
 31
0.0
  0
LINE
  5
77
  8
1
 62
     7
 10
-1225.781233012387
 20
-709.2323036144395
 30
0.0
 11
-1221.781233012387
 21
-705.2323036144395
 31
0.0
  0
LINE
  5
78
  8
1
 62
     3
 10
-1256.4200161315191
 20
-741.23230361443939
 30
0.0
 11
-1251.781233012387
 21
-741.23230361443939
 31
0.0
  0
LINE
  5
79
  8
1
 62
     7
 10
-1232.9062330123861
 20
-696.6366321388947
 30
0.0
 11
-1225.781233012387
 21
-696.6366321388947
 31
0.0
  0
LINE
  5
7A
  8
1
 62
     7
 10
-1239.656233012387
 20
-696.6366321388947
 30
0.0
 11
-1246.781233012387
 21
-696.6366321388947
 31
0.0
  0
LINE
  5
7B
  8
1
 62
     7
 10
-1239.656233012387
 20
-708.32797508998442
 30
0.0
 11
-1248.781233012387
 21
-708.32797508998442
 31
0.0
  0
LINE
  5
7C
  8
1
 62
     7
 10
-1232.9062330123861
 20
-708.32797508998442
 30
0.0
 11
-1225.781233012387
 21
-708.32797508998442
 31
0.0
  0
LINE
  5
7D
  8
1
 62
     7
 10
-1246.781233012387
 20
-695.23230361443939
 30
0.0
 11
-1248.781233012387
 21
-695.23230361443939
 31
0.0
  0
LINE
  5
7E
  8
1
 62
     7
 10
-1248.781233012387
 20
-695.23230361443939
 30
0.0
 11
-1248.781233012387
 21
-693.92298019796965
 31
0.0
  0
LINE
  5
7F
  8
1
 62
     7
 10
-1245.781233012387
 20
-677.2323036144395
 30
0.0
 11
-1248.281233012387
 21
-677.2323036144395
 31
0.0
  0
LINE
  5
80
  8
1
 62
     7
 10
-1245.781233012387
 20
-677.2323036144395
 30
0.0
 11
-1245.781233012387
 21
-660.7323036144395
 31
0.0
  0
LINE
  5
81
  8
1
 62
     7
 10
-1211.781233012387
 20
-658.7323036144395
 30
0.0
 11
-1243.781233012387
 21
-658.7323036144395
 31
0.0
  0
LINE
  5
82
  8
1
 62
     7
 10
-1211.781233012387
 20
-691.23230361443939
 30
0.0
 11
-1222.781233012387
 21
-691.23230361443939
 31
0.0
  0
LINE
  5
83
  8
1
 62
     7
 10
-1225.781233012387
 20
-696.6366321388947
 30
0.0
 11
-1222.781233012387
 21
-696.6366321388947
 31
0.0
  0
LINE
  5
84
  8
1
 62
     7
 10
-1222.781233012387
 20
-690.2323036144395
 30
0.0
 11
-1222.781233012387
 21
-696.6366321388947
 31
0.0
  0
LINE
  5
85
  8
1
 62
     7
 10
-1248.781233012387
 20
-708.32797508998442
 30
0.0
 11
-1248.781233012387
 21
-714.7323036144395
 31
0.0
  0
LINE
  5
86
  8
1
 62
     7
 10
-1225.781233012387
 20
-690.2323036144395
 30
0.0
 11
-1222.781233012387
 21
-690.2323036144395
 31
0.0
  0
LINE
  5
87
  8
1
 62
     7
 10
-1248.781233012387
 20
-714.7323036144395
 30
0.0
 11
-1246.781233012387
 21
-714.7323036144395
 31
0.0
  0
LINE
  5
88
  8
1
 62
     7
 10
-1248.781233012387
 20
-713.7323036144395
 30
0.0
 11
-1250.781233012387
 21
-713.7323036144395
 31
0.0
  0
LINE
  5
89
  8
1
 62
     7
 10
-1211.781233012387
 20
-691.23230361443939
 30
0.0
 11
-1211.781233012387
 21
-658.7323036144395
 31
0.0
  0
LINE
  5
8A
  8
1
 62
     3
 10
-1227.509914412587
 20
-695.23230361443939
 30
0.0
 11
-1227.509914412587
 21
-709.89380589632844
 31
0.0
  0
LINE
  5
8B
  8
1
 62
     3
 10
-1244.7934107162901
 20
-695.23230361443939
 30
0.0
 11
-1244.7934107162901
 21
-711.03230361443957
 31
0.0
  0
LINE
  5
8C
  8
1
 62
     7
 10
-1248.281233012387
 20
-677.2323036144395
 30
0.0
 11
-1248.781233012387
 21
-677.7323036144395
 31
0.0
  0
LINE
  5
8D
  8
1
 62
     7
 10
-1243.781233012387
 20
-658.7323036144395
 30
0.0
 11
-1245.781233012387
 21
-660.7323036144395
 31
0.0
  0
LINE
  5
8E
  8
1
 62
     7
 10
-1248.781233012387
 20
-693.92298019796965
 30
0.0
 11
-1248.781233012387
 21
-703.54923130382986
 31
0.0
  0
LINE
  5
8F
  8
1
 62
     7
 10
-1248.781233012387
 20
-693.92298019796965
 30
0.0
 11
-1248.781233012387
 21
-677.7323036144395
 31
0.0
  0
LINE
  5
90
  8
1
 62
     7
 10
-1248.781233012387
 20
-778.91537592504949
 30
0.0
 11
-1248.781233012387
 21
-804.73230361443984
 31
0.0
  0
LINE
  5
91
  8
1
 62
     7
 10
-1245.781233012387
 20
-821.73230361443984
 30
0.0
 11
-1243.781233012387
 21
-823.73230361443973
 31
0.0
  0
LINE
  5
92
  8
1
 62
     7
 10
-1248.781233012387
 20
-804.73230361443984
 30
0.0
 11
-1248.281233012387
 21
-805.23230361443973
 31
0.0
  0
LINE
  5
93
  8
1
 62
     3
 10
-1244.7934107162901
 20
-771.43230361443966
 30
0.0
 11
-1244.7934107162901
 21
-787.23230361443973
 31
0.0
  0
LINE
  5
94
  8
1
 62
     3
 10
-1227.509914412587
 20
-772.57080133255067
 30
0.0
 11
-1227.509914412587
 21
-787.23230361443973
 31
0.0
  0
LINE
  5
95
  8
1
 62
     7
 10
-1250.781233012387
 20
-768.73230361443973
 30
0.0
 11
-1248.781233012387
 21
-768.73230361443973
 31
0.0
  0
LINE
  5
96
  8
1
 62
     7
 10
-1246.781233012387
 20
-767.73230361443973
 30
0.0
 11
-1248.781233012387
 21
-767.73230361443973
 31
0.0
  0
LINE
  5
97
  8
1
 62
     7
 10
-1222.781233012387
 20
-792.23230361443973
 30
0.0
 11
-1225.781233012387
 21
-792.23230361443973
 31
0.0
  0
LINE
  5
98
  8
1
 62
     7
 10
-1248.781233012387
 20
-767.73230361443973
 30
0.0
 11
-1248.781233012387
 21
-774.13663213889481
 31
0.0
  0
LINE
  5
99
  8
1
 62
     7
 10
-1222.781233012387
 20
-785.82797508998465
 30
0.0
 11
-1222.781233012387
 21
-792.23230361443973
 31
0.0
  0
LINE
  5
9A
  8
1
 62
     7
 10
-1248.781233012387
 20
-774.13663213889481
 30
0.0
 11
-1246.781233012387
 21
-774.13663213889481
 31
0.0
  0
LINE
  5
9B
  8
1
 62
     7
 10
-1222.781233012387
 20
-785.82797508998465
 30
0.0
 11
-1225.781233012387
 21
-785.82797508998465
 31
0.0
  0
LINE
  5
9C
  8
1
 62
     7
 10
-1222.781233012387
 20
-791.23230361443973
 30
0.0
 11
-1211.781233012387
 21
-791.23230361443973
 31
0.0
  0
LINE
  5
9D
  8
1
 62
     7
 10
-1211.781233012387
 20
-823.73230361443973
 30
0.0
 11
-1211.781233012387
 21
-791.23230361443973
 31
0.0
  0
LINE
  5
9E
  8
1
 62
     7
 10
-1243.781233012387
 20
-823.73230361443973
 30
0.0
 11
-1211.781233012387
 21
-823.73230361443973
 31
0.0
  0
LINE
  5
9F
  8
1
 62
     7
 10
-1245.781233012387
 20
-821.73230361443984
 30
0.0
 11
-1245.781233012387
 21
-805.23230361443973
 31
0.0
  0
LINE
  5
A0
  8
1
 62
     7
 10
-1248.281233012387
 20
-805.23230361443973
 30
0.0
 11
-1245.781233012387
 21
-805.23230361443973
 31
0.0
  0
LINE
  5
A1
  8
1
 62
     7
 10
-1248.781233012387
 20
-787.23230361443973
 30
0.0
 11
-1246.781233012387
 21
-787.23230361443973
 31
0.0
  0
LINE
  5
A2
  8
1
 62
     7
 10
-1225.781233012387
 20
-774.13663213889481
 30
0.0
 11
-1232.9062330123861
 21
-774.13663213889481
 31
0.0
  0
LINE
  5
A3
  8
1
 62
     7
 10
-1246.781233012387
 20
-774.13663213889481
 30
0.0
 11
-1239.656233012387
 21
-774.13663213889481
 31
0.0
  0
LINE
  5
A4
  8
1
 62
     7
 10
-1246.781233012387
 20
-785.82797508998465
 30
0.0
 11
-1239.656233012387
 21
-785.82797508998465
 31
0.0
  0
LINE
  5
A5
  8
1
 62
     7
 10
-1225.781233012387
 20
-785.82797508998465
 30
0.0
 11
-1232.9062330123861
 21
-785.82797508998465
 31
0.0
  0
LINE
  5
A6
  8
1
 62
     7
 10
-1221.781233012387
 20
-777.23230361443973
 30
0.0
 11
-1225.781233012387
 21
-773.23230361443973
 31
0.0
  0
LINE
  5
A7
  8
1
 62
     7
 10
-1250.781233012387
 20
-768.73230361443973
 30
0.0
 11
-1251.781233012387
 21
-767.73230361443973
 31
0.0
  0
LINE
  5
A8
  8
1
 62
     7
 10
-1218.781233012387
 20
-828.73230361443962
 30
0.0
 11
-1220.781233012387
 21
-826.73230361443973
 31
0.0
  0
LINE
  5
A9
  8
1
 62
     7
 10
-1203.781233012387
 20
-766.23230361443973
 30
0.0
 11
-1201.781233012387
 21
-766.23230361443973
 31
0.0
  0
LINE
  5
AA
  8
1
 62
     7
 10
-1201.781233012387
 20
-766.23230361443973
 30
0.0
 11
-1201.781233012387
 21
-799.23230361443973
 31
0.0
  0
LINE
  5
AB
  8
1
 62
     7
 10
-1201.781233012387
 20
-799.23230361443973
 30
0.0
 11
-1199.781233012387
 21
-799.23230361443973
 31
0.0
  0
LINE
  5
AC
  8
1
 62
     7
 10
-1251.781233012387
 20
-767.73230361443973
 30
0.0
 11
-1251.781233012387
 21
-714.7323036144395
 31
0.0
  0
LINE
  5
AD
  8
1
 62
     7
 10
-1221.781233012387
 20
-777.23230361443973
 30
0.0
 11
-1220.781233012387
 21
-777.23230361443973
 31
0.0
  0
LINE
  5
AE
  8
1
 62
     7
 10
-1220.781233012387
 20
-777.23230361443973
 30
0.0
 11
-1220.781233012387
 21
-790.33230361443975
 31
0.0
  0
LINE
  5
AF
  8
1
 62
     7
 10
-1220.781233012387
 20
-790.33230361443975
 30
0.0
 11
-1209.781233012387
 21
-790.33230361443975
 31
0.0
  0
LINE
  5
B0
  8
1
 62
     7
 10
-1209.781233012387
 20
-790.33230361443975
 30
0.0
 11
-1209.781233012387
 21
-805.23230361443973
 31
0.0
  0
LINE
  5
B1
  8
1
 62
     7
 10
-1209.781233012387
 20
-805.23230361443973
 30
0.0
 11
-1207.281233012387
 21
-805.23230361443973
 31
0.0
  0
LINE
  5
B2
  8
1
 62
     7
 10
-1207.281233012387
 20
-805.23230361443973
 30
0.0
 11
-1207.281233012387
 21
-824.63230361443971
 31
0.0
  0
LINE
  5
B3
  8
1
 62
     7
 10
-1207.281233012387
 20
-824.63230361443971
 30
0.0
 11
-1220.781233012387
 21
-824.63230361443971
 31
0.0
  0
LINE
  5
B4
  8
1
 62
     7
 10
-1220.781233012387
 20
-826.73230361443973
 30
0.0
 11
-1220.781233012387
 21
-824.63230361443971
 31
0.0
  0
LINE
  5
B5
  8
1
 62
     7
 10
-1199.781233012387
 20
-828.73230361443962
 30
0.0
 11
-1199.781233012387
 21
-653.73230361443939
 31
0.0
  0
LINE
  5
B6
  8
1
 62
     7
 10
-1218.781233012387
 20
-828.73230361443962
 30
0.0
 11
-1199.781233012387
 21
-828.73230361443962
 31
0.0
  0
LINE
  5
B7
  8
1
 62
     7
 10
-1199.381233012386
 20
-653.23230361443939
 30
0.0
 11
-1189.4812330123859
 21
-653.23230361443939
 31
0.0
  0
LINE
  5
B8
  8
1
 62
     7
 10
-1189.4812330123859
 20
-676.2323036144395
 30
0.0
 11
-1190.9812330123859
 21
-676.2323036144395
 31
0.0
  0
LINE
  5
B9
  8
1
 62
     7
 10
-1199.381233012386
 20
-683.7323036144395
 30
0.0
 11
-1190.9812330123859
 21
-683.7323036144395
 31
0.0
  0
LINE
  5
BA
  8
1
 62
     7
 10
-1199.381233012386
 20
-653.23230361443939
 30
0.0
 11
-1199.381233012386
 21
-798.73230361443939
 31
0.0
  0
LINE
  5
BB
  8
1
 62
     7
 10
-1190.9812330123859
 20
-677.7323036144395
 30
0.0
 11
-1188.681233012386
 21
-677.7323036144395
 31
0.0
  0
LINE
  5
BC
  8
1
 62
     7
 10
-1188.681233012386
 20
-677.7323036144395
 30
0.0
 11
-1188.681233012386
 21
-705.7323036144395
 31
0.0
  0
LINE
  5
BD
  8
1
 62
     7
 10
-1190.9812330123859
 20
-705.7323036144395
 30
0.0
 11
-1188.681233012386
 21
-705.7323036144395
 31
0.0
  0
LINE
  5
BE
  8
1
 62
     7
 10
-1188.681233012386
 20
-705.7323036144395
 30
0.0
 11
-1188.681233012386
 21
-776.7323036144395
 31
0.0
  0
LINE
  5
BF
  8
1
 62
     7
 10
-1188.081233012387
 20
-655.48230361443939
 30
0.0
 11
-1186.4812330123859
 21
-655.48230361443939
 31
0.0
  0
LINE
  5
C0
  8
1
 62
     7
 10
-1186.4812330123859
 20
-655.48230361443939
 30
0.0
 11
-1186.4812330123859
 21
-666.9823036144395
 31
0.0
  0
LINE
  5
C1
  8
1
 62
     7
 10
-1186.4812330123859
 20
-666.9823036144395
 30
0.0
 11
-1188.081233012387
 21
-666.9823036144395
 31
0.0
  0
LINE
  5
C2
  8
1
 62
     7
 10
-1186.4812330123859
 20
-656.2323036144395
 30
0.0
 11
-1180.8812330123869
 21
-656.2323036144395
 31
0.0
  0
LINE
  5
C3
  8
1
 62
     7
 10
-1180.8812330123869
 20
-656.2323036144395
 30
0.0
 11
-1180.4812330123859
 21
-656.92512393746711
 31
0.0
  0
LINE
  5
C4
  8
1
 62
     7
 10
-1180.4812330123859
 20
-656.92512393746711
 30
0.0
 11
-1180.4812330123859
 21
-665.5394832914119
 31
0.0
  0
LINE
  5
C5
  8
1
 62
     7
 10
-1180.4812330123859
 20
-665.5394832914119
 30
0.0
 11
-1180.8812330123869
 21
-666.23230361443939
 31
0.0
  0
LINE
  5
C6
  8
1
 62
     7
 10
-1180.8812330123869
 20
-666.23230361443939
 30
0.0
 11
-1186.4812330123859
 21
-666.23230361443939
 31
0.0
  0
LINE
  5
C7
  8
1
 62
     7
 10
-1180.8812330123869
 20
-656.2323036144395
 30
0.0
 11
-1180.8812330123869
 21
-666.23230361443939
 31
0.0
  0
LINE
  5
C8
  8
1
 62
     7
 10
-1189.4812330123859
 20
-676.2323036144395
 30
0.0
 11
-1189.4812330123859
 21
-653.23230361443939
 31
0.0
  0
LINE
  5
C9
  8
1
 62
     7
 10
-1189.4812330123859
 20
-673.1952781587454
 30
0.0
 11
-1188.6389106031061
 21
-677.97232592475177
 31
0.0
  0
LINE
  5
CA
  8
1
 62
     7
 10
-1188.0444466330309
 20
-672.67666732046325
 30
0.0
 11
-1187.281233012387
 21
-677.35864941314787
 31
0.0
  0
LINE
  5
CB
  8
1
 62
     7
 10
-1188.081233012387
 20
-654.2323036144395
 30
0.0
 11
-1188.081233012387
 21
-666.9823036144395
 31
0.0
  0
LINE
  5
CC
  8
1
 62
     7
 10
-1188.081233012387
 20
-666.9823036144395
 30
0.0
 11
-1188.081233012387
 21
-672.78127480756439
 31
0.0
  0
LINE
  5
CD
  8
1
 62
     7
 10
-1188.681233012386
 20
-706.2323036144395
 30
0.0
 11
-1187.281233012387
 21
-706.2323036144395
 31
0.0
  0
LINE
  5
CE
  8
1
 62
     7
 10
-1188.081233012387
 20
-654.2323036144395
 30
0.0
 11
-1189.4812330123859
 21
-654.2323036144395
 31
0.0
  0
LINE
  5
CF
  8
1
 62
     7
 10
-1189.4812330123859
 20
-668.32846720352677
 30
0.0
 11
-1188.081233012387
 21
-668.32846720352677
 31
0.0
  0
LINE
  5
D0
  8
1
 62
     7
 10
-1188.681233012386
 20
-683.1857448558153
 30
0.0
 11
-1187.281233012387
 21
-683.1857448558153
 31
0.0
  0
LINE
  5
D1
  8
1
 62
     7
 10
-1187.281233012387
 20
-776.2323036144395
 30
0.0
 11
-1188.681233012386
 21
-776.2323036144395
 31
0.0
  0
LINE
  5
D2
  8
1
 62
     7
 10
-1187.281233012387
 20
-783.2323036144395
 30
0.0
 11
-1187.281233012387
 21
-677.35864941314787
 31
0.0
  0
LINE
  5
D3
  8
1
 62
     7
 10
-1190.9812330123859
 20
-676.2323036144395
 30
0.0
 11
-1190.9812330123859
 21
-806.2323036144395
 31
0.0
  0
LINE
  5
D4
  8
1
 62
     7
 10
-1188.681233012386
 20
-776.7323036144395
 30
0.0
 11
-1190.9812330123859
 21
-776.7323036144395
 31
0.0
  0
LINE
  5
D5
  8
1
 62
     7
 10
-1188.681233012386
 20
-776.7323036144395
 30
0.0
 11
-1188.681233012386
 21
-783.2323036144395
 31
0.0
  0
LINE
  5
D6
  8
1
 62
     7
 10
-1188.681233012386
 20
-804.73230361443939
 30
0.0
 11
-1190.9812330123859
 21
-804.73230361443939
 31
0.0
  0
LINE
  5
D7
  8
1
 62
     7
 10
-1199.381233012386
 20
-829.2323036144395
 30
0.0
 11
-1199.381233012386
 21
-798.73230361443939
 31
0.0
  0
LINE
  5
D8
  8
1
 62
     7
 10
-1190.9812330123859
 20
-798.73230361443939
 30
0.0
 11
-1199.381233012386
 21
-798.73230361443939
 31
0.0
  0
LINE
  5
D9
  8
1
 62
     7
 10
-1190.9812330123859
 20
-806.2323036144395
 30
0.0
 11
-1189.4812330123859
 21
-806.2323036144395
 31
0.0
  0
LINE
  5
DA
  8
1
 62
     7
 10
-1189.4812330123859
 20
-806.2323036144395
 30
0.0
 11
-1189.4812330123859
 21
-829.2323036144395
 31
0.0
  0
LINE
  5
DB
  8
1
 62
     7
 10
-1189.4812330123859
 20
-829.2323036144395
 30
0.0
 11
-1199.381233012386
 21
-829.2323036144395
 31
0.0
  0
LINE
  5
DC
  8
1
 62
     7
 10
-1187.281233012387
 20
-804.34455804651157
 30
0.0
 11
-1187.281233012387
 21
-828.2323036144395
 31
0.0
  0
LINE
  5
DD
  8
1
 62
     7
 10
-1188.681233012386
 20
-791.23230361443939
 30
0.0
 11
-1188.681233012386
 21
-828.2323036144395
 31
0.0
  0
LINE
  5
DE
  8
1
 62
     7
 10
-1188.681233012386
 20
-828.2323036144395
 30
0.0
 11
-1187.281233012387
 21
-828.2323036144395
 31
0.0
  0
LINE
  5
DF
  8
1
 62
     7
 10
-1190.9812330123859
 20
-793.7323036144395
 30
0.0
 11
-1198.4812330123871
 21
-793.7323036144395
 31
0.0
  0
LINE
  5
E0
  8
1
 62
     7
 10
-1198.4812330123871
 20
-793.7323036144395
 30
0.0
 11
-1198.9812330123859
 21
-792.86627821065508
 31
0.0
  0
LINE
  5
E1
  8
1
 62
     7
 10
-1198.9812330123859
 20
-792.86627821065508
 30
0.0
 11
-1198.9812330123859
 21
-781.59832901822392
 31
0.0
  0
LINE
  5
E2
  8
1
 62
     7
 10
-1198.9812330123859
 20
-781.59832901822392
 30
0.0
 11
-1198.4812330123871
 21
-780.7323036144395
 31
0.0
  0
LINE
  5
E3
  8
1
 62
     7
 10
-1198.4812330123871
 20
-780.7323036144395
 30
0.0
 11
-1190.9812330123859
 21
-780.7323036144395
 31
0.0
  0
LINE
  5
E4
  8
1
 62
     7
 10
-1198.4812330123871
 20
-793.7323036144395
 30
0.0
 11
-1198.4812330123871
 21
-780.7323036144395
 31
0.0
  0
LINE
  5
E5
  8
1
 62
     7
 10
-1190.9812330123859
 20
-791.23230361443939
 30
0.0
 11
-1175.781233012387
 21
-791.23230361443939
 31
0.0
  0
LINE
  5
E6
  8
1
 62
     7
 10
-1175.781233012387
 20
-791.23230361443939
 30
0.0
 11
-1174.9812330123859
 21
-790.43230361443955
 31
0.0
  0
LINE
  5
E7
  8
1
 62
     7
 10
-1174.9812330123859
 20
-790.43230361443955
 30
0.0
 11
-1174.9812330123859
 21
-784.03230361443946
 31
0.0
  0
LINE
  5
E8
  8
1
 62
     7
 10
-1174.9812330123859
 20
-784.03230361443946
 30
0.0
 11
-1175.781233012387
 21
-783.2323036144395
 31
0.0
  0
LINE
  5
E9
  8
1
 62
     7
 10
-1175.781233012387
 20
-783.2323036144395
 30
0.0
 11
-1190.9812330123859
 21
-783.2323036144395
 31
0.0
  0
LINE
  5
EA
  8
1
 62
     7
 10
-1175.781233012387
 20
-791.23230361443939
 30
0.0
 11
-1175.781233012387
 21
-783.2323036144395
 31
0.0
  0
LINE
  5
EB
  8
1
 62
     3
 10
-1174.9812330123859
 20
-790.43230361443955
 30
0.0
 11
-1189.0955923663309
 21
-790.43230361443955
 31
0.0
  0
LINE
  5
EC
  8
1
 62
     3
 10
-1189.0955923663309
 20
-790.43230361443955
 30
0.0
 11
-1190.4812330123871
 21
-791.23230361443939
 31
0.0
  0
LINE
  5
ED
  8
1
 62
     3
 10
-1174.9812330123859
 20
-784.03230361443946
 30
0.0
 11
-1189.0955923663309
 21
-784.03230361443946
 31
0.0
  0
LINE
  5
EE
  8
1
 62
     3
 10
-1189.0955923663309
 20
-784.03230361443946
 30
0.0
 11
-1190.4812330123871
 21
-783.2323036144395
 31
0.0
  0
LINE
  5
EF
  8
1
 62
     3
 10
-1189.0955923663309
 20
-791.23230361443939
 30
0.0
 11
-1189.0955923663309
 21
-783.2323036144395
 31
0.0
  0
LINE
  5
F0
  8
1
 62
     3
 10
-1199.381233012386
 20
-787.23230361443939
 30
0.0
 11
-1172.9777489881151
 21
-787.23230361443939
 31
0.0
  0
LINE
  5
F1
  8
1
 62
     7
 10
-1187.281233012387
 20
-791.23230361443939
 30
0.0
 11
-1187.281233012387
 21
-805.10595781573102
 31
0.0
  0
LINE
  5
F2
  8
1
 62
     7
 10
-1248.681233012386
 20
-676.2323036144395
 30
0.0
 11
-1245.781233012387
 21
-676.2323036144395
 31
0.0
  0
LINE
  5
F3
  8
1
 62
     7
 10
-1248.681233012386
 20
-676.2323036144395
 30
0.0
 11
-1248.681233012386
 21
-636.23230361443939
 31
0.0
  0
LINE
  5
F4
  8
1
 62
     7
 10
-1245.781233012387
 20
-663.49072514023248
 30
0.0
 11
-1245.781233012387
 21
-636.23230361443939
 31
0.0
  0
LINE
  5
F5
  8
1
 62
     7
 10
-1248.681233012386
 20
-636.23230361443939
 30
0.0
 11
-1245.781233012387
 21
-636.23230361443939
 31
0.0
  0
LINE
  5
F6
  8
1
 62
     7
 10
-1248.681233012386
 20
-641.9823036144395
 30
0.0
 11
-1245.781233012387
 21
-641.9823036144395
 31
0.0
  0
LINE
  5
F7
  8
1
 62
     3
 10
-1250.089157621308
 20
-646.2323036144395
 30
0.0
 11
-1244.229489524939
 21
-646.2323036144395
 31
0.0
  0
LINE
  5
F8
  8
1
 62
     7
 10
-1248.681233012386
 20
-650.4823036144395
 30
0.0
 11
-1245.781233012387
 21
-650.4823036144395
 31
0.0
  0
LINE
  5
F9
  8
1
 62
     3
 10
-1333.1374177714299
 20
-741.23230361443939
 30
0.0
 11
-1328.8384008993651
 21
-741.23230361443939
 31
0.0
  0
LINE
  5
FA
  8
1
 62
     7
 10
-1379.434635152815
 20
-658.7323036144395
 30
0.0
 11
-1379.434635152815
 21
-657.73230361443939
 31
0.0
  0
LINE
  5
FB
  8
1
  6
DASHDOT
 62
     3
 10
-984.0748901322728
 20
-741.23230361443939
 30
0.0
 11
-968.57507814262362
 21
-741.23230361443939
 31
0.0
  0
LINE
  5
FC
  8
1
  6
DASHDOT
 62
     3
 10
-976.32498413744827
 20
-733.48239761961474
 30
0.0
 11
-976.32498413744827
 21
-748.98220960926415
 31
0.0
  0
LINE
  5
FD
  8
1
  6
DASHDOT
 62
     3
 10
-982.1665406140919
 20
-646.2323036144395
 30
0.0
 11
-970.48342766080395
 21
-646.2323036144395
 31
0.0
  0
LINE
  5
FE
  8
1
  6
DASHDOT
 62
     3
 10
-1578.1374177714299
 20
-732.30442121239594
 30
0.0
 11
-1578.1374177714299
 21
-750.16018601648318
 31
0.0
  0
LINE
  5
FF
  8
1
  6
DASHDOT
 62
     3
 10
-1569.209535369386
 20
-741.23230361443939
 30
0.0
 11
-1587.065300173472
 21
-741.23230361443939
 31
0.0
  0
LINE
  5
100
  8
1
  6
DASHDOT
 62
     3
 10
-1578.1374177714299
 20
-640.6667222833164
 30
0.0
 11
-1578.1374177714299
 21
-651.79788494556249
 31
0.0
  0
LINE
  5
101
  8
1
  6
DASHDOT
 62
     3
 10
-1583.7029991025529
 20
-646.2323036144395
 30
0.0
 11
-1572.5718364403069
 21
-646.2323036144395
 31
0.0
  0
LINE
  5
102
  8
1
 62
     7
 10
-1583.6257446489551
 20
-773.67669078505446
 30
0.0
 11
-1586.1257446489551
 21
-773.67669078505446
 31
0.0
  0
LINE
  5
103
  8
1
 62
     7
 10
-1583.6257446489551
 20
-768.17669078505435
 30
0.0
 11
-1583.6257446489551
 21
-773.67669078505446
 31
0.0
  0
LINE
  5
104
  8
1
 62
     7
 10
-1572.6257446489551
 20
-773.67669078505446
 30
0.0
 11
-1570.1257446489551
 21
-773.67669078505446
 31
0.0
  0
LINE
  5
105
  8
1
 62
     7
 10
-1572.6257446489551
 20
-768.17669078505435
 30
0.0
 11
-1572.6257446489551
 21
-773.67669078505446
 31
0.0
  0
LINE
  5
106
  8
1
 62
     7
 10
-1588.6257446489551
 20
-767.55911989063327
 30
0.0
 11
-1588.6257446489551
 21
-771.17669078505435
 31
0.0
  0
LINE
  5
107
  8
1
 62
     7
 10
-1567.6257446489551
 20
-767.55911989063327
 30
0.0
 11
-1567.6257446489551
 21
-771.17669078505435
 31
0.0
  0
LINE
  5
108
  8
1
  6
DASHDOT
 62
     3
 10
-942.89179240244573
 20
-721.9296413663676
 30
0.0
 11
-930.30724153875212
 21
-714.66394753758345
 31
0.0
  0
LINE
  5
109
  8
1
 62
     7
 10
-983.82498413744781
 20
-658.6978906581212
 30
0.0
 11
-986.32498413744793
 21
-660.14126633109549
 31
0.0
  0
LINE
  5
10A
  8
1
 62
     7
 10
-986.32498413744793
 20
-660.14126633109549
 30
0.0
 11
-986.32498413744793
 21
-663.02801767704364
 31
0.0
  0
LINE
  5
10B
  8
1
 62
     7
 10
-986.32498413744793
 20
-663.02801767704364
 30
0.0
 11
-983.82498413744781
 21
-664.47139335001771
 31
0.0
  0
LINE
  5
10C
  8
1
 62
     7
 10
-983.82498413744781
 20
-664.47139335001771
 30
0.0
 11
-981.32498413744804
 21
-663.02801767704364
 31
0.0
  0
LINE
  5
10D
  8
1
 62
     7
 10
-981.32498413744804
 20
-663.02801767704364
 30
0.0
 11
-981.32498413744804
 21
-660.14126633109549
 31
0.0
  0
LINE
  5
10E
  8
1
 62
     7
 10
-981.32498413744804
 20
-660.14126633109549
 30
0.0
 11
-983.82498413744781
 21
-658.6978906581212
 31
0.0
  0
LINE
  5
10F
  8
1
 62
     7
 10
-968.82498413744804
 20
-658.6978906581212
 30
0.0
 11
-971.32498413744781
 21
-660.14126633109549
 31
0.0
  0
LINE
  5
110
  8
1
 62
     7
 10
-971.32498413744781
 20
-660.14126633109549
 30
0.0
 11
-971.32498413744781
 21
-663.02801767704364
 31
0.0
  0
LINE
  5
111
  8
1
 62
     7
 10
-971.32498413744781
 20
-663.02801767704364
 30
0.0
 11
-968.82498413744804
 21
-664.47139335001771
 31
0.0
  0
LINE
  5
112
  8
1
 62
     7
 10
-968.82498413744804
 20
-664.47139335001771
 30
0.0
 11
-966.32498413744793
 21
-663.02801767704364
 31
0.0
  0
LINE
  5
113
  8
1
 62
     7
 10
-966.32498413744793
 20
-663.02801767704364
 30
0.0
 11
-966.32498413744793
 21
-660.14126633109549
 31
0.0
  0
LINE
  5
114
  8
1
 62
     7
 10
-966.32498413744793
 20
-660.14126633109549
 30
0.0
 11
-968.82498413744804
 21
-658.6978906581212
 31
0.0
  0
LINE
  5
115
  8
1
 62
     7
 10
-1051.5518824440551
 20
-773.11756821826702
 30
0.0
 11
-1051.5518824440551
 21
-776.00431956421517
 31
0.0
  0
LINE
  5
116
  8
1
 62
     7
 10
-1049.0518824440551
 20
-771.67419254529307
 30
0.0
 11
-1051.5518824440551
 21
-773.11756821826702
 31
0.0
  0
LINE
  5
117
  8
1
 62
     7
 10
-1046.5518824440551
 20
-773.11756821826702
 30
0.0
 11
-1049.0518824440551
 21
-771.67419254529307
 31
0.0
  0
LINE
  5
118
  8
1
 62
     7
 10
-1046.5518824440551
 20
-776.00431956421517
 30
0.0
 11
-1046.5518824440551
 21
-773.11756821826702
 31
0.0
  0
LINE
  5
119
  8
1
 62
     7
 10
-1049.0518824440551
 20
-777.44769523718935
 30
0.0
 11
-1046.5518824440551
 21
-776.00431956421517
 31
0.0
  0
LINE
  5
11A
  8
1
 62
     7
 10
-1051.5518824440551
 20
-776.00431956421517
 30
0.0
 11
-1049.0518824440551
 21
-777.44769523718935
 31
0.0
  0
LINE
  5
11B
  8
1
 62
     7
 10
-1044.0518824440551
 20
-786.10794927503366
 30
0.0
 11
-1044.0518824440551
 21
-788.99470062098169
 31
0.0
  0
LINE
  5
11C
  8
1
 62
     7
 10
-1041.5518824440551
 20
-784.66457360205982
 30
0.0
 11
-1044.0518824440551
 21
-786.10794927503366
 31
0.0
  0
LINE
  5
11D
  8
1
 62
     7
 10
-1039.0518824440551
 20
-786.10794927503366
 30
0.0
 11
-1041.5518824440551
 21
-784.66457360205982
 31
0.0
  0
LINE
  5
11E
  8
1
 62
     7
 10
-1039.0518824440551
 20
-788.99470062098169
 30
0.0
 11
-1039.0518824440551
 21
-786.10794927503366
 31
0.0
  0
LINE
  5
11F
  8
1
 62
     7
 10
-1041.5518824440551
 20
-790.43807629395587
 30
0.0
 11
-1039.0518824440551
 21
-788.99470062098169
 31
0.0
  0
LINE
  5
120
  8
1
 62
     7
 10
-1044.0518824440551
 20
-788.99470062098169
 30
0.0
 11
-1041.5518824440551
 21
-790.43807629395587
 31
0.0
  0
LINE
  5
121
  8
1
 62
     7
 10
-911.09808583084123
 20
-790.43807629395587
 30
0.0
 11
-908.59808583084123
 21
-788.99470062098169
 31
0.0
  0
LINE
  5
122
  8
1
 62
     7
 10
-913.59808583084123
 20
-788.99470062098169
 30
0.0
 11
-911.09808583084123
 21
-790.43807629395587
 31
0.0
  0
LINE
  5
123
  8
1
 62
     7
 10
-913.59808583084123
 20
-786.10794927503366
 30
0.0
 11
-913.59808583084123
 21
-788.99470062098169
 31
0.0
  0
LINE
  5
124
  8
1
 62
     7
 10
-911.09808583084123
 20
-784.66457360205982
 30
0.0
 11
-913.59808583084123
 21
-786.10794927503366
 31
0.0
  0
LINE
  5
125
  8
1
 62
     7
 10
-908.59808583084123
 20
-786.10794927503366
 30
0.0
 11
-911.09808583084123
 21
-784.66457360205982
 31
0.0
  0
LINE
  5
126
  8
1
 62
     7
 10
-908.59808583084123
 20
-788.99470062098169
 30
0.0
 11
-908.59808583084123
 21
-786.10794927503366
 31
0.0
  0
LINE
  5
127
  8
1
 62
     7
 10
-903.59808583084134
 20
-777.44769523718935
 30
0.0
 11
-901.09808583084123
 21
-776.00431956421539
 31
0.0
  0
LINE
  5
128
  8
1
 62
     7
 10
-906.09808583084111
 20
-776.00431956421517
 30
0.0
 11
-903.59808583084134
 21
-777.44769523718935
 31
0.0
  0
LINE
  5
129
  8
1
 62
     7
 10
-906.09808583084111
 20
-773.11756821826702
 30
0.0
 11
-906.09808583084111
 21
-776.00431956421517
 31
0.0
  0
LINE
  5
12A
  8
1
 62
     7
 10
-903.59808583084134
 20
-771.67419254529318
 30
0.0
 11
-906.09808583084111
 21
-773.11756821826702
 31
0.0
  0
LINE
  5
12B
  8
1
 62
     7
 10
-901.09808583084123
 20
-773.11756821826725
 30
0.0
 11
-903.59808583084134
 21
-771.67419254529318
 31
0.0
  0
LINE
  5
12C
  8
1
 62
     7
 10
-901.09808583084123
 20
-776.00431956421539
 30
0.0
 11
-901.09808583084123
 21
-773.11756821826725
 31
0.0
  0
LINE
  5
12D
  8
1
  6
DASHDOT
 62
     3
 10
-1009.75817587245
 20
-721.92964136636738
 30
0.0
 11
-1022.342726736144
 21
-714.66394753758345
 31
0.0
  0
LINE
  5
12E
  8
1
  6
DASHDOT
 62
     3
 10
-976.32498413744827
 20
-779.8376281105833
 30
0.0
 11
-976.32498413744827
 21
-794.36901576815137
 31
0.0
  0
LINE
  5
12F
  8
1
  6
DASHDOT
 62
     3
 10
-976.32498413744793
 20
-702.62697911829548
 30
0.0
 11
-976.32498413744793
 21
-688.09559146072775
 31
0.0
  0
LINE
  5
130
  8
1
  6
DASHDOT
 62
     3
 10
-976.32498413744793
 20
-702.62697911829548
 30
0.0
 11
-976.32498413744793
 21
-688.09559146072775
 31
0.0
  0
LINE
  5
131
  8
1
  6
DASHDOT
 62
     3
 10
-976.32498413744793
 20
-702.62697911829548
 30
0.0
 11
-976.32498413744793
 21
-688.09559146072775
 31
0.0
  0
LINE
  5
132
  8
1
  6
DASHDOT
 62
     3
 10
-1009.75817587245
 20
-721.92964136636738
 30
0.0
 11
-1022.342726736144
 21
-714.66394753758345
 31
0.0
  0
LINE
  5
133
  8
1
  6
DASHDOT
 62
     3
 10
-1009.75817587245
 20
-760.53496586251129
 30
0.0
 11
-1022.342726736144
 21
-767.80065969129532
 31
0.0
  0
LINE
  5
134
  8
1
  6
DASHDOT
 62
     3
 10
-976.32498413744827
 20
-779.8376281105833
 30
0.0
 11
-976.32498413744827
 21
-794.36901576815137
 31
0.0
  0
LINE
  5
135
  8
1
  6
DASHDOT
 62
     3
 10
-942.89179240244573
 20
-760.53496586251129
 30
0.0
 11
-930.30724153875201
 21
-767.80065969129532
 31
0.0
  0
LINE
  5
136
  8
1
 62
     7
 10
-979.82498413744793
 20
-726.64635146862474
 30
0.0
 11
-979.82498413744793
 21
-723.2323036144395
 31
0.0
  0
LINE
  5
137
  8
1
 62
     7
 10
-979.82498413744793
 20
-723.2323036144395
 30
0.0
 11
-972.82498413744793
 21
-723.2323036144395
 31
0.0
  0
LINE
  5
138
  8
1
 62
     7
 10
-972.82498413744793
 20
-723.2323036144395
 30
0.0
 11
-972.82498413744793
 21
-726.64635146862474
 31
0.0
  0
LINE
  5
139
  8
1
  6
DASHDOT
 62
     3
 10
-976.32498413744793
 20
-652.07081927757167
 30
0.0
 11
-976.32498413744793
 21
-640.39074713779553
 31
0.0
  0
LINE
  5
13A
  8
1
 62
     7
 10
-988.32498413744781
 20
-654.05432474362601
 30
0.0
 11
-988.32498413744781
 21
-638.82346589010876
 31
0.0
  0
LINE
  5
13B
  8
1
 62
     7
 10
-964.32498413744804
 20
-654.05432474362601
 30
0.0
 11
-964.32498413744804
 21
-638.7323036144395
 31
0.0
  0
LINE
  5
13C
  8
1
 62
     7
 10
-1345.6374177714299
 20
-653.73230361443939
 30
0.0
 11
-1364.6374177714299
 21
-653.73230361443939
 31
0.0
  0
LINE
  5
13D
  8
1
 62
     7
 10
-1366.6374177714299
 20
-655.7323036144395
 30
0.0
 11
-1364.6374177714299
 21
-653.73230361443939
 31
0.0
  0
LINE
  5
13E
  8
1
 62
     7
 10
-1397.6374177714299
 20
-714.7323036144395
 30
0.0
 11
-1396.6374177714299
 21
-713.7323036144395
 31
0.0
  0
LINE
  5
13F
  8
1
 62
     3
 10
-1402.276200890562
 20
-741.23230361443939
 30
0.0
 11
-1397.6374177714299
 21
-741.23230361443939
 31
0.0
  0
LINE
  5
140
  8
1
 62
     7
 10
-1391.6374177714299
 20
-677.2323036144395
 30
0.0
 11
-1394.1374177714299
 21
-677.2323036144395
 31
0.0
  0
LINE
  5
141
  8
1
 62
     7
 10
-1394.6374177714299
 20
-713.7323036144395
 30
0.0
 11
-1396.6374177714299
 21
-713.7323036144395
 31
0.0
  0
LINE
  5
142
  8
1
 62
     7
 10
-1394.1374177714299
 20
-677.2323036144395
 30
0.0
 11
-1394.6374177714299
 21
-677.7323036144395
 31
0.0
  0
LINE
  5
143
  8
1
 62
     7
 10
-1389.6374177714299
 20
-658.7323036144395
 30
0.0
 11
-1391.6374177714299
 21
-660.7323036144395
 31
0.0
  0
LINE
  5
144
  8
1
 62
     7
 10
-1391.6374177714299
 20
-821.73230361443984
 30
0.0
 11
-1389.6374177714299
 21
-823.73230361443973
 31
0.0
  0
LINE
  5
145
  8
1
 62
     7
 10
-1394.6374177714299
 20
-804.73230361443984
 30
0.0
 11
-1394.1374177714299
 21
-805.23230361443973
 31
0.0
  0
LINE
  5
146
  8
1
 62
     7
 10
-1396.6374177714299
 20
-768.73230361443973
 30
0.0
 11
-1394.6374177714299
 21
-768.73230361443973
 31
0.0
  0
LINE
  5
147
  8
1
 62
     7
 10
-1389.6374177714299
 20
-823.73230361443973
 30
0.0
 11
-1366.6374177714299
 21
-823.73230361443973
 31
0.0
  0
LINE
  5
148
  8
1
 62
     7
 10
-1394.1374177714299
 20
-805.23230361443973
 30
0.0
 11
-1391.6374177714299
 21
-805.23230361443973
 31
0.0
  0
LINE
  5
149
  8
1
 62
     7
 10
-1396.6374177714299
 20
-768.73230361443973
 30
0.0
 11
-1397.6374177714299
 21
-767.73230361443973
 31
0.0
  0
LINE
  5
14A
  8
1
 62
     7
 10
-1364.6374177714299
 20
-828.73230361443962
 30
0.0
 11
-1366.6374177714299
 21
-826.73230361443973
 31
0.0
  0
LINE
  5
14B
  8
1
 62
     7
 10
-1397.6374177714299
 20
-767.73230361443973
 30
0.0
 11
-1397.6374177714299
 21
-714.7323036144395
 31
0.0
  0
LINE
  5
14C
  8
1
 62
     7
 10
-1345.6374177714299
 20
-828.73230361443962
 30
0.0
 11
-1345.6374177714299
 21
-653.73230361443939
 31
0.0
  0
LINE
  5
14D
  8
1
 62
     7
 10
-1364.6374177714299
 20
-828.73230361443962
 30
0.0
 11
-1345.6374177714299
 21
-828.73230361443962
 31
0.0
  0
LINE
  5
14E
  8
1
 62
     7
 10
-1345.23741777143
 20
-653.23230361443939
 30
0.0
 11
-1335.33741777143
 21
-653.23230361443939
 31
0.0
  0
LINE
  5
14F
  8
1
 62
     7
 10
-1345.23741777143
 20
-653.23230361443939
 30
0.0
 11
-1345.23741777143
 21
-829.2323036144395
 31
0.0
  0
LINE
  5
150
  8
1
 62
     7
 10
-1334.5374177714291
 20
-677.7323036144395
 30
0.0
 11
-1334.5374177714291
 21
-828.2323036144395
 31
0.0
  0
LINE
  5
151
  8
1
 62
     7
 10
-1333.9374177714301
 20
-655.48230361443939
 30
0.0
 11
-1332.337417771429
 21
-655.48230361443939
 31
0.0
  0
LINE
  5
152
  8
1
 62
     7
 10
-1332.337417771429
 20
-655.48230361443939
 30
0.0
 11
-1332.337417771429
 21
-666.9823036144395
 31
0.0
  0
LINE
  5
153
  8
1
 62
     7
 10
-1332.337417771429
 20
-666.9823036144395
 30
0.0
 11
-1333.9374177714301
 21
-666.9823036144395
 31
0.0
  0
LINE
  5
154
  8
1
 62
     7
 10
-1332.337417771429
 20
-656.2323036144395
 30
0.0
 11
-1326.73741777143
 21
-656.2323036144395
 31
0.0
  0
LINE
  5
155
  8
1
 62
     7
 10
-1326.73741777143
 20
-656.2323036144395
 30
0.0
 11
-1326.337417771429
 21
-656.92512393746711
 31
0.0
  0
LINE
  5
156
  8
1
 62
     7
 10
-1326.337417771429
 20
-656.92512393746711
 30
0.0
 11
-1326.337417771429
 21
-665.5394832914119
 31
0.0
  0
LINE
  5
157
  8
1
 62
     7
 10
-1326.337417771429
 20
-665.5394832914119
 30
0.0
 11
-1326.73741777143
 21
-666.23230361443939
 31
0.0
  0
LINE
  5
158
  8
1
 62
     7
 10
-1326.73741777143
 20
-666.23230361443939
 30
0.0
 11
-1332.337417771429
 21
-666.23230361443939
 31
0.0
  0
LINE
  5
159
  8
1
 62
     7
 10
-1326.73741777143
 20
-656.2323036144395
 30
0.0
 11
-1326.73741777143
 21
-666.23230361443939
 31
0.0
  0
LINE
  5
15A
  8
1
 62
     7
 10
-1335.33741777143
 20
-673.1952781587454
 30
0.0
 11
-1334.495095362149
 21
-677.97232592475177
 31
0.0
  0
LINE
  5
15B
  8
1
 62
     7
 10
-1333.900631392074
 20
-672.67666732046325
 30
0.0
 11
-1333.1374177714299
 21
-677.35864941314787
 31
0.0
  0
LINE
  5
15C
  8
1
 62
     7
 10
-1333.9374177714301
 20
-654.2323036144395
 30
0.0
 11
-1333.9374177714301
 21
-666.9823036144395
 31
0.0
  0
LINE
  5
15D
  8
1
 62
     7
 10
-1333.9374177714301
 20
-666.9823036144395
 30
0.0
 11
-1333.9374177714301
 21
-672.78127480756439
 31
0.0
  0
LINE
  5
15E
  8
1
 62
     7
 10
-1333.9374177714301
 20
-654.2323036144395
 30
0.0
 11
-1335.33741777143
 21
-654.2323036144395
 31
0.0
  0
LINE
  5
15F
  8
1
 62
     7
 10
-1335.33741777143
 20
-829.2323036144395
 30
0.0
 11
-1345.23741777143
 21
-829.2323036144395
 31
0.0
  0
LINE
  5
160
  8
1
 62
     7
 10
-1334.5374177714291
 20
-828.2323036144395
 30
0.0
 11
-1333.1374177714299
 21
-828.2323036144395
 31
0.0
  0
LINE
  5
161
  8
1
 62
     7
 10
-1321.6374177714299
 20
-791.23230361443939
 30
0.0
 11
-1320.837417771429
 21
-790.43230361443955
 31
0.0
  0
LINE
  5
162
  8
1
 62
     7
 10
-1320.837417771429
 20
-790.43230361443955
 30
0.0
 11
-1320.837417771429
 21
-784.03230361443946
 31
0.0
  0
LINE
  5
163
  8
1
 62
     7
 10
-1320.837417771429
 20
-784.03230361443946
 30
0.0
 11
-1321.6374177714299
 21
-783.2323036144395
 31
0.0
  0
LINE
  5
164
  8
1
 62
     7
 10
-1321.6374177714299
 20
-783.2323036144395
 30
0.0
 11
-1333.1374177714299
 21
-783.2323036144395
 31
0.0
  0
LINE
  5
165
  8
1
 62
     7
 10
-1321.6374177714299
 20
-791.23230361443939
 30
0.0
 11
-1321.6374177714299
 21
-783.2323036144395
 31
0.0
  0
LINE
  5
166
  8
1
 62
     3
 10
-1320.837417771429
 20
-790.43230361443955
 30
0.0
 11
-1333.1374177714299
 21
-790.43230361443955
 31
0.0
  0
LINE
  5
167
  8
1
 62
     3
 10
-1320.837417771429
 20
-784.03230361443946
 30
0.0
 11
-1333.1374177714299
 21
-784.03230361443946
 31
0.0
  0
LINE
  5
168
  8
1
 62
     3
 10
-1345.23741777143
 20
-787.23230361443939
 30
0.0
 11
-1318.833933747158
 21
-787.23230361443939
 31
0.0
  0
LINE
  5
169
  8
1
 62
     7
 10
-1333.1374177714299
 20
-828.2323036144395
 30
0.0
 11
-1333.1374177714299
 21
-677.35864941314787
 31
0.0
  0
LINE
  5
16A
  8
1
 62
     7
 10
-1581.6374177714299
 20
-726.64635146862474
 30
0.0
 11
-1581.6374177714299
 21
-723.2323036144395
 31
0.0
  0
LINE
  5
16B
  8
1
 62
     7
 10
-1581.6374177714299
 20
-723.2323036144395
 30
0.0
 11
-1574.6374177714299
 21
-723.2323036144395
 31
0.0
  0
LINE
  5
16C
  8
1
 62
     7
 10
-1574.6374177714299
 20
-723.2323036144395
 30
0.0
 11
-1574.6374177714299
 21
-726.64635146862474
 31
0.0
  0
LINE
  5
16D
  8
1
 62
     7
 10
-1578.1257446489551
 20
-636.23230361443939
 30
0.0
 11
-1569.1257446489551
 21
-636.23230361443939
 31
0.0
  0
LINE
  5
16E
  8
1
 62
     7
 10
-1566.1257446489551
 20
-639.2323036144395
 30
0.0
 11
-1566.1257446489551
 21
-661.50768046469886
 31
0.0
  0
LINE
  5
16F
  8
1
 62
     7
 10
-1563.1257446489551
 20
-664.2323036144395
 30
0.0
 11
-1561.1257446489551
 21
-664.2323036144395
 31
0.0
  0
LINE
  5
170
  8
1
 62
     7
 10
-1558.1257446489551
 20
-667.2323036144395
 30
0.0
 11
-1558.1257446489551
 21
-676.2323036144395
 31
0.0
  0
LINE
  5
171
  8
1
 62
     7
 10
-1578.1257446489551
 20
-676.2323036144395
 30
0.0
 11
-1558.1257446489551
 21
-676.2323036144395
 31
0.0
  0
LINE
  5
172
  8
1
 62
     7
 10
-1598.1257446489551
 20
-676.2323036144395
 30
0.0
 11
-1578.1257446489551
 21
-676.2323036144395
 31
0.0
  0
LINE
  5
173
  8
1
 62
     7
 10
-1598.1257446489551
 20
-676.2323036144395
 30
0.0
 11
-1598.1257446489551
 21
-667.2323036144395
 31
0.0
  0
LINE
  5
174
  8
1
 62
     7
 10
-1595.1257446489551
 20
-664.2323036144395
 30
0.0
 11
-1593.1257446489551
 21
-664.2323036144395
 31
0.0
  0
LINE
  5
175
  8
1
 62
     7
 10
-1590.1257446489551
 20
-661.50768046469886
 30
0.0
 11
-1590.1257446489551
 21
-639.2323036144395
 31
0.0
  0
LINE
  5
176
  8
1
 62
     7
 10
-1587.1257446489551
 20
-636.23230361443939
 30
0.0
 11
-1578.1257446489551
 21
-636.23230361443939
 31
0.0
  0
LINE
  5
177
  8
1
 62
     7
 10
-1394.53741777143
 20
-676.2323036144395
 30
0.0
 11
-1391.6374177714299
 21
-676.2323036144395
 31
0.0
  0
LINE
  5
178
  8
1
 62
     7
 10
-1394.53741777143
 20
-676.2323036144395
 30
0.0
 11
-1394.53741777143
 21
-652.78229986428892
 31
0.0
  0
LINE
  5
179
  8
1
 62
     7
 10
-1394.53741777143
 20
-636.23230361443939
 30
0.0
 11
-1391.6374177714299
 21
-636.23230361443939
 31
0.0
  0
LINE
  5
17A
  8
1
 62
     3
 10
-1395.94534238035
 20
-646.2323036144395
 30
0.0
 11
-1390.085674283981
 21
-646.2323036144395
 31
0.0
  0
LINE
  5
17B
  8
1
 62
     7
 10
-966.82498413744781
 20
-636.23230361443939
 30
0.0
 11
-985.82498413744804
 21
-636.23230361443939
 31
0.0
  0
LINE
  5
17C
  8
1
 62
     7
 10
-1417.8874177714299
 20
-686.90814091336301
 30
0.0
 11
-1417.8874177714299
 21
-669.62151313294908
 31
0.0
  0
LINE
  5
17D
  8
1
 62
     7
 10
-1414.4241092957291
 20
-706.98569680055323
 30
0.0
 11
-1424.5331978267341
 21
-670.33601661294233
 31
0.0
  0
LINE
  5
17E
  8
1
 62
     7
 10
-1412.496108307779
 20
-706.45389590692287
 30
0.0
 11
-1422.605196838784
 21
-669.80421571931174
 31
0.0
  0
LINE
  5
17F
  8
1
 62
     7
 10
-1415.8874177714299
 20
-669.62151313294908
 30
0.0
 11
-1415.8874177714299
 21
-687.38962068602621
 31
0.0
  0
LINE
  5
180
  8
1
 62
     7
 10
-1397.2374144087451
 20
-701.27268889886375
 30
0.0
 11
-1396.505321291047
 21
-701.43211155404686
 31
0.0
  0
LINE
  5
181
  8
1
 62
     7
 10
-1397.2374144087451
 20
-702.39498067708746
 30
0.0
 11
-1396.831040659169
 21
-701.98860692751168
 31
0.0
  0
LINE
  5
182
  8
1
 62
     7
 10
-1397.2374144087451
 20
-703.69498067708753
 30
0.0
 11
-1396.23741777143
 21
-702.69498403977263
 31
0.0
  0
LINE
  5
183
  8
1
 62
     7
 10
-1397.53741777143
 20
-706.9305285357907
 30
0.0
 11
-1397.53741777143
 21
-706.94498403977263
 31
0.0
  0
LINE
  5
184
  8
1
 62
     7
 10
-1399.2374144087451
 20
-699.75090622632672
 30
0.0
 11
-1399.2374144087439
 21
-704.65883901016741
 31
0.0
  0
LINE
  5
185
  8
1
 62
     7
 10
-1397.2374144087451
 20
-698.49873796797567
 30
0.0
 11
-1397.2374144087451
 21
-704.65883901016741
 31
0.0
  0
LINE
  5
186
  8
1
 62
     7
 10
-1424.439112537312
 20
-660.33489865179308
 30
0.0
 11
-1427.8131142662239
 21
-661.26555021564695
 31
0.0
  0
LINE
  5
187
  8
1
 62
     7
 10
-1423.741771791219
 20
-662.8630509424496
 30
0.0
 11
-1424.135334631731
 21
-661.43622079903332
 31
0.0
  0
LINE
  5
188
  8
1
 62
     7
 10
-1423.2597715442309
 20
-662.73010071904196
 30
0.0
 11
-1427.5977737671169
 21
-663.9266527297109
 31
0.0
  0
LINE
  5
189
  8
1
 62
     7
 10
-1421.4001962213149
 20
-669.47184016079279
 30
0.0
 11
-1425.738198444202
 21
-670.66839217146128
 31
0.0
  0
LINE
  5
18A
  8
1
 62
     7
 10
-1427.5093363606429
 20
-662.36687236288685
 30
0.0
 11
-1424.135334631731
 21
-661.43622079903332
 31
0.0
  0
LINE
  5
18B
  8
1
 62
     7
 10
-1427.5093363606429
 20
-662.36687236288685
 30
0.0
 11
-1427.11577352013
 21
-663.79370250630325
 31
0.0
  0
LINE
  5
18C
  8
1
 62
     7
 10
-1424.9211127842991
 20
-660.46784887520107
 30
0.0
 11
-1424.6173348787181
 21
-661.56917102244074
 31
0.0
  0
LINE
  5
18D
  8
1
 62
     7
 10
-1427.3311140192361
 20
-661.13259999223908
 30
0.0
 11
-1427.0273361136551
 21
-662.23392213947898
 31
0.0
  0
LINE
  5
18E
  8
1
 62
     7
 10
-1427.8131142662239
 20
-661.26555021564695
 30
0.0
 11
-1428.0411372542731
 21
-660.43887137493732
 31
0.0
  0
LINE
  5
18F
  8
1
 62
     7
 10
-1428.172137060064
 20
-658.08353920083164
 30
0.0
 11
-1428.0411372542731
 21
-660.43887137493732
 31
0.0
  0
LINE
  5
190
  8
1
 62
     7
 10
-1425.762135825127
 20
-657.41878808379317
 30
0.0
 11
-1424.667135525362
 21
-659.50821981108368
 31
0.0
  0
LINE
  5
191
  8
1
 62
     7
 10
-1428.172137060064
 20
-658.08353920083164
 30
0.0
 11
-1425.762135825127
 21
-657.41878808379317
 31
0.0
  0
LINE
  5
192
  8
1
 62
     7
 10
-1424.667135525362
 20
-659.50821981108368
 30
0.0
 11
-1424.439112537312
 21
-660.33489865179308
 31
0.0
  0
LINE
  5
193
  8
1
 62
     7
 10
-1423.2597715442309
 20
-662.73010071904196
 30
0.0
 11
-1421.4001962213149
 21
-669.47184016079279
 31
0.0
  0
LINE
  5
194
  8
1
 62
     7
 10
-1427.5977737671169
 20
-663.9266527297109
 30
0.0
 11
-1425.738198444202
 21
-670.66839217146128
 31
0.0
  0
LINE
  5
195
  8
1
 62
     7
 10
-1414.6374177714299
 20
-669.62151313294908
 30
0.0
 11
-1414.6374177714299
 21
-662.62801107160283
 31
0.0
  0
LINE
  5
196
  8
1
 62
     7
 10
-1419.1374177714299
 20
-669.62151313294908
 30
0.0
 11
-1419.1374177714299
 21
-662.62801107160283
 31
0.0
  0
LINE
  5
197
  8
1
 62
     7
 10
-1418.6374177714299
 20
-660.0054477985982
 30
0.0
 11
-1418.6374177714299
 21
-659.1478975733894
 31
0.0
  0
LINE
  5
198
  8
1
 62
     7
 10
-1418.1374177714299
 20
-656.84252328718446
 30
0.0
 11
-1415.6374177714299
 21
-656.84252328718446
 31
0.0
  0
LINE
  5
199
  8
1
 62
     7
 10
-1418.6374177714299
 20
-659.1478975733894
 30
0.0
 11
-1418.1374177714299
 21
-656.84252328718446
 31
0.0
  0
LINE
  5
19A
  8
1
 62
     7
 10
-1415.1374177714299
 20
-659.1478975733894
 30
0.0
 11
-1415.6374177714299
 21
-656.84252328718446
 31
0.0
  0
LINE
  5
19B
  8
1
 62
     7
 10
-1415.1374177714299
 20
-659.1478975733894
 30
0.0
 11
-1415.1374177714299
 21
-660.0054477985982
 31
0.0
  0
LINE
  5
19C
  8
1
 62
     7
 10
-1415.1374177714299
 20
-660.0054477985982
 30
0.0
 11
-1415.3155042922911
 21
-660.0054477985982
 31
0.0
  0
LINE
  5
19D
  8
1
 62
     7
 10
-1415.6374177714299
 20
-661.1478975733894
 30
0.0
 11
-1415.6374177714299
 21
-660.0054477985982
 31
0.0
  0
LINE
  5
19E
  8
1
 62
     7
 10
-1418.1374177714299
 20
-661.1478975733894
 30
0.0
 11
-1418.1374177714299
 21
-660.0054477985982
 31
0.0
  0
LINE
  5
19F
  8
1
 62
     7
 10
-1415.1374177714299
 20
-662.62801107160283
 30
0.0
 11
-1415.1374177714299
 21
-661.1478975733894
 31
0.0
  0
LINE
  5
1A0
  8
1
 62
     7
 10
-1418.6374177714299
 20
-661.1478975733894
 30
0.0
 11
-1415.1374177714299
 21
-661.1478975733894
 31
0.0
  0
LINE
  5
1A1
  8
1
 62
     7
 10
-1419.1374177714299
 20
-669.62151313294908
 30
0.0
 11
-1414.6374177714299
 21
-669.62151313294908
 31
0.0
  0
LINE
  5
1A2
  8
1
 62
     7
 10
-1419.1374177714299
 20
-662.62801107160283
 30
0.0
 11
-1414.6374177714299
 21
-662.62801107160283
 31
0.0
  0
LINE
  5
1A3
  8
1
 62
     7
 10
-1418.6374177714299
 20
-661.1478975733894
 30
0.0
 11
-1418.6374177714299
 21
-662.62801107160283
 31
0.0
  0
LINE
  5
1A4
  8
1
 62
     7
 10
-1418.6374177714299
 20
-660.0054477985982
 30
0.0
 11
-1415.3155042922911
 21
-660.0054477985982
 31
0.0
  0
LINE
  5
1A5
  8
1
 62
     7
 10
-1403.666416976662
 20
-681.37298493075116
 30
0.0
 11
-1403.83741777143
 21
-681.07680286607865
 31
0.0
  0
LINE
  5
1A6
  8
1
 62
     7
 10
-1401.8373910784969
 20
-693.93216148068359
 30
0.0
 11
-1401.8373910784969
 21
-700.52744825537525
 31
0.0
  0
LINE
  5
1A7
  8
1
 62
     7
 10
-1401.1333804112221
 20
-692.66078388838923
 30
0.0
 11
-1398.1991553903149
 21
-690.82371217137018
 31
0.0
  0
LINE
  5
1A8
  8
1
 62
     7
 10
-1396.1374177714299
 20
-700.52744825537525
 30
0.0
 11
-1395.4374177714301
 21
-702.53091746873713
 31
0.0
  0
LINE
  5
1A9
  8
1
 62
     7
 10
-1400.4585203496661
 20
-701.47965372198166
 30
0.0
 11
-1399.2374144087451
 21
-701.67947023204897
 31
0.0
  0
LINE
  5
1AA
  8
1
 62
     7
 10
-1399.9929408004109
 20
-700.76545910541188
 30
0.0
 11
-1399.2374144087451
 21
-700.88930823359908
 31
0.0
  0
LINE
  5
1AB
  8
1
 62
     7
 10
-1396.905071832351
 20
-701.97665840252296
 30
0.0
 11
-1397.2374144087451
 21
-701.93700240348574
 31
0.0
  0
LINE
  5
1AC
  8
1
 62
     7
 10
-1401.3991553903161
 20
-699.90166960761781
 30
0.0
 11
-1398.1991553903149
 21
-697.89820039425581
 31
0.0
  0
LINE
  5
1AD
  8
1
 62
     7
 10
-1400.2278521761509
 20
-700.37100359343583
 30
0.0
 11
-1397.0278521761511
 21
-698.36753438007406
 31
0.0
  0
LINE
  5
1AE
  8
1
 62
     7
 10
-1396.1374177714299
 20
-700.52744825537525
 30
0.0
 11
-1396.1374177714299
 21
-698.52397904201325
 31
0.0
  0
LINE
  5
1AF
  8
1
 62
     7
 10
-1396.23741777143
 20
-702.56571377976297
 30
0.0
 11
-1396.5511715102859
 21
-702.13452091432771
 31
0.0
  0
LINE
  5
1B0
  8
1
 62
     7
 10
-1396.23741777143
 20
-702.56571377976297
 30
0.0
 11
-1395.4374177714301
 21
-702.53091746873713
 31
0.0
  0
LINE
  5
1B1
  8
1
 62
     7
 10
-1395.4374177714301
 20
-702.53091746873713
 30
0.0
 11
-1395.4374177714301
 21
-709.54305971550355
 31
0.0
  0
LINE
  5
1B2
  8
1
 62
     7
 10
-1395.4374177714301
 20
-702.53091746873713
 30
0.0
 11
-1394.6374177714299
 21
-702.53091746873713
 31
0.0
  0
LINE
  5
1B3
  8
1
 62
     7
 10
-1396.23741777143
 20
-709.54305971550355
 30
0.0
 11
-1394.6374177714299
 21
-709.54305971550355
 31
0.0
  0
LINE
  5
1B4
  8
1
 62
     7
 10
-1397.53741777143
 20
-706.94498403977263
 30
0.0
 11
-1396.23741777143
 21
-706.94498403977263
 31
0.0
  0
LINE
  5
1B5
  8
1
 62
     7
 10
-1396.23741777143
 20
-709.54305971550355
 30
0.0
 11
-1396.23741777143
 21
-702.56571377976297
 31
0.0
  0
LINE
  5
1B6
  8
1
 62
     7
 10
-1394.6374177714299
 20
-691.44949081912785
 30
0.0
 11
-1394.6374177714299
 21
-709.54305971550355
 31
0.0
  0
LINE
  5
1B7
  8
1
 62
     7
 10
-1537.636810358212
 20
-701.25248620615207
 30
0.0
 11
-1538.1459272406671
 21
-700.74336932369783
 31
0.0
  0
LINE
  5
1B8
  8
1
 62
     7
 10
-1541.0309229079089
 20
-700.74336932369783
 30
0.0
 11
-1541.5400397903629
 21
-701.25248620615207
 31
0.0
  0
LINE
  5
1B9
  8
1
 62
     7
 10
-1541.5400397903629
 20
-704.1374818733932
 30
0.0
 11
-1541.0309229079089
 21
-704.64659875584732
 31
0.0
  0
LINE
  5
1BA
  8
1
 62
     7
 10
-1538.1459272406671
 20
-704.64659875584732
 30
0.0
 11
-1537.636810358212
 21
-704.1374818733932
 31
0.0
  0
LINE
  5
1BB
  8
1
 62
     7
 10
-1546.4365007500189
 20
-702.47199190363813
 30
0.0
 11
-1539.3654329381541
 21
-709.54305971550355
 31
0.0
  0
LINE
  5
1BC
  8
1
 62
     7
 10
-1539.3654329381541
 20
-709.54305971550355
 30
0.0
 11
-1527.344617657981
 21
-697.52224443533248
 31
0.0
  0
LINE
  5
1BD
  8
1
 62
     7
 10
-1534.4156854698481
 20
-690.45117662346695
 30
0.0
 11
-1527.344617657981
 21
-697.52224443533248
 31
0.0
  0
LINE
  5
1BE
  8
1
 62
     7
 10
-1546.4365007500189
 20
-702.47199190363813
 30
0.0
 11
-1534.4156854698481
 21
-690.45117662346695
 31
0.0
  0
LINE
  5
1BF
  8
1
 62
     7
 10
-1472.4546369183511
 20
-660.33489865179308
 30
0.0
 11
-1469.252310683519
 21
-661.21819693017812
 31
0.0
  0
LINE
  5
1C0
  8
1
 62
     7
 10
-1472.7584148239309
 20
-661.43622079903332
 30
0.0
 11
-1473.151977664445
 21
-662.8630509424496
 31
0.0
  0
LINE
  5
1C1
  8
1
 62
     7
 10
-1473.6339779114321
 20
-662.73010071904196
 30
0.0
 11
-1469.4440209714819
 21
-663.88581737005313
 31
0.0
  0
LINE
  5
1C2
  8
1
 62
     7
 10
-1475.493553234347
 20
-669.47184016079279
 30
0.0
 11
-1471.3035962943979
 21
-670.62755681180363
 31
0.0
  0
LINE
  5
1C3
  8
1
 62
     7
 10
-1472.7584148239309
 20
-661.43622079903332
 30
0.0
 11
-1469.384413095021
 21
-662.36687236288685
 31
0.0
  0
LINE
  5
1C4
  8
1
 62
     7
 10
-1469.777975935533
 20
-663.79370250630325
 30
0.0
 11
-1469.384413095021
 21
-662.36687236288685
 31
0.0
  0
LINE
  5
1C5
  8
1
 62
     7
 10
-1472.2764145769449
 20
-661.56917102244074
 30
0.0
 11
-1471.9726366713639
 21
-660.46784887520107
 31
0.0
  0
LINE
  5
1C6
  8
1
 62
     7
 10
-1469.8664133420079
 20
-662.23392213947898
 30
0.0
 11
-1469.5626354364269
 21
-661.13259999223908
 31
0.0
  0
LINE
  5
1C7
  8
1
 62
     7
 10
-1469.08063518944
 20
-661.26555021564695
 30
0.0
 11
-1469.252310683519
 21
-661.21819693017812
 31
0.0
  0
LINE
  5
1C8
  8
1
 62
     7
 10
-1468.85261220139
 20
-660.43887137493732
 30
0.0
 11
-1469.08063518944
 21
-661.26555021564695
 31
0.0
  0
LINE
  5
1C9
  8
1
 62
     7
 10
-1468.85261220139
 20
-660.43887137493732
 30
0.0
 11
-1468.7216123956
 21
-658.08353920083164
 31
0.0
  0
LINE
  5
1CA
  8
1
 62
     7
 10
-1472.2266139303019
 20
-659.50821981108368
 30
0.0
 11
-1471.131613630535
 21
-657.41878808379317
 31
0.0
  0
LINE
  5
1CB
  8
1
 62
     7
 10
-1471.131613630535
 20
-657.41878808379317
 30
0.0
 11
-1468.7216123956
 21
-658.08353920083164
 31
0.0
  0
LINE
  5
1CC
  8
1
 62
     7
 10
-1472.4546369183511
 20
-660.33489865179308
 30
0.0
 11
-1472.2266139303019
 21
-659.50821981108368
 31
0.0
  0
LINE
  5
1CD
  8
1
 62
     7
 10
-1475.493553234347
 20
-669.47184016079279
 30
0.0
 11
-1473.6339779114321
 21
-662.73010071904196
 31
0.0
  0
LINE
  5
1CE
  8
1
 62
     7
 10
-1469.2959756885459
 20
-663.9266527297109
 30
0.0
 11
-1469.4440209714819
 21
-663.88581737005313
 31
0.0
  0
LINE
  5
1CF
  8
1
 62
     7
 10
-1471.155551011462
 20
-670.66839217146128
 30
0.0
 11
-1471.3035962943979
 21
-670.62755681180363
 31
0.0
  0
LINE
  5
1D0
  8
1
 62
     7
 10
-1471.155551011462
 20
-670.66839217146128
 30
0.0
 11
-1469.2959756885459
 21
-663.9266527297109
 31
0.0
  0
LINE
  5
1D1
  8
1
 62
     7
 10
-1482.2563316842341
 20
-662.62801107160283
 30
0.0
 11
-1482.2563316842341
 21
-669.62151313294908
 31
0.0
  0
LINE
  5
1D2
  8
1
 62
     7
 10
-1482.102757817973
 20
-669.62151313294908
 30
0.0
 11
-1482.2563316842341
 21
-669.62151313294908
 31
0.0
  0
LINE
  5
1D3
  8
1
 62
     7
 10
-1482.102757817973
 20
-662.62801107160283
 30
0.0
 11
-1482.2563316842341
 21
-662.62801107160283
 31
0.0
  0
LINE
  5
1D4
  8
1
 62
     7
 10
-1477.7563316842341
 20
-662.62801107160283
 30
0.0
 11
-1477.7563316842341
 21
-669.62151313294908
 31
0.0
  0
LINE
  5
1D5
  8
1
 62
     7
 10
-1478.2563316842341
 20
-659.1478975733894
 30
0.0
 11
-1478.2563316842341
 21
-660.0054477985982
 31
0.0
  0
LINE
  5
1D6
  8
1
 62
     7
 10
-1481.2563316842341
 20
-656.84252328718446
 30
0.0
 11
-1478.7563316842341
 21
-656.84252328718446
 31
0.0
  0
LINE
  5
1D7
  8
1
 62
     7
 10
-1478.7563316842341
 20
-656.84252328718446
 30
0.0
 11
-1478.2563316842341
 21
-659.1478975733894
 31
0.0
  0
LINE
  5
1D8
  8
1
 62
     7
 10
-1481.2563316842341
 20
-656.84252328718446
 30
0.0
 11
-1481.7563316842341
 21
-659.1478975733894
 31
0.0
  0
LINE
  5
1D9
  8
1
 62
     7
 10
-1481.7563316842341
 20
-660.0054477985982
 30
0.0
 11
-1481.7563316842341
 21
-659.1478975733894
 31
0.0
  0
LINE
  5
1DA
  8
1
 62
     7
 10
-1481.5782451633711
 20
-660.0054477985982
 30
0.0
 11
-1481.7563316842341
 21
-660.0054477985982
 31
0.0
  0
LINE
  5
1DB
  8
1
 62
     7
 10
-1481.2563316842341
 20
-660.0054477985982
 30
0.0
 11
-1481.2563316842341
 21
-661.1478975733894
 31
0.0
  0
LINE
  5
1DC
  8
1
 62
     7
 10
-1478.7563316842341
 20
-660.0054477985982
 30
0.0
 11
-1478.7563316842341
 21
-661.1478975733894
 31
0.0
  0
LINE
  5
1DD
  8
1
 62
     7
 10
-1481.7563316842341
 20
-661.1478975733894
 30
0.0
 11
-1481.7563316842341
 21
-662.62801107160283
 31
0.0
  0
LINE
  5
1DE
  8
1
 62
     7
 10
-1481.7563316842341
 20
-661.1478975733894
 30
0.0
 11
-1478.2563316842341
 21
-661.1478975733894
 31
0.0
  0
LINE
  5
1DF
  8
1
 62
     7
 10
-1482.102757817973
 20
-669.62151313294908
 30
0.0
 11
-1477.7563316842341
 21
-669.62151313294908
 31
0.0
  0
LINE
  5
1E0
  8
1
 62
     7
 10
-1482.102757817973
 20
-662.62801107160283
 30
0.0
 11
-1477.7563316842341
 21
-662.62801107160283
 31
0.0
  0
LINE
  5
1E1
  8
1
 62
     7
 10
-1478.2563316842341
 20
-662.62801107160283
 30
0.0
 11
-1478.2563316842341
 21
-661.1478975733894
 31
0.0
  0
LINE
  5
1E2
  8
1
 62
     7
 10
-1481.5782451633711
 20
-660.0054477985982
 30
0.0
 11
-1478.2563316842341
 21
-660.0054477985982
 31
0.0
  0
LINE
  5
1E3
  8
1
 62
     7
 10
-1481.0063316842341
 20
-682.9319307227214
 30
0.0
 11
-1481.0063316842341
 21
-669.62151313294908
 31
0.0
  0
LINE
  5
1E4
  8
1
 62
     7
 10
-1479.0063316842341
 20
-669.62151313294908
 30
0.0
 11
-1479.0063316842341
 21
-682.93193072271822
 31
0.0
  0
LINE
  5
1E5
  8
1
 62
     7
 10
-1472.3605516289299
 20
-670.33601661294233
 30
0.0
 11
-1478.1387478326851
 21
-691.28439808960673
 31
0.0
  0
LINE
  5
1E6
  8
1
 62
     7
 10
-1474.1481030736261
 20
-669.84295594459104
 30
0.0
 11
-1480.064350557471
 21
-690.7499165653835
 31
0.0
  0
LINE
  5
1E7
  8
1
 62
     7
 10
-1554.324536576934
 20
-660.13239241845258
 30
0.0
 11
-1554.8484500161701
 21
-662.08766399245076
 31
0.0
  0
LINE
  5
1E8
  8
1
 62
     7
 10
-1556.256053464582
 20
-659.61456108212599
 30
0.0
 11
-1556.773955578353
 21
-661.54634197046482
 31
0.0
  0
LINE
  5
1E9
  8
1
 62
     7
 10
-1558.1880983896949
 20
-659.09658818123569
 30
0.0
 11
-1558.712011787336
 21
-661.0518595999971
 31
0.0
  0
LINE
  5
1EA
  8
1
 62
     7
 10
-1381.434635152815
 20
-657.73230361443939
 30
0.0
 11
-1381.434635152815
 21
-658.7323036144395
 31
0.0
  0
LINE
  5
1EB
  8
1
 62
     7
 10
-1402.6374177714299
 20
-663.99307456308998
 30
0.0
 11
-1402.6374177714299
 21
-678.50728835861128
 31
0.0
  0
LINE
  5
1EC
  8
1
 62
     7
 10
-1400.6374177714299
 20
-663.99307456308998
 30
0.0
 11
-1400.6374177714299
 21
-678.50728835861128
 31
0.0
  0
LINE
  5
1ED
  8
1
 62
     7
 10
-1394.53741777143
 20
-650.46205433261446
 30
0.0
 11
-1394.53741777143
 21
-636.23230361443939
 31
0.0
  0
LINE
  5
1EE
  8
1
 62
     7
 10
-1391.6374177714299
 20
-649.27102595508666
 30
0.0
 11
-1391.6374177714299
 21
-636.23230361443939
 31
0.0
  0
LINE
  5
1EF
  8
1
 62
     7
 10
-998.46330367940448
 20
-650.88356367935069
 30
0.0
 11
-997.16332544308204
 21
-655.73514850603931
 31
0.0
  0
LINE
  5
1F0
  8
1
 62
     7
 10
-1000.395155331982
 20
-651.40120176955611
 30
0.0
 11
-999.10106010647007
 21
-656.23083090100101
 31
0.0
  0
LINE
  5
1F1
  8
1
 62
     7
 10
-1002.327006984561
 20
-651.91883985976074
 30
0.0
 11
-1001.027028748238
 21
-656.77042468644925
 31
0.0
  0
LINE
  5
1F2
  8
1
 62
     7
 10
-1235.578450393773
 20
-647.14686980743204
 30
0.0
 11
-1235.578450393773
 21
-658.7323036144395
 31
0.0
  0
ARC
  5
1F3
  8
1
 62
     7
 10
-1396.9298266157759
 20
-702.50777709665317
 30
0.0
 40
0.5316952760340027
 50
44.588608123982922
 51
87.331446048099195
  0
ARC
  5
1F4
  8
1
 62
     7
 10
-1022.315892476919
 20
-693.89483061354554
 30
0.0
 40
7.0000000000002451
 50
134.17337986812581
 51
314.17337986812828
  0
ARC
  5
1F5
  8
1
 62
     7
 10
-912.33407579797881
 20
-725.07174514978306
 30
0.0
 40
6.9999999999999369
 50
14.17337986812654
 51
194.17337986812831
  0
ARC
  5
1F6
  8
1
 62
     7
 10
-976.32498413744793
 20
-741.23230361443939
 30
0.0
 40
72.999999999999815
 50
45.826620131872509
 51
134.17337986812851
  0
ARC
  5
1F7
  8
1
 62
     7
 10
-976.32498413744793
 20
-741.23230361443939
 30
0.0
 40
72.999999999999858
 50
285.82662013187229
 51
14.173379868128629
  0
ARC
  5
1F8
  8
1
 62
     7
 10
-976.32498413744793
 20
-741.23230361443939
 30
0.0
 40
58.999999999999879
 50
45.826620131872467
 51
134.17337986812871
  0
ARC
  5
1F9
  8
1
 62
     7
 10
-976.32498413744793
 20
-741.23230361443939
 30
0.0
 40
58.999999999999893
 50
285.82662013187212
 51
14.173379868128899
  0
ARC
  5
1FA
  8
1
 62
     7
 10
-930.33407579797824
 20
-693.89483061354463
 30
0.0
 40
6.9999999999998401
 50
225.82662013187229
 51
45.82662013187295
  0
ARC
  5
1FB
  8
1
 62
     7
 10
-958.32498413744827
 20
-804.73033507998935
 30
0.0
 40
6.9999999999997673
 50
105.8266201318736
 51
285.82662013187257
  0
ARC
  5
1FC
  8
1
 62
     7
 10
-976.32498413744793
 20
-741.23230361443939
 30
0.0
 40
63.500000000000199
 50
40.037445940926148
 51
139.96255405907519
  0
ARC
  5
1FD
  8
1
 62
     7
 10
-976.32498413744793
 20
-741.23230361443939
 30
0.0
 40
63.500000000000327
 50
280.03744594092609
 51
19.962554059075512
  0
ARC
  5
1FE
  8
1
 62
     7
 10
-976.32498413744793
 20
-741.23230361443939
 30
0.0
 40
63.500000000000327
 50
160.03744594092609
 51
259.96255405907539
  0
ARC
  5
1FF
  8
1
 62
     7
 10
-976.32498413744793
 20
-741.23230361443939
 30
0.0
 40
58.999999999999872
 50
165.82662013187229
 51
254.17337986812899
  0
ARC
  5
200
  8
1
 62
     7
 10
-976.32498413744793
 20
-741.23230361443939
 30
0.0
 40
72.999999999999986
 50
165.8266201318724
 51
254.17337986812851
  0
ARC
  5
201
  8
1
 62
     7
 10
-994.32498413744679
 20
-804.7303350799898
 30
0.0
 40
7.0000000000000959
 50
254.17337986812711
 51
74.173379868126943
  0
ARC
  5
202
  8
1
 62
     7
 10
-1244.081233012387
 20
-711.03230361443957
 30
0.0
 40
2.700000000000045
 50
180.0
 51
270.0
  0
ARC
  5
203
  8
1
 62
     7
 10
-1228.4812330123859
 20
-693.93230361443955
 30
0.0
 40
2.700000000000045
 50
0.0
 51
90.0
  0
ARC
  5
204
  8
1
 62
     7
 10
-1244.081233012387
 20
-693.93230361443955
 30
0.0
 40
2.700000000000045
 50
90.0
 51
180.0
  0
ARC
  5
205
  8
1
 62
     7
 10
-1228.4812330123859
 20
-711.03230361443957
 30
0.0
 40
2.700000000000045
 50
270.0
 51
0.0
  0
ARC
  5
206
  8
1
 62
     7
 10
-1228.4812330123859
 20
-771.43230361443966
 30
0.0
 40
2.700000000000045
 50
0.0
 51
90.0
  0
ARC
  5
207
  8
1
 62
     7
 10
-1244.081233012387
 20
-788.53230361443968
 30
0.0
 40
2.700000000000045
 50
180.0
 51
270.0
  0
ARC
  5
208
  8
1
 62
     7
 10
-1228.4812330123859
 20
-788.53230361443968
 30
0.0
 40
2.700000000000045
 50
270.0
 51
0.0
  0
ARC
  5
209
  8
1
 62
     7
 10
-1244.081233012387
 20
-771.43230361443966
 30
0.0
 40
2.700000000000045
 50
90.0
 51
180.0
  0
ARC
  5
20A
  8
1
 62
     7
 10
-1586.1257446489551
 20
-771.17669078505435
 30
0.0
 40
2.5
 50
180.0
 51
270.0
  0
ARC
  5
20B
  8
1
 62
     7
 10
-1570.1257446489551
 20
-771.17669078505435
 30
0.0
 40
2.5
 50
270.0
 51
0.0
  0
ARC
  5
20C
  8
1
 62
     7
 10
-1365.8874177714299
 20
-687.38962068602621
 30
0.0
 40
50.0
 50
180.0
 51
195.42046435251731
  0
ARC
  5
20D
  8
1
 62
     7
 10
-1397.83741777143
 20
-706.89498403977473
 30
0.0
 40
0.299999999998937
 50
339.50824758296221
 51
349.80906739526063
  0
ARC
  5
20E
  8
1
 62
     7
 10
-1398.8249099491479
 20
-705.59498403977261
 30
0.0
 40
1.600000000000235
 50
196.19135163860949
 51
239.16824074110349
  0
ARC
  5
20F
  8
1
 62
     7
 10
-985.82498413744804
 20
-638.73390725010984
 30
0.0
 40
2.5016036356702211
 50
90.0
 51
182.05165549298849
  0
ARC
  5
210
  8
1
 62
     7
 10
-966.82498413744781
 20
-638.7323036144395
 30
0.0
 40
2.5
 50
0.0
 51
90.0
  0
ARC
  5
211
  8
1
 62
     7
 10
-1236.281233012387
 20
-702.4823036144395
 30
0.0
 40
6.7499999999999636
 50
59.999999999999822
 51
120.0000000000002
  0
ARC
  5
212
  8
1
 62
     7
 10
-1236.281233012387
 20
-702.4823036144395
 30
0.0
 40
6.7499999999999636
 50
300.00000000000011
 51
59.999999999999822
  0
ARC
  5
213
  8
1
 62
     7
 10
-1236.281233012387
 20
-702.4823036144395
 30
0.0
 40
6.7499999999999636
 50
120.0000000000002
 51
239.9999999999998
  0
ARC
  5
214
  8
1
 62
     7
 10
-1236.281233012387
 20
-702.4823036144395
 30
0.0
 40
6.7499999999999636
 50
239.9999999999998
 51
300.00000000000011
  0
ARC
  5
215
  8
1
 62
     7
 10
-1236.281233012387
 20
-779.98230361443973
 30
0.0
 40
6.7499999999999636
 50
59.999999999999822
 51
120.0000000000002
  0
ARC
  5
216
  8
1
 62
     7
 10
-1236.281233012387
 20
-779.98230361443973
 30
0.0
 40
6.7499999999999636
 50
120.0000000000002
 51
239.9999999999998
  0
ARC
  5
217
  8
1
 62
     7
 10
-1236.281233012387
 20
-779.98230361443973
 30
0.0
 40
6.7499999999999636
 50
300.00000000000011
 51
59.999999999999822
  0
ARC
  5
218
  8
1
 62
     7
 10
-1236.281233012387
 20
-779.98230361443973
 30
0.0
 40
6.7499999999999636
 50
239.9999999999998
 51
300.00000000000011
  0
ARC
  5
219
  8
1
  6
DASHDOT
 62
     3
 10
-976.32498413744793
 20
-741.23230361443939
 30
0.0
 40
46.000000000000071
 50
20.00000000000016
 51
40.000000000000028
  0
ARC
  5
21A
  8
1
  6
DASHDOT
 62
     3
 10
-976.32498413744793
 20
-741.23230361443939
 30
0.0
 40
45.999999999999929
 50
320.00000000000011
 51
340.00000000000011
  0
ARC
  5
21B
  8
1
  6
DASHDOT
 62
     3
 10
-976.32498413744793
 20
-741.23230361443939
 30
0.0
 40
45.999999999999858
 50
260.0
 51
280.0
  0
ARC
  5
21C
  8
1
  6
DASHDOT
 62
     3
 10
-976.32498413744793
 20
-741.23230361443939
 30
0.0
 40
46.000000000000107
 50
199.99999999999989
 51
220.0
  0
ARC
  5
21D
  8
1
  6
DASHDOT
 62
     3
 10
-976.32498413744793
 20
-741.23230361443939
 30
0.0
 40
45.999999999999929
 50
140.0
 51
160.0
  0
ARC
  5
21E
  8
1
  6
DASHDOT
 62
     3
 10
-976.32498413744793
 20
-741.23230361443939
 30
0.0
 40
45.999999999999993
 50
80.000000000000028
 51
99.999999999999957
  0
ARC
  5
21F
  8
1
 62
     7
 10
-1578.1374177714299
 20
-741.23230361443939
 30
0.0
 40
64.000000000000043
 50
66.187025568888529
 51
29.471982808919758
  0
ARC
  5
220
  8
1
 62
     7
 10
-1578.1257446489551
 20
-739.85730361443939
 30
0.0
 40
29.625
 50
290.75853771673729
 51
249.24146228326259
  0
ARC
  5
221
  8
1
 62
     7
 10
-1040.315892476918
 20
-725.07174514978442
 30
0.0
 40
6.9999999999999369
 50
345.82662013187348
 51
165.82662013187289
  0
ARC
  5
222
  8
1
 62
     7
 10
-976.32498413744793
 20
-741.23230361443939
 30
0.0
 40
14.999999999999931
 50
103.49339882155169
 51
76.506601178448278
  0
ARC
  5
223
  8
1
 62
     7
 10
-1578.1374177714299
 20
-741.23230361443939
 30
0.0
 40
14.999999999999931
 50
103.49339882155169
 51
180.0
  0
ARC
  5
224
  8
1
 62
     7
 10
-1569.1257446489551
 20
-639.2323036144395
 30
0.0
 40
3.0
 50
0.0
 51
90.0
  0
ARC
  5
225
  8
1
 62
     7
 10
-1563.1257446489551
 20
-661.23230361443939
 30
0.0
 40
3.0
 50
180.0
 51
270.0
  0
ARC
  5
226
  8
1
 62
     7
 10
-1561.1257446489551
 20
-667.2323036144395
 30
0.0
 40
3.0
 50
0.0
 51
90.0
  0
ARC
  5
227
  8
1
 62
     7
 10
-1595.1257446489551
 20
-667.2323036144395
 30
0.0
 40
3.0
 50
90.0
 51
180.0
  0
ARC
  5
228
  8
1
 62
     7
 10
-1593.1257446489551
 20
-661.23230361443939
 30
0.0
 40
3.0
 50
270.0
 51
0.0
  0
ARC
  5
229
  8
1
 62
     7
 10
-1587.1257446489551
 20
-639.2323036144395
 30
0.0
 40
3.0
 50
90.0
 51
180.0
  0
ARC
  5
22A
  8
1
 62
     7
 10
-1578.1374177714299
 20
-741.23230361443939
 30
0.0
 40
15.0
 50
180.0
 51
76.506601178448278
  0
ARC
  5
22B
  8
1
 62
     7
 10
-1405.988275184855
 20
-704.65883901016741
 30
0.0
 40
6.7508607761096817
 50
195.42046435251859
 51
0.0
  0
ARC
  5
22C
  8
1
 62
     7
 10
-1405.988275184855
 20
-704.65883901016741
 30
0.0
 40
8.7508607761103647
 50
195.4204643525166
 51
0.0
  0
ARC
  5
22D
  8
1
 62
     7
 10
-1387.677635652861
 20
-680.76532174316594
 30
0.0
 40
14.30254683518857
 50
212.45689583910561
 51
224.00010331883351
  0
ARC
  5
22E
  8
1
 62
     7
 10
-1389.0338985721121
 20
-684.94258857571322
 30
0.0
 40
12.255878865437641
 50
203.65520854482841
 51
212.61627641760839
  0
ARC
  5
22F
  8
1
 62
     7
 10
-1396.404838009342
 20
-694.88076431308059
 30
0.0
 40
4.7325797620871777
 50
130.96625686798501
 51
143.95621575619231
  0
ARC
  5
230
  8
1
 62
     7
 10
-1396.4048380093211
 20
-692.88072762975889
 30
0.0
 40
4.7325797621089487
 50
142.97965491511701
 51
177.32784207876321
  0
ARC
  5
231
  8
1
 62
     7
 10
-1387.021270422257
 20
-678.57911256045327
 30
0.0
 40
18.44173469839907
 50
214.1417752558703
 51
222.04458255356249
  0
ARC
  5
232
  8
1
 62
     7
 10
-1393.3759415586489
 20
-680.88830889095175
 30
0.0
 40
10.763778051834199
 50
192.96240094959421
 51
194.88204367508109
  0
ARC
  5
233
  8
1
 62
     7
 10
-1374.342681108795
 20
-678.50728835861946
 30
0.0
 40
28.294736662634929
 50
179.99999999998329
 51
183.27198938714989
  0
ARC
  5
234
  8
1
 62
     7
 10
-1384.127341971091
 20
-678.50728835860571
 30
0.0
 40
18.510075800337969
 50
180.00000000001759
 51
184.9583526991924
  0
ARC
  5
235
  8
1
 62
     7
 10
-1384.127341971091
 20
-678.50728835861128
 30
0.0
 40
16.510075800337962
 50
180.0
 51
183.96348179358009
  0
ARC
  5
236
  8
1
 62
     7
 10
-1400.93975849969
 20
-682.62932627518035
 30
0.0
 40
3.002175881550607
 50
92.4978355934863
 51
192.9624009495563
  0
ARC
  5
237
  8
1
 62
     7
 10
-1400.9457523827159
 20
-682.49192467554042
 30
0.0
 40
2.864643608184172
 50
41.090517617745512
 51
92.497835593486514
  0
ARC
  5
238
  8
1
 62
     7
 10
-1409.8503173667591
 20
-690.25727700344112
 30
0.0
 40
14.67954836156458
 50
25.571216651871829
 51
41.090517617754813
  0
ARC
  5
239
  8
1
 62
     7
 10
-1399.8887852883399
 20
-686.87510964229125
 30
0.0
 40
3.8678507098928292
 50
349.48207125219159
 51
352.89831554262361
  0
ARC
  5
23A
  8
1
 62
     7
 10
-1402.1843807428829
 20
-686.58910957713283
 30
0.0
 40
6.181193427301781
 50
352.89831554267931
 51
25.571216651865939
  0
ARC
  5
23B
  8
1
 62
     7
 10
-1393.375941558648
 20
-682.88830889095846
 30
0.0
 40
10.763778051834681
 50
192.96240094955701
 51
214.1417752558705
  0
ARC
  5
23C
  8
1
 62
     7
 10
-1400.93975849969
 20
-684.62932627518035
 30
0.0
 40
3.002175881550607
 50
92.4978355934863
 51
192.9624009495563
  0
ARC
  5
23D
  8
1
 62
     7
 10
-1400.9457523827159
 20
-684.49192467554042
 30
0.0
 40
2.864643608184172
 50
41.090517617745512
 51
92.497835593486514
  0
ARC
  5
23E
  8
1
 62
     7
 10
-1409.8503173667591
 20
-692.25727700344112
 30
0.0
 40
14.67954836156458
 50
25.571216651871829
 51
41.090517617754813
  0
ARC
  5
23F
  8
1
 62
     7
 10
-1402.1843807428829
 20
-688.58910957713283
 30
0.0
 40
6.181193427301781
 50
352.89831554267931
 51
25.571216651865939
  0
ARC
  5
240
  8
1
 62
     7
 10
-1399.888785288342
 20
-688.87510964229705
 30
0.0
 40
3.8678507098941131
 50
347.39074312853131
 51
352.89831554271427
  0
ARC
  5
241
  8
1
 62
     7
 10
-1400.93975849969
 20
-684.62932627518035
 30
0.0
 40
1.0021758815501189
 50
92.497835593496916
 51
192.9624009495555
  0
ARC
  5
242
  8
1
 62
     7
 10
-1400.9457523827159
 20
-684.49192467554042
 30
0.0
 40
0.8646436081837068
 50
41.090517617766572
 51
92.49783559349936
  0
ARC
  5
243
  8
1
 62
     7
 10
-1409.85031736676
 20
-692.25727700343953
 30
0.0
 40
12.67954836156493
 50
25.599357694733559
 51
41.090517617748169
  0
ARC
  5
244
  8
1
 62
     7
 10
-1374.342681108795
 20
-678.50728835861128
 30
0.0
 40
28.294736662634829
 50
192.9624009495576
 51
203.6552085448362
  0
ARC
  5
245
  8
1
 62
     7
 10
-1395.6374177714299
 20
-691.42363403579941
 30
0.0
 40
1.0
 50
0.0
 51
53.247091286471949
  0
ARC
  5
246
  8
1
 62
     7
 10
-1387.6776356528601
 20
-680.76532174316719
 30
0.0
 40
12.3025468351884
 50
212.45689583909609
 51
233.2470912864699
  0
ARC
  5
247
  8
1
 62
     7
 10
-1384.1273419710899
 20
-678.50728835861457
 30
0.0
 40
16.510075800337859
 50
206.164300905315
 51
212.45689583908239
  0
ARC
  5
248
  8
1
 62
     7
 10
-1384.127341971091
 20
-678.50728835861025
 30
0.0
 40
18.510075800338718
 50
197.5236950855008
 51
212.45689583910109
  0
ARC
  5
249
  8
1
 62
     7
 10
-1388.837417771429
 20
-702.69498403977389
 30
0.0
 40
11.999999999999879
 50
173.87169304444529
 51
196.19135163860929
  0
ARC
  5
24A
  8
1
 62
     7
 10
-1542.918084122623
 20
-686.88915124630626
 30
0.0
 40
4.862721182479711
 50
242.2447023965498
 51
260.09565530297692
  0
ARC
  5
24B
  8
1
 62
     7
 10
-1542.101546717219
 20
-685.33751709357693
 30
0.0
 40
6.616089905350119
 50
205.4938931590541
 51
242.24470239653331
  0
ARC
  5
24C
  8
1
 62
     7
 10
-1536.194312524593
 20
-702.69498403977263
 30
0.0
 40
2.0399999999996878
 50
134.99999999999091
 51
225.0000000000089
  0
ARC
  5
24D
  8
1
 62
     7
 10
-1539.5884250742879
 20
-699.30087149007716
 30
0.0
 40
2.04000000000033
 50
224.99999999999099
 51
315.0000000000021
  0
ARC
  5
24E
  8
1
 62
     7
 10
-1542.9825376239819
 20
-702.69498403977252
 30
0.0
 40
2.039999999999849
 50
314.99999999998641
 51
45.000000000006779
  0
ARC
  5
24F
  8
1
 62
     7
 10
-1539.5884250742879
 20
-706.08909658946777
 30
0.0
 40
2.0400000000001701
 50
44.999999999995481
 51
135.00000000000901
  0
ARC
  5
250
  8
1
 62
     7
 10
-1542.31002323794
 20
-667.27095652879541
 30
0.0
 40
14.47878979867653
 50
259.25578242272007
 51
272.23257884706533
  0
ARC
  5
251
  8
1
 62
     7
 10
-1541.534378916901
 20
-687.16662630953692
 30
0.0
 40
5.4319937152154889
 50
351.62423627811501
 51
92.232578847080589
  0
ARC
  5
252
  8
1
 62
     7
 10
-1542.310023237942
 20
-667.27095652879518
 30
0.0
 40
16.478789798676399
 50
259.25587536292898
 51
272.23257884707419
  0
ARC
  5
253
  8
1
 62
     7
 10
-1542.3100232379461
 20
-667.27095652879518
 30
0.0
 40
18.478789798675919
 50
262.13751241129222
 51
272.23257884708738
  0
ARC
  5
254
  8
1
 62
     7
 10
-1541.4564669331271
 20
-689.16510816404161
 30
0.0
 40
5.4319937152157056
 50
336.11541938968082
 51
92.232578847078088
  0
ARC
  5
255
  8
1
 62
     7
 10
-1541.4564669331271
 20
-689.16510816404161
 30
0.0
 40
3.4319937152164051
 50
7.5785908879699564
 51
92.232578847077079
  0
ARC
  5
256
  8
1
 62
     7
 10
-1517.337953168774
 20
-673.52912860116794
 30
0.0
 40
30.050987467037391
 50
205.49389315905711
 51
216.06188861198561
  0
ARC
  5
257
  8
1
 62
     7
 10
-1534.845619355744
 20
-681.87756654199836
 30
0.0
 40
10.65473031865254
 50
182.69860776632609
 51
205.49389315905691
  0
ARC
  5
258
  8
1
 62
     7
 10
-1544.5191868255861
 20
-682.33352482232988
 30
0.0
 40
0.9704231391484705
 50
42.982368801019142
 51
182.6986077663222
  0
ARC
  5
259
  8
1
 62
     7
 10
-1517.3379531687749
 20
-673.52912860116612
 30
0.0
 40
32.050987467037459
 50
205.4938931590606
 51
216.06188861198959
  0
ARC
  5
25A
  8
1
 62
     7
 10
-1534.845619355744
 20
-681.87756654199836
 30
0.0
 40
12.654730318652421
 50
182.69860776632621
 51
205.49389315905651
  0
ARC
  5
25B
  8
1
 62
     7
 10
-1544.5191868255861
 20
-682.33352482232988
 30
0.0
 40
2.970423139148477
 50
42.982368801015141
 51
182.69860776632501
  0
ARC
  5
25C
  8
1
 62
     7
 10
-1547.7845297195729
 20
-685.37662827659926
 30
0.0
 40
7.433935528365752
 50
29.290664477329599
 51
42.982368801012747
  0
ARC
  5
25D
  8
1
 62
     7
 10
-1469.017329774101
 20
-653.06765321975661
 30
0.0
 40
77.70208303295523
 50
205.65524554811859
 51
206.64805384341719
  0
ARC
  5
25E
  8
1
 62
     7
 10
-1469.0173297741039
 20
-653.0676532197499
 30
0.0
 40
79.702083032955585
 50
204.20061957542131
 51
206.6480538434225
  0
ARC
  5
25F
  8
1
 62
     7
 10
-1534.845619355744
 20
-681.87756654199836
 30
0.0
 40
14.654730318652559
 50
178.97091371509131
 51
205.49389315905651
  0
ARC
  5
260
  8
1
 62
     7
 10
-1546.5308569656111
 20
-681.474513910881
 30
0.0
 40
2.9704231391485592
 50
45.272408365216407
 51
182.69860776632501
  0
ARC
  5
261
  8
1
 62
     7
 10
-1469.017329774101
 20
-653.06765321975661
 30
0.0
 40
81.702083032956025
 50
203.52478637073011
 51
206.6480538434169
  0
ARC
  5
262
  8
1
 62
     7
 10
-1543.617289599182
 20
-670.50965521949706
 30
0.0
 40
12.986209871404061
 50
240.0510911083943
 51
243.06960572589429
  0
ARC
  5
263
  8
1
 62
     7
 10
-1543.617289599182
 20
-670.50965521949706
 30
0.0
 40
14.98620987140422
 50
240.1307043229441
 51
247.77971904360251
  0
ARC
  5
264
  8
1
 62
     7
 10
-1540.1689028182291
 20
-690.15449286074079
 30
0.0
 40
3.80820080106818
 50
216.0618886119895
 51
278.64018844694442
  0
ARC
  5
265
  8
1
 62
     7
 10
-1540.1689028182291
 20
-690.15449286074079
 30
0.0
 40
1.8082008010685291
 50
216.06188861198791
 51
245.7263144255553
  0
ARC
  5
266
  8
1
 62
     7
 10
-1506.4452171192979
 20
-671.84942188113178
 30
0.0
 40
35.826056655394503
 50
206.64805384341491
 51
214.3439767739597
  0
ARC
  5
267
  8
1
 62
     7
 10
-1506.4452171193
 20
-671.84942188112859
 30
0.0
 40
37.826056655394019
 50
206.64805384342051
 51
214.91346333894779
  0
ARC
  5
268
  8
1
 62
     7
 10
-1506.4452171192991
 20
-671.8494218811303
 30
0.0
 40
39.826056655394787
 50
206.6480538434169
 51
215.4248919729981
  0
ARC
  5
269
  8
1
 62
     7
 10
-1496.8620246081109
 20
-665.30142729913257
 30
0.0
 40
47.432684578798458
 50
226.4848558943356
 51
230.3899513338221
  0
ARC
  5
26A
  8
1
 62
     7
 10
-1506.0889533314601
 20
-676.45088622341723
 30
0.0
 40
32.960412885313147
 50
230.38995133382249
 51
271.00112090907692
  0
ARC
  5
26B
  8
1
 62
     7
 10
-1505.920777724092
 20
-686.0748705106455
 30
0.0
 40
23.334959306612209
 50
271.00112090907493
 51
305.22501070597087
  0
ARC
  5
26C
  8
1
 62
     7
 10
-1508.036752853081
 20
-683.07806265672468
 30
0.0
 40
27.003502349813669
 50
305.22501070597508
 51
339.12521725233972
  0
ARC
  5
26D
  8
1
 62
     7
 10
-1508.4199405270949
 20
-682.93193072276392
 30
0.0
 40
27.413608842860761
 50
339.1252172521443
 51
0.0000000000891041
  0
ARC
  5
26E
  8
1
 62
     7
 10
-1508.0367528530801
 20
-683.07806265672366
 30
0.0
 40
29.00350234981385
 50
305.22501070597082
 51
339.12521725233711
  0
ARC
  5
26F
  8
1
 62
     7
 10
-1505.920777724092
 20
-686.0748705106455
 30
0.0
 40
25.33495930661207
 50
271.00112090907601
 51
305.22501070596951
  0
ARC
  5
270
  8
1
 62
     7
 10
-1506.0889533314601
 20
-676.45088622341723
 30
0.0
 40
34.960412885313168
 50
230.3899513338219
 51
271.0011209090776
  0
ARC
  5
271
  8
1
 62
     7
 10
-1496.8620246081109
 20
-665.30142729913348
 30
0.0
 40
49.432684578798487
 50
226.424767371895
 51
230.38995133381991
  0
ARC
  5
272
  8
1
 62
     7
 10
-1496.8620246081141
 20
-665.30142729912973
 30
0.0
 40
51.43108525634468
 50
226.3693960083003
 51
230.3899513338267
  0
ARC
  5
273
  8
1
 62
     7
 10
-1506.0889533314601
 20
-676.45088622341723
 30
0.0
 40
36.958813562859177
 50
230.38995133382289
 51
271.00112090907828
  0
ARC
  5
274
  8
1
 62
     7
 10
-1505.920777724092
 20
-686.0748705106455
 30
0.0
 40
27.333359984158442
 50
271.00112090907709
 51
305.22501070597002
  0
ARC
  5
275
  8
1
 62
     7
 10
-1508.0367528530801
 20
-683.07806265672366
 30
0.0
 40
31.00190302735977
 50
305.2250107059711
 51
339.12521725233711
  0
ARC
  5
276
  8
1
 62
     7
 10
-1508.4199405270949
 20
-682.93193072276392
 30
0.0
 40
31.412009520407171
 50
339.1252172521443
 51
344.57953564748112
  0
ARC
  5
277
  8
1
 62
     7
 10
-1508.4199405270949
 20
-682.9319307227629
 30
0.0
 40
29.413608842862018
 50
339.1252172521431
 51
0.0000000000872531
  0
ARC
  5
278
  8
1
 62
     7
 10
-1545.174803719671
 20
-662.583489978937
 30
0.0
 40
13.47235400053364
 50
94.604997568204212
 51
164.99999999999889
  0
ARC
  5
279
  8
1
 62
     7
 10
-1545.256845934578
 20
-661.56491254169021
 30
0.0
 40
12.45047782374172
 50
5.259177288336268
 51
94.604997568201824
  0
ARC
  5
27A
  8
1
 62
     7
 10
-1542.803946235
 20
-661.33912650853426
 30
0.0
 40
9.9872083969520862
 50
272.46228796145232
 51
5.2591772883365504
  0
ARC
  5
27B
  8
1
 62
     7
 10
-1541.9183303468651
 20
-681.93412266515611
 30
0.0
 40
10.62682037455642
 50
92.462287961450713
 51
140.6678143926886
  0
ARC
  5
27C
  8
1
 62
     7
 10
-1547.6954674781859
 20
-677.20016884503764
 30
0.0
 40
3.157842385224892
 50
140.66781439268431
 51
243.18629671893399
  0
ARC
  5
27D
  8
1
 62
     7
 10
-1547.6954674781859
 20
-677.20016884503764
 30
0.0
 40
5.1567685729104493
 50
140.66781439268459
 51
243.1862967189291
  0
ARC
  5
27E
  8
1
 62
     7
 10
-1547.6954674781859
 20
-677.20016884503764
 30
0.0
 40
7.1563322578984021
 50
140.66781439268621
 51
243.18629671893291
  0
ARC
  5
27F
  8
1
 62
     7
 10
-1541.9183303468651
 20
-681.93412266515611
 30
0.0
 40
12.62574656224181
 50
92.462287961450016
 51
140.6678143926882
  0
ARC
  5
280
  8
1
 62
     7
 10
-1542.803946235
 20
-661.33912650853426
 30
0.0
 40
7.9882822092667052
 50
272.4622879614538
 51
5.2591772883369234
  0
ARC
  5
281
  8
1
 62
     7
 10
-1542.803946235
 20
-661.33912650853426
 30
0.0
 40
5.9906133103641297
 50
272.46228796144811
 51
5.2591772883370727
  0
ARC
  5
282
  8
1
 62
     7
 10
-1545.256845934578
 20
-661.56491254169021
 30
0.0
 40
10.45155163605631
 50
5.2591772883364989
 51
94.604997568201014
  0
ARC
  5
283
  8
1
 62
     7
 10
-1545.256845934578
 20
-661.56491254169021
 30
0.0
 40
8.4538827371535685
 50
5.2591772883365051
 51
94.604997568203856
  0
ARC
  5
284
  8
1
 62
     7
 10
-1545.174803719671
 20
-662.583489978937
 30
0.0
 40
11.47342781284814
 50
94.604997568203913
 51
164.9999999999977
  0
ARC
  5
285
  8
1
 62
     7
 10
-1545.174803719671
 20
-662.583489978937
 30
0.0
 40
9.4757589139454979
 50
94.604997568207068
 51
165.0
  0
ARC
  5
286
  8
1
 62
     7
 10
-1541.9227229700241
 20
-681.93052322226401
 30
0.0
 40
14.61963123962706
 50
92.445694775263235
 51
140.6678143926886
  0
ARC
  5
287
  8
1
 62
     7
 10
-1578.1374177714299
 20
-741.23230361443939
 30
0.0
 40
87.499999999999957
 50
97.874832743172334
 51
19.874977930734239
  0
ARC
  5
288
  8
1
 62
     7
 10
-1578.1374177714299
 20
-741.23230361443939
 30
0.0
 40
87.49999999999973
 50
22.4934834598096
 51
59.594226662212911
  0
ARC
  5
289
  8
1
 62
     7
 10
-1578.1374177714299
 20
-741.23230361443939
 30
0.0
 40
87.500000000000114
 50
62.216600916192313
 51
73.373547823235285
  0
ARC
  5
28A
  8
1
 62
     7
 10
-1578.1374177714299
 20
-741.23230361443939
 30
0.0
 40
87.500000000000099
 50
76.083173609843627
 51
82.109734104049025
  0
ARC
  5
28B
  8
1
 62
     7
 10
-1578.1374177714299
 20
-741.23230361443939
 30
0.0
 40
82.5
 50
98.355407813778129
 51
20.088111072909712
  0
ARC
  5
28C
  8
1
 62
     7
 10
-1578.1374177714299
 20
-741.23230361443939
 30
0.0
 40
82.499999999999986
 50
22.91983584495442
 51
60.250171279546677
  0
ARC
  5
28D
  8
1
 62
     7
 10
-1578.1374177714299
 20
-741.23230361443939
 30
0.0
 40
82.500000000000071
 50
63.775973607311961
 51
81.628204063440123
  0
ARC
  5
28E
  8
1
 62
     7
 10
-1387.285657988866
 20
-663.99307456308998
 30
0.0
 40
13.35175978256369
 50
98.484390408623085
 51
180.0
  0
ARC
  5
28F
  8
1
 62
     7
 10
-1388.249649739226
 20
-657.53081226596896
 30
0.0
 40
6.8179925620734121
 50
358.30649786003983
 51
98.484390408622303
  0
ARC
  5
290
  8
1
 62
     7
 10
-1388.249734906309
 20
-657.53024133574422
 30
0.0
 40
8.8174153145069312
 50
358.6868794414554
 51
98.484390408616861
  0
ARC
  5
291
  8
1
 62
     7
 10
-1387.285657988866
 20
-663.99307456308998
 30
0.0
 40
15.35175978256372
 50
98.484390408621167
 51
180.0
  0
CIRCLE
  5
292
  8
1
 62
     7
 10
-976.32498413744793
 20
-646.2323036144395
 30
0.0
 40
4.25
  0
CIRCLE
  5
293
  8
1
 62
     7
 10
-976.32498413744793
 20
-741.23230361443939
 30
0.0
 40
87.0
  0
CIRCLE
  5
294
  8
1
 62
     7
 10
-976.32498413744793
 20
-741.23230361443939
 30
0.0
 40
88.0
  0
CIRCLE
  5
295
  8
1
 62
     7
 10
-1586.1257446489551
 20
-770.92669078505435
 30
0.0
 40
1.25
  0
CIRCLE
  5
296
  8
1
 62
     7
 10
-1570.1257446489551
 20
-770.92669078505435
 30
0.0
 40
1.25
  0
CIRCLE
  5
297
  8
1
 62
     7
 10
-1578.1257446489551
 20
-741.23230361443939
 30
0.0
 40
27.5
  0
CIRCLE
  5
298
  8
1
 62
     7
 10
-976.32498413744793
 20
-741.23230361443939
 30
0.0
 40
35.0
  0
CIRCLE
  5
299
  8
1
 62
     7
 10
-936.48781556336382
 20
-718.2323036144395
 30
0.0
 40
4.0
  0
CIRCLE
  5
29A
  8
1
 62
     7
 10
-936.48781556336382
 20
-718.2323036144395
 30
0.0
 40
3.0
  0
CIRCLE
  5
29B
  8
1
 62
     7
 10
-983.82498413744781
 20
-661.58464200406945
 30
0.0
 40
5.75
  0
CIRCLE
  5
29C
  8
1
 62
     7
 10
-983.82498413744781
 20
-661.58464200406945
 30
0.0
 40
5.0
  0
CIRCLE
  5
29D
  8
1
 62
     7
 10
-968.82498413744804
 20
-661.58464200406945
 30
0.0
 40
5.0
  0
CIRCLE
  5
29E
  8
1
 62
     7
 10
-968.82498413744804
 20
-661.58464200406945
 30
0.0
 40
5.7500000000001128
  0
CIRCLE
  5
29F
  8
1
 62
     7
 10
-1049.0518824440551
 20
-774.56094389124132
 30
0.0
 40
5.75
  0
CIRCLE
  5
2A0
  8
1
 62
     7
 10
-1049.0518824440551
 20
-774.56094389124132
 30
0.0
 40
5.0
  0
CIRCLE
  5
2A1
  8
1
 62
     7
 10
-1041.5518824440551
 20
-787.55132494800785
 30
0.0
 40
5.0
  0
CIRCLE
  5
2A2
  8
1
 62
     7
 10
-1041.5518824440551
 20
-787.55132494800785
 30
0.0
 40
5.75
  0
CIRCLE
  5
2A3
  8
1
 62
     7
 10
-911.09808583084123
 20
-787.55132494800785
 30
0.0
 40
5.7499999999998863
  0
CIRCLE
  5
2A4
  8
1
 62
     7
 10
-911.09808583084123
 20
-787.55132494800785
 30
0.0
 40
5.0
  0
CIRCLE
  5
2A5
  8
1
 62
     7
 10
-903.59808583084134
 20
-774.56094389124132
 30
0.0
 40
5.0
  0
CIRCLE
  5
2A6
  8
1
 62
     7
 10
-903.59808583084134
 20
-774.56094389124132
 30
0.0
 40
5.75
  0
CIRCLE
  5
2A7
  8
1
 62
     7
 10
-1016.162152711532
 20
-718.2323036144395
 30
0.0
 40
3.0
  0
CIRCLE
  5
2A8
  8
1
 62
     7
 10
-1016.162152711532
 20
-718.2323036144395
 30
0.0
 40
4.0
  0
CIRCLE
  5
2A9
  8
1
 62
     7
 10
-976.32498413744827
 20
-787.23230361443939
 30
0.0
 40
3.0
  0
CIRCLE
  5
2AA
  8
1
 62
     7
 10
-976.32498413744827
 20
-787.23230361443939
 30
0.0
 40
3.9999999999998859
  0
CIRCLE
  5
2AB
  8
1
 62
     7
 10
-976.32498413744793
 20
-695.23230361443939
 30
0.0
 40
3.9999999999998859
  0
CIRCLE
  5
2AC
  8
1
 62
     7
 10
-976.32498413744793
 20
-695.23230361443939
 30
0.0
 40
3.0
  0
CIRCLE
  5
2AD
  8
1
 62
     7
 10
-1016.162152711532
 20
-764.23230361443939
 30
0.0
 40
3.0
  0
CIRCLE
  5
2AE
  8
1
 62
     7
 10
-1016.162152711532
 20
-764.23230361443939
 30
0.0
 40
4.0
  0
CIRCLE
  5
2AF
  8
1
 62
     7
 10
-936.48781556336405
 20
-764.23230361443973
 30
0.0
 40
3.0
  0
CIRCLE
  5
2B0
  8
1
 62
     7
 10
-936.48781556336405
 20
-764.23230361443973
 30
0.0
 40
3.9999999999998859
  0
CIRCLE
  5
2B1
  8
1
 62
     7
 10
-976.32498413744793
 20
-741.23230361443939
 30
0.0
 40
25.0
  0
CIRCLE
  5
2B2
  8
1
 62
     7
 10
-1578.1257446489551
 20
-741.23230361443939
 30
0.0
 40
27.5
  0
CIRCLE
  5
2B3
  8
1
 62
     7
 10
-1578.1257446489551
 20
-741.23230361443939
 30
0.0
 40
46.0
  0
CIRCLE
  5
2B4
  8
1
 62
     7
 10
-1578.1257446489551
 20
-646.2323036144395
 30
0.0
 40
4.25
  0
CIRCLE
  5
2B5
  8
1
 62
     7
 10
-1578.1257446489551
 20
-741.23230361443939
 30
0.0
 40
27.5
  0
CIRCLE
  5
2B6
  8
1
 62
     7
 10
-1539.5884250742879
 20
-702.69498403977263
 30
0.0
 40
4.5000000000009104
  0
POLYLINE
  5
2B7
  8
1
 62
     7
 66
     1
 10
0.0
 20
0.0
 30
0.0
  0
VERTEX
  5
344
  8
1
 62
     7
 10
-1396.4833574675081
 20
-701.43699901381672
 30
0.0
 42
-0.0404674876238496
  0
VERTEX
  5
345
  8
1
 62
     7
 10
-1396.2694669859991
 20
-701.48712902092825
 30
0.0
 42
-0.0444997141883757
  0
VERTEX
  5
346
  8
1
 62
     7
 10
-1396.076110135599
 20
-701.56954615796019
 30
0.0
 42
-0.0460683223013503
  0
VERTEX
  5
347
  8
1
 62
     7
 10
-1395.9032869163079
 20
-701.68425042491219
 30
0.0
 42
-0.044612519521176
  0
VERTEX
  5
348
  8
1
 62
     7
 10
-1395.7509973281269
 20
-701.83124182178517
 30
0.0
 42
-0.0406545058673708
  0
VERTEX
  5
349
  8
1
 62
     7
 10
-1395.6192413710551
 20
-702.01052034857821
 30
0.0
  0
SEQEND
  5
34A
  8
1
 62
     7
  0
POLYLINE
  5
2BF
  8
1
 62
     7
 66
     1
 10
0.0
 20
0.0
 30
0.0
  0
VERTEX
  5
34B
  8
1
 62
     7
 10
-1396.285744230378
 20
-698.34595728178897
 30
0.0
 42
-0.0401104277801205
  0
VERTEX
  5
34C
  8
1
 62
     7
 10
-1396.2430479752261
 20
-698.36648209220448
 30
0.0
 42
-0.0466784381855334
  0
VERTEX
  5
34D
  8
1
 62
     7
 10
-1396.2073418569939
 20
-698.39227036144314
 30
0.0
 42
-0.0510805460982504
  0
VERTEX
  5
34E
  8
1
 62
     7
 10
-1396.178625875682
 20
-698.42332208950552
 30
0.0
 42
-0.0515703648289589
  0
VERTEX
  5
34F
  8
1
 62
     7
 10
-1396.15690003129
 20
-698.45963727639105
 30
0.0
 42
-0.0479267982626242
  0
VERTEX
  5
350
  8
1
 62
     7
 10
-1396.1421643238209
 20
-698.50121592210007
 30
0.0
  0
VERTEX
  5
351
  8
1
 62
     7
 10
-1396.1374177714299
 20
-698.52397904201325
 30
0.0
  0
SEQEND
  5
352
  8
1
 62
     7
  0
POLYLINE
  5
2C8
  8
1
 62
     7
 66
     1
 10
0.0
 20
0.0
 30
0.0
  0
VERTEX
  5
353
  8
1
 62
     7
 10
-1397.0278521761511
 20
-698.36753438007406
 30
0.0
 42
-0.0350016616369505
  0
VERTEX
  5
354
  8
1
 62
     7
 10
-1396.893725197765
 20
-698.31431926022231
 30
0.0
 42
-0.0384090514433771
  0
VERTEX
  5
355
  8
1
 62
     7
 10
-1396.7592418909221
 20
-698.28301170084728
 30
0.0
 42
-0.0403252080619418
  0
VERTEX
  5
356
  8
1
 62
     7
 10
-1396.624402255623
 20
-698.27361170194899
 30
0.0
 42
-0.040228175660037
  0
VERTEX
  5
357
  8
1
 62
     7
 10
-1396.489206291867
 20
-698.28611926352755
 30
0.0
 42
-0.0381461022760565
  0
VERTEX
  5
358
  8
1
 62
     7
 10
-1396.3536539996551
 20
-698.32053438558262
 30
0.0
  0
VERTEX
  5
359
  8
1
 62
     7
 10
-1396.285744230378
 20
-698.34595728178897
 30
0.0
  0
SEQEND
  5
35A
  8
1
 62
     7
  0
POLYLINE
  5
2D1
  8
1
 62
     7
 66
     1
 10
0.0
 20
0.0
 30
0.0
  0
VERTEX
  5
35B
  8
1
 62
     7
 10
-1398.1991553903149
 20
-697.89820039425581
 30
0.0
 42
-0.0531238463883967
  0
VERTEX
  5
35C
  8
1
 62
     7
 10
-1397.7665872180751
 20
-697.68923046927921
 30
0.0
 42
-0.044257260074268
  0
VERTEX
  5
35D
  8
1
 62
     7
 10
-1397.307607460669
 20
-697.57055466583029
 30
0.0
 42
-0.0336309263318591
  0
VERTEX
  5
35E
  8
1
 62
     7
 10
-1396.832469783169
 20
-697.524208232364
 30
0.0
 42
-0.0239578588961032
  0
VERTEX
  5
35F
  8
1
 62
     7
 10
-1396.3620155248859
 20
-697.53222791794508
 30
0.0
 42
-0.0309621293611065
  0
VERTEX
  5
360
  8
1
 62
     7
 10
-1395.9064795060581
 20
-697.59008916972732
 30
0.0
 42
-0.0401935299301931
  0
VERTEX
  5
361
  8
1
 62
     7
 10
-1395.465406470933
 20
-697.711583790855
 30
0.0
 42
-0.0310374428725509
  0
VERTEX
  5
362
  8
1
 62
     7
 10
-1395.1268893188681
 20
-697.86663157688611
 30
0.0
 42
-0.0538626085937202
  0
VERTEX
  5
363
  8
1
 62
     7
 10
-1394.897268367373
 20
-698.02926433448715
 30
0.0
 42
-0.0833493073074842
  0
VERTEX
  5
364
  8
1
 62
     7
 10
-1394.7240776784031
 20
-698.24404684483613
 30
0.0
 42
-0.103346926666638
  0
VERTEX
  5
365
  8
1
 62
     7
 10
-1394.6374177714299
 20
-698.52397904201325
 30
0.0
  0
SEQEND
  5
366
  8
1
 62
     7
  0
POLYLINE
  5
2DE
  8
1
 62
     7
 66
     1
 10
0.0
 20
0.0
 30
0.0
  0
VERTEX
  5
367
  8
1
 62
     7
 10
-1399.9929408004109
 20
-700.76545910541188
 30
0.0
 42
-0.0190570502516198
  0
VERTEX
  5
368
  8
1
 62
     7
 10
-1400.1029073921859
 20
-700.73759693307431
 30
0.0
 42
-0.0272792027576226
  0
VERTEX
  5
369
  8
1
 62
     7
 10
-1400.1919076520121
 20
-700.70574320626622
 30
0.0
 42
-0.0409696120474697
  0
VERTEX
  5
36A
  8
1
 62
     7
 10
-1400.2599415798859
 20
-700.66989792498782
 30
0.0
 42
-0.0635806984933936
  0
VERTEX
  5
36B
  8
1
 62
     7
 10
-1400.3070091758079
 20
-700.63006108923867
 30
0.0
 42
-0.0941938513164155
  0
VERTEX
  5
36C
  8
1
 62
     7
 10
-1400.3331104397789
 20
-700.58623269901909
 30
0.0
 42
-0.1104407157899505
  0
VERTEX
  5
36D
  8
1
 62
     7
 10
-1400.3382453717991
 20
-700.53841275432899
 30
0.0
 42
-0.090708038618268
  0
VERTEX
  5
36E
  8
1
 62
     7
 10
-1400.3224139718679
 20
-700.48660125516835
 30
0.0
 42
-0.0604330766298022
  0
VERTEX
  5
36F
  8
1
 62
     7
 10
-1400.2856162399851
 20
-700.43079820153753
 30
0.0
 42
-0.039002437553817
  0
VERTEX
  5
370
  8
1
 62
     7
 10
-1400.2278521761509
 20
-700.37100359343583
 30
0.0
  0
SEQEND
  5
371
  8
1
 62
     7
  0
POLYLINE
  5
2EA
  8
1
 62
     7
 66
     1
 10
0.0
 20
0.0
 30
0.0
  0
VERTEX
  5
372
  8
1
 62
     7
 10
-1400.4585203496661
 20
-701.47965372198166
 30
0.0
 42
-0.0319905412874491
  0
VERTEX
  5
373
  8
1
 62
     7
 10
-1400.6328865186531
 20
-701.45051504246317
 30
0.0
 42
-0.0254330638712207
  0
VERTEX
  5
374
  8
1
 62
     7
 10
-1400.819108159335
 20
-701.397705351578
 30
0.0
 42
-0.0226002506961627
  0
VERTEX
  5
375
  8
1
 62
     7
 10
-1401.009722891301
 20
-701.32373712744993
 30
0.0
 42
-0.022268542890608
  0
VERTEX
  5
376
  8
1
 62
     7
 10
-1401.197268334136
 20
-701.23112284820343
 30
0.0
 42
-0.0241002710640858
  0
VERTEX
  5
377
  8
1
 62
     7
 10
-1401.374282107427
 20
-701.12237499196192
 30
0.0
 42
-0.0283558836818752
  0
VERTEX
  5
378
  8
1
 62
     7
 10
-1401.5333018307581
 20
-701.0000060368493
 30
0.0
 42
-0.0358543011407069
  0
VERTEX
  5
379
  8
1
 62
     7
 10
-1401.666865123718
 20
-700.8665284609898
 30
0.0
 42
-0.0478951698379895
  0
VERTEX
  5
37A
  8
1
 62
     7
 10
-1401.7675096058911
 20
-700.72445474250651
 30
0.0
 42
-0.065235421139741
  0
VERTEX
  5
37B
  8
1
 62
     7
 10
-1401.827772896864
 20
-700.57629735952423
 30
0.0
 42
-0.083962139161745
  0
VERTEX
  5
37C
  8
1
 62
     7
 10
-1401.840192616226
 20
-700.42456879016606
 30
0.0
 42
-0.0912717759352999
  0
VERTEX
  5
37D
  8
1
 62
     7
 10
-1401.7973063835609
 20
-700.27178151255612
 30
0.0
 42
-0.0794135208433568
  0
VERTEX
  5
37E
  8
1
 62
     7
 10
-1401.6916518184539
 20
-700.12044800481829
 30
0.0
 42
-0.0594002155460844
  0
VERTEX
  5
37F
  8
1
 62
     7
 10
-1401.515766540494
 20
-699.97308074507635
 30
0.0
  0
VERTEX
  5
380
  8
1
 62
     7
 10
-1401.3991553903161
 20
-699.90166960761781
 30
0.0
  0
SEQEND
  5
381
  8
1
 62
     7
  0
POLYLINE
  5
2FB
  8
1
 62
     7
 66
     1
 10
0.0
 20
0.0
 30
0.0
  0
VERTEX
  5
382
  8
1
 62
     7
 10
-1394.6374177714299
 20
-691.42363403579941
 30
0.0
 42
0.0629008809861458
  0
VERTEX
  5
383
  8
1
 62
     7
 10
-1394.930490688856
 20
-691.06787723520529
 30
0.0
 42
0.0592783884022766
  0
VERTEX
  5
384
  8
1
 62
     7
 10
-1395.2873535532549
 20
-690.80677664629252
 30
0.0
 42
0.0505871951681015
  0
VERTEX
  5
385
  8
1
 62
     7
 10
-1395.6932150875391
 20
-690.63017743950024
 30
0.0
 42
0.0408728376120578
  0
VERTEX
  5
386
  8
1
 62
     7
 10
-1396.1332840146169
 20
-690.52792478526726
 30
0.0
 42
0.0325788943313401
  0
VERTEX
  5
387
  8
1
 62
     7
 10
-1396.5927690574031
 20
-690.48986385403236
 30
0.0
 42
0.0263622024200284
  0
VERTEX
  5
388
  8
1
 62
     7
 10
-1397.0568789388069
 20
-690.50583981623447
 30
0.0
 42
0.0207692512562118
  0
VERTEX
  5
389
  8
1
 62
     7
 10
-1397.479845169313
 20
-690.56103963976045
 30
0.0
 42
0.0391122834528027
  0
VERTEX
  5
38A
  8
1
 62
     7
 10
-1397.853013782913
 20
-690.65690651047669
 30
0.0
 42
0.0589261754247141
  0
VERTEX
  5
38B
  8
1
 62
     7
 10
-1398.1991553903149
 20
-690.82371217137018
 30
0.0
  0
SEQEND
  5
38C
  8
1
 62
     7
  0
POLYLINE
  5
307
  8
1
 62
     7
 66
     1
 10
0.0
 20
0.0
 30
0.0
  0
VERTEX
  5
38D
  8
1
 62
     7
 10
-998.46330367940448
 20
-650.88356367935069
 30
0.0
 42
0.0586958846335076
  0
VERTEX
  5
38E
  8
1
 62
     7
 10
-998.74387376569757
 20
-650.64072140002816
 30
0.0
 42
0.0795673750307374
  0
VERTEX
  5
38F
  8
1
 62
     7
 10
-999.0152852145676
 20
-650.51960437001173
 30
0.0
 42
0.0891690555376716
  0
VERTEX
  5
390
  8
1
 62
     7
 10
-999.27653325476695
 20
-650.5032852561626
 30
0.0
 42
0.0768679093690862
  0
VERTEX
  5
391
  8
1
 62
     7
 10
-999.52661311504528
 20
-650.57483672534136
 30
0.0
 42
0.0551096557259872
  0
VERTEX
  5
392
  8
1
 62
     7
 10
-999.7645200241551
 20
-650.71733144440952
 30
0.0
 42
0.036824139696864
  0
VERTEX
  5
393
  8
1
 62
     7
 10
-999.98924921084699
 20
-650.91384208022725
 30
0.0
 42
0.0241140193000436
  0
VERTEX
  5
394
  8
1
 62
     7
 10
-1000.199795903872
 20
-651.14744129965572
 30
0.0
 42
0.0152690403049301
  0
VERTEX
  5
395
  8
1
 62
     7
 10
-1000.395155331982
 20
-651.40120176955611
 30
0.0
 42
0.0038293165513538
  0
VERTEX
  5
396
  8
1
 62
     7
 10
-1000.57545285898
 20
-651.65644361316868
 30
0.0
 42
-0.0130391081301536
  0
VERTEX
  5
397
  8
1
 62
     7
 10
-1000.750895709678
 20
-651.8956724494891
 30
0.0
 42
-0.0345724996873847
  0
VERTEX
  5
398
  8
1
 62
     7
 10
-1000.932651783595
 20
-652.09967519897282
 30
0.0
 42
-0.063792344486157
  0
VERTEX
  5
399
  8
1
 62
     7
 10
-1001.131888980247
 20
-652.24923878207392
 30
0.0
 42
-0.0933933561492184
  0
VERTEX
  5
39A
  8
1
 62
     7
 10
-1001.359775199152
 20
-652.32515011924841
 30
0.0
 42
-0.0965774685946811
  0
VERTEX
  5
39B
  8
1
 62
     7
 10
-1001.627478339828
 20
-652.30819613095127
 30
0.0
 42
-0.0713851318982413
  0
VERTEX
  5
39C
  8
1
 62
     7
 10
-1001.946166301791
 20
-652.17916373763671
 30
0.0
 42
-0.0455955165889049
  0
VERTEX
  5
39D
  8
1
 62
     7
 10
-1002.327006984561
 20
-651.91883985976074
 30
0.0
  0
SEQEND
  5
39E
  8
1
 62
     7
  0
ARC
  5
31A
  8
1
 62
     7
 10
-1400.3373910784969
 20
-693.93216148068359
 30
0.0
 40
1.5000000000001601
 50
122.0500291495963
 51
180.0
  0
TEXT
  5
31C
  8
1
 62
     7
 10
-1600.6002267290501
 20
-568.37375651973889
 30
0.0
 40
10.0
  1
MMC 10
 41
0.9
  7
SIMPLEX
  0
ENDSEC
  0
EOF
