  0
SECTION
  2
HEADER
  9
$ACADVER
  1
AC1009
  9
$INSBASE
 10
0.0
 20
0.0
 30
0.0
  9
$EXTMIN
 10
-793.91065576398762
 20
-190.5
 30
0.0
  9
$EXTMAX
 10
586.11707124540055
 20
403.88678159400979
 30
0.0
  9
$LIMMIN
 10
-756.87553230489527
 20
-190.5
  9
$LIMMAX
 10
586.11707124540044
 20
403.88678159400979
  9
$ORTHOMODE
 70
     0
  9
$REGENMODE
 70
     1
  9
$FILLMODE
 70
     1
  9
$QTEXTMODE
 70
     0
  9
$MIRRTEXT
 70
     1
  9
$DRAGMODE
 70
     2
  9
$LTSCALE
 40
1.0
  9
$OSMODE
 70
    37
  9
$ATTMODE
 70
     1
  9
$TEXTSIZE
 40
3.5
  9
$TRACEWID
 40
0.5
  9
$TEXTSTYLE
  7
STANDARD
  9
$CLAYER
  8
0
  9
$CELTYPE
  6
BYLAYER
  9
$CECOLOR
 62
   256
  9
$DIMSCALE
 40
1.0
  9
$DIMASZ
 40
0.18
  9
$DIMEXO
 40
0.0625
  9
$DIMDLI
 40
0.38
  9
$DIMRND
 40
0.0
  9
$DIMDLE
 40
0.0
  9
$DIMEXE
 40
0.18
  9
$DIMTP
 40
0.0
  9
$DIMTM
 40
0.0
  9
$DIMTXT
 40
0.18
  9
$DIMCEN
 40
0.09
  9
$DIMTSZ
 40
0.0
  9
$DIMTOL
 70
     0
  9
$DIMLIM
 70
     0
  9
$DIMTIH
 70
     1
  9
$DIMTOH
 70
     1
  9
$DIMSE1
 70
     0
  9
$DIMSE2
 70
     0
  9
$DIMTAD
 70
     0
  9
$DIMZIN
 70
     0
  9
$DIMBLK
  1

  9
$DIMASO
 70
     1
  9
$DIMSHO
 70
     1
  9
$DIMPOST
  1

  9
$DIMAPOST
  1

  9
$DIMALT
 70
     0
  9
$DIMALTD
 70
     2
  9
$DIMALTF
 40
25.399999999999999
  9
$DIMLFAC
 40
1.0
  9
$DIMTOFL
 70
     0
  9
$DIMTVP
 40
0.0
  9
$DIMTIX
 70
     0
  9
$DIMSOXD
 70
     0
  9
$DIMSAH
 70
     0
  9
$DIMBLK1
  1

  9
$DIMBLK2
  1

  9
$DIMSTYLE
  2
STANDARD
  9
$DIMCLRD
 70
     0
  9
$DIMCLRE
 70
     0
  9
$DIMCLRT
 70
     0
  9
$DIMTFAC
 40
1.0
  9
$DIMGAP
 40
0.09
  9
$LUNITS
 70
     2
  9
$LUPREC
 70
     4
  9
$SKETCHINC
 40
0.1
  9
$FILLETRAD
 40
2.0
  9
$AUNITS
 70
     0
  9
$AUPREC
 70
     0
  9
$MENU
  1
ACAD
  9
$ELEVATION
 40
0.0
  9
$PELEVATION
 40
0.0
  9
$THICKNESS
 40
0.0
  9
$LIMCHECK
 70
     0
  9
$BLIPMODE
 70
     0
  9
$CHAMFERA
 40
0.0
  9
$CHAMFERB
 40
0.0
  9
$SKPOLY
 70
     0
  9
$TDCREATE
 40
2452094.900627315
  9
$TDUPDATE
 40
2452094.9028815972
  9
$TDINDWG
 40
0.0022719907
  9
$TDUSRTIMER
 40
0.0022719907
  9
$USRTIMER
 70
     1
  9
$ANGBASE
 50
0.0
  9
$ANGDIR
 70
     0
  9
$PDMODE
 70
     0
  9
$PDSIZE
 40
0.0
  9
$PLINEWID
 40
0.0
  9
$COORDS
 70
     1
  9
$SPLFRAME
 70
     0
  9
$SPLINETYPE
 70
     6
  9
$SPLINESEGS
 70
     8
  9
$ATTDIA
 70
     0
  9
$ATTREQ
 70
     1
  9
$HANDLING
 70
 10241
  9
$HANDSEED
  5
51B
  9
$SURFTAB1
 70
     6
  9
$SURFTAB2
 70
     6
  9
$SURFTYPE
 70
     6
  9
$SURFU
 70
     6
  9
$SURFV
 70
     6
  9
$UCSNAME
  2

  9
$UCSORG
 10
0.0
 20
0.0
 30
0.0
  9
$UCSXDIR
 10
1.0
 20
0.0
 30
0.0
  9
$UCSYDIR
 10
0.0
 20
1.0
 30
0.0
  9
$PUCSNAME
  2

  9
$PUCSORG
 10
0.0
 20
0.0
 30
0.0
  9
$PUCSXDIR
 10
1.0
 20
0.0
 30
0.0
  9
$PUCSYDIR
 10
0.0
 20
1.0
 30
0.0
  9
$USERI1
 70
     0
  9
$USERI2
 70
     0
  9
$USERI3
 70
     0
  9
$USERI4
 70
     0
  9
$USERI5
 70
     0
  9
$USERR1
 40
0.0
  9
$USERR2
 40
0.0
  9
$USERR3
 40
0.0
  9
$USERR4
 40
0.0
  9
$USERR5
 40
0.0
  9
$WORLDVIEW
 70
     1
  9
$SHADEDGE
 70
     3
  9
$SHADEDIF
 70
    70
  9
$TILEMODE
 70
     1
  9
$MAXACTVP
 70
    64
  9
$PLIMCHECK
 70
     0
  9
$PEXTMIN
 10
1.0000000000000000E+020
 20
1.0000000000000000E+020
 30
1.0000000000000000E+020
  9
$PEXTMAX
 10
-1.0000000000000000E+020
 20
-1.0000000000000000E+020
 30
-1.0000000000000000E+020
  9
$PLIMMIN
 10
0.0
 20
0.0
  9
$PLIMMAX
 10
12.0
 20
9.0
  9
$UNITMODE
 70
     0
  9
$VISRETAIN
 70
     1
  9
$PLINEGEN
 70
     0
  9
$PSLTSCALE
 70
     1
  0
ENDSEC
  0
SECTION
  2
TABLES
  0
TABLE
  2
VPORT
 70
     2
  0
VPORT
  2
*ACTIVE
 70
     0
 10
0.0
 20
0.0
 11
1.0
 21
1.0
 12
-574.13678776598238
 22
366.77939570220491
 13
0.0
 23
0.0
 14
1.0
 24
1.0
 15
0.0
 25
0.0
 16
0.0
 26
0.0
 36
1.0
 17
0.0
 27
0.0
 37
0.0
 40
9.0000005561068974
 41
2.4144144144144142
 42
50.0
 43
0.0
 44
0.0
 50
0.0
 51
0.0
 71
     0
 72
   100
 73
     1
 74
     1
 75
     0
 76
     0
 77
     0
 78
     0
  0
ENDTAB
  0
TABLE
  2
LTYPE
 70
     9
  0
LTYPE
  2
CONTINUOUS
 70
     0
  3
Solid line
 72
    65
 73
     0
 40
0.0
  0
LTYPE
  2
BORDER
 70
     0
  3
__ __ . __ __ .
 72
    65
 73
     6
 40
61.848343584553092
 49
17.670955309872301
 49
-8.835477654936156
 49
17.670955309872301
 49
-8.835477654936156
 49
0.0
 49
-8.835477654936156
  0
LTYPE
  2
CENTER
 70
     0
  3
____ _ ____ _
 72
    65
 73
     4
 40
70.683821239489248
 49
44.17738827468078
 49
-8.835477654936156
 49
8.835477654936156
 49
-8.835477654936156
  0
LTYPE
  2
DASHDOT
 70
     0
  3
__ . __ . __ .
 72
    65
 73
     4
 40
35.34191061974461
 49
17.670955309872301
 49
-8.835477654936156
 49
0.0
 49
-8.835477654936156
  0
LTYPE
  2
DASHED
 70
     0
  3
__ __ __ __ __
 72
    65
 73
     2
 40
26.506432964808472
 49
17.670955309872301
 49
-8.835477654936156
  0
LTYPE
  2
DIVIDE
 70
     0
  3
__ . . __ . . 
 72
    65
 73
     6
 40
44.17738827468078
 49
17.670955309872301
 49
-8.835477654936156
 49
0.0
 49
-8.835477654936156
 49
0.0
 49
-8.835477654936156
  0
LTYPE
  2
DOT
 70
     0
  3
..............
 72
    65
 73
     4
 40
17.670955309872301
 49
0.0
 49
-8.835477654936156
 49
0.0
 49
-8.835477654936156
  0
LTYPE
  2
HIDDEN
 70
     0
  3
_ _ _ _ _ _ _
 72
    65
 73
     2
 40
13.25321648240423
 49
8.835477654936156
 49
-4.417738827468078
  0
LTYPE
  2
PHANTOM
 70
     0
  3
_____ _ _ _____ _ _ 
 72
    65
 73
     6
 40
88.35477654936156
 49
44.17738827468078
 49
-8.835477654936156
 49
8.835477654936156
 49
-8.835477654936156
 49
8.835477654936156
 49
-8.835477654936156
  0
ENDTAB
  0
TABLE
  2
LAYER
 70
     2
  0
LAYER
  2
0
 70
     0
 62
     7
  6
CONTINUOUS
  0
LAYER
  2
1
 70
     0
 62
     7
  6
CONTINUOUS
  0
ENDTAB
  0
TABLE
  2
STYLE
 70
     4
  0
STYLE
  2
STANDARD
 70
     0
 40
0.0
 41
1.0
 50
0.0
 71
     0
 42
3.5
  3
txt
  4

  0
STYLE
  2
SIMPLEX
 70
     0
 40
0.0
 41
1.0
 50
0.0
 71
     0
 42
3.5
  3
simplex
  4

  0
STYLE
  2
COMPLEX
 70
     0
 40
0.0
 41
1.0
 50
0.0
 71
     0
 42
3.5
  3
complex
  4

  0
STYLE
  2
ITALIC
 70
     0
 40
0.0
 41
1.0
 50
0.0
 71
     0
 42
3.5
  3
italic
  4

  0
ENDTAB
  0
TABLE
  2
VIEW
 70
     0
  0
ENDTAB
  0
TABLE
  2
UCS
 70
     0
  0
ENDTAB
  0
TABLE
  2
APPID
 70
     1
  0
APPID
  2
ACAD
 70
     0
  0
ENDTAB
  0
TABLE
  2
DIMSTYLE
 70
     1
  0
DIMSTYLE
  2
STANDARD
 70
     0
  3

  4

  5

  6

  7

 40
1.0
 41
0.18
 42
0.0625
 43
0.38
 44
0.18
 45
0.0
 46
0.0
 47
0.0
 48
0.0
140
0.18
141
0.09
142
0.0
143
25.399999999999999
144
1.0
145
0.0
146
1.0
147
0.09
 71
     0
 72
     0
 73
     1
 74
     1
 75
     0
 76
     0
 77
     0
 78
     0
170
     0
171
     2
172
     0
173
     0
174
     0
175
     0
176
     0
177
     0
178
     0
  0
ENDTAB
  0
ENDSEC
  0
SECTION
  2
BLOCKS
  0
BLOCK
  8
0
  2
$MODEL_SPACE
 70
     0
 10
0.0
 20
0.0
 30
0.0
  3
$MODEL_SPACE
  1

  0
ENDBLK
  5
20
  8
0
  0
BLOCK
 67
     1
  8
0
  2
$PAPER_SPACE
 70
     0
 10
0.0
 20
0.0
 30
0.0
  3
$PAPER_SPACE
  1

  0
ENDBLK
  5
1C
 67
     1
  8
0
  0
ENDSEC
  0
SECTION
  2
ENTITIES
  0
POLYLINE
  5
33
  8
1
 62
     7
 66
     1
 10
0.0
 20
0.0
 30
0.0
  0
VERTEX
  5
43B
  8
1
 62
     7
 10
38.0
 20
190.56411327836889
 30
0.0
 42
0.0012949022776542
  0
VERTEX
  5
43C
  8
1
 62
     7
 10
37.94591346356728
 20
190.61292615344291
 30
0.0
 42
0.0056115893267102
  0
VERTEX
  5
43D
  8
1
 62
     7
 10
37.891860402919349
 20
190.66069216513881
 30
0.0
 42
0.0051692816139233
  0
VERTEX
  5
43E
  8
1
 62
     7
 10
37.837874293841033
 20
190.70636445007821
 30
0.0
 42
0.0118255069197091
  0
VERTEX
  5
43F
  8
1
 62
     7
 10
37.783988612117099
 20
190.74889614488279
 30
0.0
 42
0.0124479921152662
  0
VERTEX
  5
440
  8
1
 62
     7
 10
37.730236833532359
 20
190.7872403861746
 30
0.0
 42
0.0206333792566785
  0
VERTEX
  5
441
  8
1
 62
     7
 10
37.676652433871617
 20
190.82035031057521
 30
0.0
 42
0.0232642071274748
  0
VERTEX
  5
442
  8
1
 62
     7
 10
37.623268888919668
 20
190.8471790547064
 30
0.0
 42
0.0337745610993619
  0
VERTEX
  5
443
  8
1
 62
     7
 10
37.570119674461317
 20
190.86667975519021
 30
0.0
 42
0.0384009486380747
  0
VERTEX
  5
444
  8
1
 62
     7
 10
37.51723826628136
 20
190.8778055486479
 30
0.0
 42
0.0491425381303564
  0
VERTEX
  5
445
  8
1
 62
     7
 10
37.464658140164602
 20
190.87950957170179
 30
0.0
 42
0.0423910526402541
  0
VERTEX
  5
446
  8
1
 62
     7
 10
37.417412942496199
 20
190.87234302899529
 30
0.0
 42
0.035526244374983
  0
VERTEX
  5
447
  8
1
 62
     7
 10
37.370413865981043
 20
190.85747972209089
 30
0.0
 42
0.0285562668190686
  0
VERTEX
  5
448
  8
1
 62
     7
 10
37.32363356382433
 20
190.83577484701061
 30
0.0
 42
0.0223845637511013
  0
VERTEX
  5
449
  8
1
 62
     7
 10
37.277044689231239
 20
190.8080835997763
 30
0.0
 42
0.0171893185567808
  0
VERTEX
  5
44A
  8
1
 62
     7
 10
37.230619895407003
 20
190.77526117641
 30
0.0
 42
0.0129259019555382
  0
VERTEX
  5
44B
  8
1
 62
     7
 10
37.184331835556762
 20
190.73816277293361
 30
0.0
 42
0.0093635454620716
  0
VERTEX
  5
44C
  8
1
 62
     7
 10
37.138153162885757
 20
190.69764358536941
 30
0.0
 42
0.0063499898217007
  0
VERTEX
  5
44D
  8
1
 62
     7
 10
37.092056530599173
 20
190.65455880973931
 30
0.0
 42
0.0036675768252182
  0
VERTEX
  5
44E
  8
1
 62
     7
 10
37.046014591902178
 20
190.60976364206499
 30
0.0
 42
0.0012079580751487
  0
VERTEX
  5
44F
  8
1
 62
     7
 10
37.0
 20
190.56411327836889
 30
0.0
  0
SEQEND
  5
450
  8
1
 62
     7
  0
POLYLINE
  5
4A
  8
1
 62
     7
 66
     1
 10
0.0
 20
0.0
 30
0.0
  0
VERTEX
  5
451
  8
1
 62
     7
 10
38.0
 20
190.56411327836889
 30
0.0
 42
-0.0008635654927363
  0
VERTEX
  5
452
  8
1
 62
     7
 10
37.953206208868068
 20
190.53032859388989
 30
0.0
 42
-0.0036114879887724
  0
VERTEX
  5
453
  8
1
 62
     7
 10
37.906385374772988
 20
190.4971577969639
 30
0.0
 42
-0.0054954574326345
  0
VERTEX
  5
454
  8
1
 62
     7
 10
37.8595104547516
 20
190.4652147751444
 30
0.0
 42
-0.0085590929271828
  0
VERTEX
  5
455
  8
1
 62
     7
 10
37.812554405840807
 20
190.4351134159846
 30
0.0
 42
-0.0109179086603386
  0
VERTEX
  5
456
  8
1
 62
     7
 10
37.765490185077418
 20
190.40746760703729
 30
0.0
 42
-0.0146055112186828
  0
VERTEX
  5
457
  8
1
 62
     7
 10
37.718290749498287
 20
190.38289123585599
 30
0.0
 42
-0.0176993468811743
  0
VERTEX
  5
458
  8
1
 62
     7
 10
37.670929056140302
 20
190.36199818999361
 30
0.0
 42
-0.0221392303744
  0
VERTEX
  5
459
  8
1
 62
     7
 10
37.623378062040281
 20
190.34540235700351
 30
0.0
 42
-0.0258137206515311
  0
VERTEX
  5
45A
  8
1
 62
     7
 10
37.575610724235091
 20
190.3337176244388
 30
0.0
 42
-0.0641560994775527
  0
VERTEX
  5
45B
  8
1
 62
     7
 10
37.474766364771469
 20
190.32764411058989
 30
0.0
 42
-0.0303203794955305
  0
VERTEX
  5
45C
  8
1
 62
     7
 10
37.421701620913893
 20
190.3345063665794
 30
0.0
 42
-0.0257619265619041
  0
VERTEX
  5
45D
  8
1
 62
     7
 10
37.368498570265317
 20
190.3475677474446
 30
0.0
 42
-0.022605096872465
  0
VERTEX
  5
45E
  8
1
 62
     7
 10
37.315250014902212
 20
190.3662513528086
 30
0.0
 42
-0.0184440636471659
  0
VERTEX
  5
45F
  8
1
 62
     7
 10
37.262048756901017
 20
190.38998028229491
 30
0.0
 42
-0.0160192304637781
  0
VERTEX
  5
460
  8
1
 62
     7
 10
37.208987598338219
 20
190.41817763552629
 30
0.0
 42
-0.0126808789022008
  0
VERTEX
  5
461
  8
1
 62
     7
 10
37.156159341290241
 20
190.45026651212629
 30
0.0
 42
-0.0110329597014574
  0
VERTEX
  5
462
  8
1
 62
     7
 10
37.103656787833593
 20
190.4856700117179
 30
0.0
 42
-0.0083653774297814
  0
VERTEX
  5
463
  8
1
 62
     7
 10
37.051572740044669
 20
190.52381123392439
 30
0.0
 42
-0.0072629728047951
  0
VERTEX
  5
464
  8
1
 62
     7
 10
37.0
 20
190.56411327836889
 30
0.0
 42
-0.0045839857996741
  0
VERTEX
  5
465
  8
1
 62
     7
 10
36.946874447107781
 20
190.60769484540791
 30
0.0
 42
0.0008885821264728
  0
VERTEX
  5
466
  8
1
 62
     7
 10
36.894334404900683
 20
190.65179741234309
 30
0.0
 42
0.0004989274058662
  0
VERTEX
  5
467
  8
1
 62
     7
 10
36.842309423576609
 20
190.69522210940491
 30
0.0
 42
0.008227635031023
  0
VERTEX
  5
468
  8
1
 62
     7
 10
36.790729053333557
 20
190.736770066823
 30
0.0
 42
0.0086420867142518
  0
VERTEX
  5
469
  8
1
 62
     7
 10
36.739522844369461
 20
190.77524241482789
 30
0.0
 42
0.0177486469350912
  0
VERTEX
  5
46A
  8
1
 62
     7
 10
36.688620346882267
 20
190.80944028364931
 30
0.0
 42
0.0201768279866777
  0
VERTEX
  5
46B
  8
1
 62
     7
 10
36.637951111069938
 20
190.8381648035172
 30
0.0
 42
0.031863122544731
  0
VERTEX
  5
46C
  8
1
 62
     7
 10
36.5874446871304
 20
190.86021710466201
 30
0.0
 42
0.0368972476321262
  0
VERTEX
  5
46D
  8
1
 62
     7
 10
36.53703062526165
 20
190.87439831731339
 30
0.0
 42
0.049722939196893
  0
VERTEX
  5
46E
  8
1
 62
     7
 10
36.486638475661607
 20
190.87950957170179
 30
0.0
 42
0.0463818270428126
  0
VERTEX
  5
46F
  8
1
 62
     7
 10
36.43810277686854
 20
190.87508169739939
 30
0.0
 42
0.0388277034419803
  0
VERTEX
  5
470
  8
1
 62
     7
 10
36.38952661004187
 20
190.86209221624529
 30
0.0
 42
0.0309654022263086
  0
VERTEX
  5
471
  8
1
 62
     7
 10
36.340914471629773
 20
190.84149241788941
 30
0.0
 42
0.0240280126654799
  0
VERTEX
  5
472
  8
1
 62
     7
 10
36.2922708580804
 20
190.814233591982
 30
0.0
 42
0.0182684219225146
  0
VERTEX
  5
473
  8
1
 62
     7
 10
36.24360026584197
 20
190.7812670281734
 30
0.0
 42
0.0136209712090838
  0
VERTEX
  5
474
  8
1
 62
     7
 10
36.194907191362653
 20
190.74354401611379
 30
0.0
 42
0.0097994174153689
  0
VERTEX
  5
475
  8
1
 62
     7
 10
36.146196131090612
 20
190.7020158454533
 30
0.0
 42
0.0066131948032511
  0
VERTEX
  5
476
  8
1
 62
     7
 10
36.097471581474039
 20
190.6576338058421
 30
0.0
 42
0.0038063770813602
  0
VERTEX
  5
477
  8
1
 62
     7
 10
36.048738038961112
 20
190.6113491869306
 30
0.0
 42
0.0012523171101996
  0
VERTEX
  5
478
  8
1
 62
     7
 10
36.0
 20
190.56411327836889
 30
0.0
  0
SEQEND
  5
479
  8
1
 62
     7
  0
POLYLINE
  5
74
  8
1
 62
     7
 66
     1
 10
0.0
 20
0.0
 30
0.0
  0
VERTEX
  5
47A
  8
1
 62
     7
 10
-234.26765406092181
 20
115.554259066214
 30
0.0
 42
-0.0021260392964826
  0
VERTEX
  5
47B
  8
1
 62
     7
 10
-234.25979727611451
 20
115.5532879945319
 30
0.0
 42
-0.0064310517134503
  0
VERTEX
  5
47C
  8
1
 62
     7
 10
-234.23627653923231
 20
115.54997132267469
 30
0.0
 42
-0.0067612306346954
  0
VERTEX
  5
47D
  8
1
 62
     7
 10
-234.2128480205466
 20
115.5460347194697
 30
0.0
 42
-0.0069018693676897
  0
VERTEX
  5
47E
  8
1
 62
     7
 10
-234.1895345953414
 20
115.5414592256045
 30
0.0
 42
-0.0046329742019681
  0
VERTEX
  5
47F
  8
1
 62
     7
 10
-234.17481637260391
 20
115.53821634062091
 30
0.0
 42
-0.0046816838876703
  0
VERTEX
  5
480
  8
1
 62
     7
 10
-234.1601616030924
 20
115.5346999634591
 30
0.0
 42
-0.0049785698900771
  0
VERTEX
  5
481
  8
1
 62
     7
 10
-234.14557822311181
 20
115.5309013126202
 30
0.0
 42
-0.0050308114200968
  0
VERTEX
  5
482
  8
1
 62
     7
 10
-234.13107416896671
 20
115.5268116066042
 30
0.0
 42
-0.0053303695801142
  0
VERTEX
  5
483
  8
1
 62
     7
 10
-234.11665737696171
 20
115.5224220639118
 30
0.0
 42
-0.0050483300765433
  0
VERTEX
  5
484
  8
1
 62
     7
 10
-234.10331157452589
 20
115.51805393788329
 30
0.0
 42
-0.0054713393401658
  0
VERTEX
  5
485
  8
1
 62
     7
 10
-234.09006026161401
 20
115.513405889136
 30
0.0
 42
-0.005591864615343
  0
VERTEX
  5
486
  8
1
 62
     7
 10
-234.07691528823781
 20
115.50846589907189
 30
0.0
 42
-0.0060206618434963
  0
VERTEX
  5
487
  8
1
 62
     7
 10
-234.06388850440831
 20
115.5032219490932
 30
0.0
 42
-0.0061451913700206
  0
VERTEX
  5
488
  8
1
 62
     7
 10
-234.05099176013701
 20
115.4976620206015
 30
0.0
 42
-0.0060570950013648
  0
VERTEX
  5
489
  8
1
 62
     7
 10
-234.03934766957849
 20
115.49230149393649
 30
0.0
 42
-0.0063378494254307
  0
VERTEX
  5
48A
  8
1
 62
     7
 10
-234.02783970560071
 20
115.48665383352269
 30
0.0
 42
-0.0068567279331843
  0
VERTEX
  5
48B
  8
1
 62
     7
 10
-234.0164858329664
 20
115.4807050527854
 30
0.0
 42
-0.0071491661055188
  0
VERTEX
  5
48C
  8
1
 62
     7
 10
-234.005304016438
 20
115.4744411651499
 30
0.0
 42
-0.0076761033778983
  0
VERTEX
  5
48D
  8
1
 62
     7
 10
-233.99431222077831
 20
115.4678481840418
 30
0.0
 42
-0.0035634059969909
  0
VERTEX
  5
48E
  8
1
 62
     7
 10
-233.98945569741389
 20
115.464784697856
 30
0.0
 42
-0.0037389696807621
  0
VERTEX
  5
48F
  8
1
 62
     7
 10
-233.98464408471929
 20
115.4616503869119
 30
0.0
 42
-0.0038601434982306
  0
VERTEX
  5
490
  8
1
 62
     7
 10
-233.97988056967429
 20
115.4584432512322
 30
0.0
 42
-0.0040383358812659
  0
VERTEX
  5
491
  8
1
 62
     7
 10
-233.97516833925869
 20
115.4551612908397
 30
0.0
 42
-0.0084136953774295
  0
VERTEX
  5
492
  8
1
 62
     7
 10
-233.96591048023501
 20
115.44836489600721
 30
0.0
 42
-0.0092033656378133
  0
VERTEX
  5
493
  8
1
 62
     7
 10
-233.9568960034868
 20
115.4412452025967
 30
0.0
 42
-0.009633298131934
  0
VERTEX
  5
494
  8
1
 62
     7
 10
-233.94815040485281
 20
115.4337862107899
 30
0.0
 42
-0.0093035413462738
  0
VERTEX
  5
495
  8
1
 62
     7
 10
-233.94065390957499
 20
115.426885507801
 30
0.0
 42
-0.0099041311597672
  0
VERTEX
  5
496
  8
1
 62
     7
 10
-233.93342713832001
 20
115.41970117387309
 30
0.0
 42
-0.01083374327787
  0
VERTEX
  5
497
  8
1
 62
     7
 10
-233.9265089481045
 20
115.4122282258015
 30
0.0
 42
-0.0115083290202915
  0
VERTEX
  5
498
  8
1
 62
     7
 10
-233.91993819594489
 20
115.4044616803816
 30
0.0
 42
-0.0124980498498308
  0
VERTEX
  5
499
  8
1
 62
     7
 10
-233.91375373885759
 20
115.39639655440909
 30
0.0
  0
SEQEND
  5
49A
  8
1
 62
     7
  0
POLYLINE
  5
96
  8
1
 62
     7
 66
     1
 10
0.0
 20
0.0
 30
0.0
  0
VERTEX
  5
49B
  8
1
 62
     7
 10
-233.86790351961741
 20
116.0988059146901
 30
0.0
 42
-0.0023451390742596
  0
VERTEX
  5
49C
  8
1
 62
     7
 10
-233.84593969607889
 20
116.0939184549202
 30
0.0
 42
-0.0045974640278974
  0
VERTEX
  5
49D
  8
1
 62
     7
 10
-233.80214434833709
 20
116.0835327402766
 30
0.0
 42
-0.0049561882944711
  0
VERTEX
  5
49E
  8
1
 62
     7
 10
-233.75854876428789
 20
116.0723104532634
 30
0.0
 42
-0.0049592339651948
  0
VERTEX
  5
49F
  8
1
 62
     7
 10
-233.7151809814255
 20
116.060224979202
 30
0.0
 42
-0.0053234027832754
  0
VERTEX
  5
4A0
  8
1
 62
     7
 10
-233.6720690372448
 20
116.04724970341471
 30
0.0
 42
-0.0051455325512388
  0
VERTEX
  5
4A1
  8
1
 62
     7
 10
-233.63072839539021
 20
116.03385742321539
 30
0.0
 42
-0.0054057932181594
  0
VERTEX
  5
4A2
  8
1
 62
     7
 10
-233.59116098240571
 20
116.020110496359
 30
0.0
 42
-0.0055033037585751
  0
VERTEX
  5
4A3
  8
1
 62
     7
 10
-233.5519052763083
 20
116.0055045156647
 30
0.0
 42
-0.0059625408113034
  0
VERTEX
  5
4A4
  8
1
 62
     7
 10
-233.5129971989796
 20
115.99000322086781
 30
0.0
 42
-0.0060648779567606
  0
VERTEX
  5
4A5
  8
1
 62
     7
 10
-233.4744726723018
 20
115.9735703517039
 30
0.0
 42
-0.0062462278852557
  0
VERTEX
  5
4A6
  8
1
 62
     7
 10
-233.43804943146139
 20
115.9569623451619
 30
0.0
 42
-0.0030489438815592
  0
VERTEX
  5
4A7
  8
1
 62
     7
 10
-233.42083106461891
 20
115.9487212447529
 30
0.0
 42
-0.0064734571121685
  0
VERTEX
  5
4A8
  8
1
 62
     7
 10
-233.38671475865559
 20
115.9315863917392
 30
0.0
 42
-0.0069235590633189
  0
VERTEX
  5
4A9
  8
1
 62
     7
 10
-233.35307139715451
 20
115.9135445829835
 30
0.0
 42
-0.0073231039435501
  0
VERTEX
  5
4AA
  8
1
 62
     7
 10
-233.3199558291146
 20
115.894551715109
 30
0.0
 42
-0.0077797059282068
  0
VERTEX
  5
4AB
  8
1
 62
     7
 10
-233.28742290353509
 20
115.8745636847386
 30
0.0
 42
-0.0036748132440411
  0
VERTEX
  5
4AC
  8
1
 62
     7
 10
-233.27307208735931
 20
115.86528722654499
 30
0.0
 42
-0.0037525982160445
  0
VERTEX
  5
4AD
  8
1
 62
     7
 10
-233.2588590003561
 20
115.8557975210869
 30
0.0
 42
-0.007972238250203
  0
VERTEX
  5
4AE
  8
1
 62
     7
 10
-233.23088654122381
 20
115.8361574378624
 30
0.0
 42
-0.0086511528557442
  0
VERTEX
  5
4AF
  8
1
 62
     7
 10
-233.20358658085101
 20
115.8156015740379
 30
0.0
 42
-0.0091804465664819
  0
VERTEX
  5
4B0
  8
1
 62
     7
 10
-233.1770401739501
 20
115.79408806858611
 30
0.0
 42
-0.0098737835020538
  0
VERTEX
  5
4B1
  8
1
 62
     7
 10
-233.1513283752341
 20
115.7715750604799
 30
0.0
 42
-0.0046154814898086
  0
VERTEX
  5
4B2
  8
1
 62
     7
 10
-233.14023564323409
 20
115.7612795374457
 30
0.0
 42
-0.0096514847624348
  0
VERTEX
  5
4B3
  8
1
 62
     7
 10
-233.11864381822409
 20
115.7400611425132
 30
0.0
 42
-0.0107399926539366
  0
VERTEX
  5
4B4
  8
1
 62
     7
 10
-233.09793582367379
 20
115.7179809381464
 30
0.0
 42
-0.0113322772770304
  0
VERTEX
  5
4B5
  8
1
 62
     7
 10
-233.07822243375099
 20
115.6950085112055
 30
0.0
 42
-0.0124463205673211
  0
VERTEX
  5
4B6
  8
1
 62
     7
 10
-233.0596144226235
 20
115.6711134485514
 30
0.0
 42
-0.0123189997357816
  0
VERTEX
  5
4B7
  8
1
 62
     7
 10
-233.04313018049319
 20
115.6476339465666
 30
0.0
 42
-0.0125632485050284
  0
VERTEX
  5
4B8
  8
1
 62
     7
 10
-233.02869288063991
 20
115.6247259726352
 30
0.0
 42
-0.0131146458026456
  0
VERTEX
  5
4B9
  8
1
 62
     7
 10
-233.0154553836299
 20
115.60111585629279
 30
0.0
 42
-0.0142213969706548
  0
VERTEX
  5
4BA
  8
1
 62
     7
 10
-233.0035431469048
 20
115.576849054826
 30
0.0
 42
-0.0073983130417012
  0
VERTEX
  5
4BB
  8
1
 62
     7
 10
-232.9981232065997
 20
115.5644836025734
 30
0.0
 42
-0.007637421104211
  0
VERTEX
  5
4BC
  8
1
 62
     7
 10
-232.99308162790641
 20
115.55197102552241
 30
0.0
 42
-0.0078823124510123
  0
VERTEX
  5
4BD
  8
1
 62
     7
 10
-232.98843409300531
 20
115.53931700583399
 30
0.0
  0
SEQEND
  5
4BE
  8
1
 62
     7
  0
LINE
  5
BB
  8
1
 62
     7
 10
99.299999999999969
 20
145.32927145518241
 30
0.0
 11
99.999999999999872
 21
136.93566196490801
 31
0.0
  0
LINE
  5
BC
  8
1
 62
     7
 10
54.0
 20
-90.000000000000057
 30
0.0
 11
20.0
 21
-90.000000000000057
 31
0.0
  0
LINE
  5
BD
  8
1
 62
     7
 10
54.0
 20
-50.0
 30
0.0
 11
20.0
 21
-50.0
 31
0.0
  0
LINE
  5
BE
  8
1
 62
     7
 10
54.0
 20
-90.000000000000057
 30
0.0
 11
54.0
 21
-50.0
 31
0.0
  0
LINE
  5
BF
  8
1
 62
     7
 10
54.0
 20
50.0
 30
0.0
 11
20.0
 21
50.0
 31
0.0
  0
LINE
  5
C0
  8
1
 62
     7
 10
54.0
 20
90.0
 30
0.0
 11
54.0
 21
50.0
 31
0.0
  0
LINE
  5
C1
  8
1
 62
     3
 10
395.61707124540061
 20
-121.3601569216343
 30
0.0
 11
395.61707124540072
 21
-98.978326977636485
 31
0.0
  0
LINE
  5
C2
  8
1
 62
     3
 10
395.61707124540072
 20
98.978326977636485
 30
0.0
 11
395.61707124540061
 21
121.3601569216343
 31
0.0
  0
LINE
  5
C3
  8
1
 62
     7
 10
345.4847525248739
 20
194.8237671765545
 30
0.0
 11
348.2466121411444
 21
184.5163667652601
 31
0.0
  0
LINE
  5
C4
  8
1
 62
     7
 10
346.31204315337033
 20
184.00886990806751
 30
0.0
 11
343.55290087229582
 21
194.30612908634939
 31
0.0
  0
LINE
  5
C5
  8
1
 62
     7
 10
341.62104921971758
 20
193.78849099614439
 30
0.0
 11
344.38290883598808
 21
183.48109058484999
 31
0.0
  0
LINE
  5
C6
  8
1
 62
     7
 10
38.0
 20
190.56411327836889
 30
0.0
 11
38.0
 21
179.99999999999989
 31
0.0
  0
LINE
  5
C7
  8
1
 62
     7
 10
36.0
 20
190.56411327836889
 30
0.0
 11
36.0
 21
179.99999999999989
 31
0.0
  0
LINE
  5
C8
  8
1
 62
     7
 10
-517.27671826425228
 20
177.37788738452551
 30
0.0
 11
-518.36245901050927
 21
173.32584775564911
 31
0.0
  0
LINE
  5
C9
  8
1
 62
     7
 10
-519.20856991683138
 20
177.89552547473059
 30
0.0
 11
-520.29143352907238
 21
173.85422345617741
 31
0.0
  0
LINE
  5
CA
  8
1
 62
     7
 10
-521.14042156940945
 20
178.4131635649357
 30
0.0
 11
-522.22615350770934
 21
174.3611568077994
 31
0.0
  0
LINE
  5
CB
  8
1
 62
     7
 10
-448.25129869304033
 20
118.1151167294008
 30
0.0
 11
-448.76041557549428
 21
118.6242336118551
 31
0.0
  0
LINE
  5
CC
  8
1
 62
     7
 10
-451.64541124273632
 20
118.6242336118552
 30
0.0
 11
-452.15452812519038
 21
118.1151167294008
 31
0.0
  0
LINE
  5
CD
  8
1
 62
     7
 10
-452.15452812519038
 20
115.2301210621595
 30
0.0
 11
-451.64541124273632
 21
114.7210041797054
 31
0.0
  0
LINE
  5
CE
  8
1
 62
     7
 10
-448.76041557549428
 20
114.7210041797054
 30
0.0
 11
-448.25129869304033
 21
115.2301210621598
 31
0.0
  0
LINE
  5
CF
  8
1
 62
     7
 10
-457.05098908484621
 20
116.8956110319149
 30
0.0
 11
-449.97992127298141
 21
109.82454322004931
 31
0.0
  0
LINE
  5
D0
  8
1
 62
     7
 10
-449.97992127298141
 20
109.82454322004931
 30
0.0
 11
-437.95910599280933
 21
121.8453585002205
 31
0.0
  0
LINE
  5
D1
  8
1
 62
     7
 10
-445.03017380467531
 20
128.91642631208589
 30
0.0
 11
-437.95910599280933
 21
121.8453585002205
 31
0.0
  0
LINE
  5
D2
  8
1
 62
     7
 10
-457.05098908484621
 20
116.8956110319149
 30
0.0
 11
-445.03017380467531
 21
128.91642631208589
 31
0.0
  0
LINE
  5
D3
  8
1
 62
     7
 10
-383.37290315876032
 20
157.9313821365196
 30
0.0
 11
-383.76646599927233
 21
156.50455199310329
 31
0.0
  0
LINE
  5
D4
  8
1
 62
     7
 10
-384.24846624625951
 20
156.637502216511
 30
0.0
 11
-380.0585093063093
 21
155.48178556549991
 31
0.0
  0
LINE
  5
D5
  8
1
 62
     7
 10
-383.37290315876032
 20
157.9313821365196
 30
0.0
 11
-379.99890142984827
 21
157.0007305726661
 31
0.0
  0
LINE
  5
D6
  8
1
 62
     7
 10
-380.39246427036039
 20
155.57390042924959
 30
0.0
 11
-379.99890142984827
 21
157.0007305726661
 31
0.0
  0
LINE
  5
D7
  8
1
 62
     7
 10
-382.8909029117724
 20
157.7984319131121
 30
0.0
 11
-382.58712500619129
 21
158.89975406035191
 31
0.0
  0
LINE
  5
D8
  8
1
 62
     7
 10
-380.4809016768354
 20
157.1336807960738
 30
0.0
 11
-380.17712377125429
 21
158.23500294331379
 31
0.0
  0
LINE
  5
D9
  8
1
 62
     7
 10
-379.69512352426727
 20
158.102052719906
 30
0.0
 11
-383.06912525317841
 21
159.0327042837597
 31
0.0
  0
LINE
  5
DA
  8
1
 62
     7
 10
-379.46710053621752
 20
158.92873156061549
 30
0.0
 11
-379.69512352426727
 21
158.102052719906
 31
0.0
  0
LINE
  5
DB
  8
1
 62
     7
 10
-379.46710053621752
 20
158.92873156061549
 30
0.0
 11
-379.3361007304274
 21
161.28406373472129
 31
0.0
  0
LINE
  5
DC
  8
1
 62
     7
 10
-382.84110226512939
 20
159.85938312446899
 30
0.0
 11
-381.74610196536338
 21
161.94881485175961
 31
0.0
  0
LINE
  5
DD
  8
1
 62
     7
 10
-381.74610196536338
 20
161.94881485175961
 30
0.0
 11
-379.3361007304274
 21
161.28406373472129
 31
0.0
  0
LINE
  5
DE
  8
1
 62
     7
 10
-383.06912525317841
 20
159.0327042837597
 30
0.0
 11
-382.84110226512939
 21
159.85938312446899
 31
0.0
  0
LINE
  5
DF
  8
1
 62
     7
 10
-386.10804156917533
 20
149.8957627747603
 30
0.0
 11
-384.24846624625951
 21
156.637502216511
 31
0.0
  0
LINE
  5
E0
  8
1
 62
     7
 10
-379.91046402337338
 20
155.44095020584211
 30
0.0
 11
-380.0585093063093
 21
155.48178556549991
 31
0.0
  0
LINE
  5
E1
  8
1
 62
     7
 10
-381.77003934628931
 20
148.6992107640915
 30
0.0
 11
-386.10804156917533
 21
149.8957627747603
 31
0.0
  0
LINE
  5
E2
  8
1
 62
     7
 10
-381.77003934628931
 20
148.6992107640915
 30
0.0
 11
-379.91046402337338
 21
155.44095020584211
 31
0.0
  0
LINE
  5
E3
  8
1
 62
     7
 10
-392.87082001906128
 20
156.7395918639501
 30
0.0
 11
-392.87082001906128
 21
149.7460898026039
 31
0.0
  0
LINE
  5
E4
  8
1
 62
     7
 10
-388.37082001906128
 20
156.7395918639501
 30
0.0
 11
-388.37082001906128
 21
149.7460898026039
 31
0.0
  0
LINE
  5
E5
  8
1
 62
     7
 10
-388.87082001906128
 20
160.21970536216369
 30
0.0
 11
-388.87082001906128
 21
159.3621551369547
 31
0.0
  0
LINE
  5
E6
  8
1
 62
     7
 10
-391.87082001906128
 20
162.5250796483684
 30
0.0
 11
-389.37082001906128
 21
162.5250796483684
 31
0.0
  0
LINE
  5
E7
  8
1
 62
     7
 10
-389.37082001906128
 20
162.5250796483684
 30
0.0
 11
-388.87082001906128
 21
160.21970536216369
 31
0.0
  0
LINE
  5
E8
  8
1
 62
     7
 10
-391.87082001906128
 20
162.5250796483684
 30
0.0
 11
-392.37082001906128
 21
160.21970536216369
 31
0.0
  0
LINE
  5
E9
  8
1
 62
     7
 10
-392.37082001906128
 20
159.3621551369547
 30
0.0
 11
-392.37082001906128
 21
160.21970536216369
 31
0.0
  0
LINE
  5
EA
  8
1
 62
     7
 10
-391.87082001906128
 20
159.3621551369547
 30
0.0
 11
-391.87082001906128
 21
158.21970536216361
 31
0.0
  0
LINE
  5
EB
  8
1
 62
     7
 10
-389.37082001906128
 20
159.3621551369547
 30
0.0
 11
-389.37082001906128
 21
158.21970536216361
 31
0.0
  0
LINE
  5
EC
  8
1
 62
     7
 10
-392.37082001906128
 20
158.21970536216361
 30
0.0
 11
-392.37082001906128
 21
156.7395918639501
 31
0.0
  0
LINE
  5
ED
  8
1
 62
     7
 10
-392.37082001906128
 20
158.21970536216361
 30
0.0
 11
-388.87082001906128
 21
158.21970536216361
 31
0.0
  0
LINE
  5
EE
  8
1
 62
     7
 10
-392.87082001906128
 20
149.7460898026039
 30
0.0
 11
-388.37082001906128
 21
149.7460898026039
 31
0.0
  0
LINE
  5
EF
  8
1
 62
     7
 10
-392.87082001906128
 20
156.7395918639501
 30
0.0
 11
-388.37082001906128
 21
156.7395918639501
 31
0.0
  0
LINE
  5
F0
  8
1
 62
     7
 10
-388.87082001906128
 20
156.7395918639501
 30
0.0
 11
-388.87082001906128
 21
158.21970536216361
 31
0.0
  0
LINE
  5
F1
  8
1
 62
     7
 10
-392.37082001906128
 20
159.3621551369547
 30
0.0
 11
-388.87082001906128
 21
159.3621551369547
 31
0.0
  0
LINE
  5
F2
  8
1
 62
     7
 10
-391.62082001906128
 20
136.43567221283161
 30
0.0
 11
-391.62082001906128
 21
149.7460898026039
 31
0.0
  0
LINE
  5
F3
  8
1
 62
     7
 10
-389.62082001906128
 20
149.7460898026039
 30
0.0
 11
-389.62082001906128
 21
136.4356722128347
 31
0.0
  0
LINE
  5
F4
  8
1
 62
     7
 10
-382.97503996375741
 20
149.03158632261051
 30
0.0
 11
-388.75323616751251
 21
128.08320484594611
 31
0.0
  0
LINE
  5
F5
  8
1
 62
     7
 10
-384.76259140845332
 20
149.52464699096191
 30
0.0
 11
-390.67883889229847
 21
128.61768637016951
 31
0.0
  0
LINE
  5
F6
  8
1
 62
     7
 10
-233.1999999999999
 20
107.9878577532334
 30
0.0
 11
-233.1999999999999
 21
94.749999999999986
 31
0.0
  0
LINE
  5
F7
  8
1
 62
     7
 10
-235.2757938723677
 20
109.4999999999999
 30
0.0
 11
-235.09999999999991
 21
109.4999999999999
 31
0.0
  0
LINE
  5
F8
  8
1
 62
     7
 10
-240.0
 20
154.61087686753359
 30
0.0
 11
-242.69999999999999
 21
154.61087686753359
 31
0.0
  0
LINE
  5
F9
  8
1
 62
     7
 10
-238.0
 20
167.61087686753359
 30
0.0
 11
-235.1999999999999
 21
167.61087686753359
 31
0.0
  0
LINE
  5
FA
  8
1
 62
     7
 10
-235.1999999999999
 20
186.70512118107479
 30
0.0
 11
-235.1999999999999
 21
147.99999999999989
 31
0.0
  0
LINE
  5
FB
  8
1
 62
     7
 10
-232.0
 20
193.31033179039949
 30
0.0
 11
-232.0
 21
222.99999999999989
 31
0.0
  0
LINE
  5
FC
  8
1
 62
     7
 10
-214.0
 20
182.5789967772989
 30
0.0
 11
-214.0
 21
179.99999999999989
 31
0.0
  0
LINE
  5
FD
  8
1
 62
     7
 10
-212.0
 20
182.5789967772989
 30
0.0
 11
-212.0
 21
179.99999999999989
 31
0.0
  0
LINE
  5
FE
  8
1
 62
     7
 10
-255.25
 20
130.622776555374
 30
0.0
 11
-255.25
 21
147.90940433578811
 31
0.0
  0
LINE
  5
FF
  8
1
 62
     7
 10
-251.7866915242989
 20
110.5452206681837
 30
0.0
 11
-261.89578005530387
 21
147.19490085579491
 31
0.0
  0
LINE
  5
100
  8
1
 62
     7
 10
-249.8586905363494
 20
111.07702156181421
 30
0.0
 11
-259.96777906735451
 21
147.7267017494253
 31
0.0
  0
LINE
  5
101
  8
1
 62
     7
 10
-253.25
 20
147.90940433578811
 30
0.0
 11
-253.25
 21
130.1412967827109
 31
0.0
  0
LINE
  5
102
  8
1
 62
     7
 10
-234.59999663731509
 20
116.2582285698732
 30
0.0
 11
-233.86790351961741
 21
116.0988059146901
 31
0.0
  0
LINE
  5
103
  8
1
 62
     7
 10
-234.59999663731489
 20
115.1359367916495
 30
0.0
 11
-234.19362288773931
 21
115.54231054122521
 31
0.0
  0
LINE
  5
104
  8
1
 62
     7
 10
-234.59999663731489
 20
113.8359367916495
 30
0.0
 11
-233.59999999999991
 21
114.8359334289644
 31
0.0
  0
LINE
  5
105
  8
1
 62
     7
 10
-234.90000000000001
 20
110.6003889329464
 30
0.0
 11
-234.90000000000001
 21
110.58593342896449
 31
0.0
  0
LINE
  5
106
  8
1
 62
     7
 10
-236.59999663731529
 20
117.7800112424103
 30
0.0
 11
-236.59999663731449
 21
112.8720784585697
 31
0.0
  0
LINE
  5
107
  8
1
 62
     7
 10
-234.59999663731529
 20
119.0321795007615
 30
0.0
 11
-234.59999663731489
 21
112.8720784585697
 31
0.0
  0
LINE
  5
108
  8
1
 62
     7
 10
-261.80169476588247
 20
157.19601881694379
 30
0.0
 11
-265.1756964947939
 21
156.26536725309009
 31
0.0
  0
LINE
  5
109
  8
1
 62
     7
 10
-261.10435401978901
 20
154.6678665262875
 30
0.0
 11
-261.49791686030147
 21
156.09469666970381
 31
0.0
  0
LINE
  5
10A
  8
1
 62
     7
 10
-260.62235377280172
 20
154.800816749695
 30
0.0
 11
-264.96035599568802
 21
153.60426473902601
 31
0.0
  0
LINE
  5
10B
  8
1
 62
     7
 10
-258.76277844988653
 20
148.05907730794439
 30
0.0
 11
-263.10078067277232
 21
146.8625252972756
 31
0.0
  0
LINE
  5
10C
  8
1
 62
     7
 10
-264.8719185892129
 20
155.16404510585019
 30
0.0
 11
-261.49791686030147
 21
156.09469666970381
 31
0.0
  0
LINE
  5
10D
  8
1
 62
     7
 10
-264.8719185892129
 20
155.16404510585019
 30
0.0
 11
-264.47835574870078
 21
153.7372149624338
 31
0.0
  0
LINE
  5
10E
  8
1
 62
     7
 10
-262.2836950128696
 20
157.063068593536
 30
0.0
 11
-261.97991710728883
 21
155.9617464462963
 31
0.0
  0
LINE
  5
10F
  8
1
 62
     7
 10
-264.69369624780632
 20
156.39831747649791
 30
0.0
 11
-264.38991834222571
 21
155.29699532925801
 31
0.0
  0
LINE
  5
110
  8
1
 62
     7
 10
-265.1756964947939
 20
156.26536725309009
 30
0.0
 11
-265.4037194828436
 21
157.09204609379969
 31
0.0
  0
LINE
  5
111
  8
1
 62
     7
 10
-265.53471928863439
 20
159.44737826790529
 30
0.0
 11
-265.4037194828436
 21
157.09204609379969
 31
0.0
  0
LINE
  5
112
  8
1
 62
     7
 10
-263.12471805369768
 20
160.1121293849439
 30
0.0
 11
-262.029717753932
 21
158.02269765765331
 31
0.0
  0
LINE
  5
113
  8
1
 62
     7
 10
-265.53471928863439
 20
159.44737826790529
 30
0.0
 11
-263.12471805369768
 21
160.1121293849439
 31
0.0
  0
LINE
  5
114
  8
1
 62
     7
 10
-262.029717753932
 20
158.02269765765331
 30
0.0
 11
-261.80169476588247
 21
157.19601881694379
 31
0.0
  0
LINE
  5
115
  8
1
 62
     7
 10
-260.62235377280172
 20
154.800816749695
 30
0.0
 11
-258.76277844988653
 21
148.05907730794439
 31
0.0
  0
LINE
  5
116
  8
1
 62
     7
 10
-264.96035599568802
 20
153.60426473902601
 30
0.0
 11
-263.10078067277232
 21
146.8625252972756
 31
0.0
  0
LINE
  5
117
  8
1
 62
     7
 10
-252.0
 20
147.90940433578811
 30
0.0
 11
-252.0
 21
154.9029063971343
 31
0.0
  0
LINE
  5
118
  8
1
 62
     7
 10
-256.49999999999989
 20
147.90940433578811
 30
0.0
 11
-256.49999999999989
 21
154.9029063971343
 31
0.0
  0
LINE
  5
119
  8
1
 62
     7
 10
-256.0
 20
157.52546967013879
 30
0.0
 11
-256.0
 21
158.38301989534779
 31
0.0
  0
LINE
  5
11A
  8
1
 62
     7
 10
-255.5
 20
160.68839418155261
 30
0.0
 11
-253.0
 21
160.68839418155261
 31
0.0
  0
LINE
  5
11B
  8
1
 62
     7
 10
-256.0
 20
158.38301989534779
 30
0.0
 11
-255.5
 21
160.68839418155261
 31
0.0
  0
LINE
  5
11C
  8
1
 62
     7
 10
-252.49999999999989
 20
158.38301989534779
 30
0.0
 11
-253.0
 21
160.68839418155261
 31
0.0
  0
LINE
  5
11D
  8
1
 62
     7
 10
-252.49999999999989
 20
158.38301989534779
 30
0.0
 11
-252.49999999999989
 21
157.52546967013879
 31
0.0
  0
LINE
  5
11E
  8
1
 62
     7
 10
-253.0
 20
156.38301989534779
 30
0.0
 11
-253.0
 21
157.52546967013879
 31
0.0
  0
LINE
  5
11F
  8
1
 62
     7
 10
-255.5
 20
156.38301989534779
 30
0.0
 11
-255.5
 21
157.52546967013879
 31
0.0
  0
LINE
  5
120
  8
1
 62
     7
 10
-252.49999999999989
 20
154.9029063971343
 30
0.0
 11
-252.49999999999989
 21
156.38301989534779
 31
0.0
  0
LINE
  5
121
  8
1
 62
     7
 10
-256.0
 20
156.38301989534779
 30
0.0
 11
-252.49999999999989
 21
156.38301989534779
 31
0.0
  0
LINE
  5
122
  8
1
 62
     7
 10
-256.49999999999989
 20
147.90940433578811
 30
0.0
 11
-252.0
 21
147.90940433578811
 31
0.0
  0
LINE
  5
123
  8
1
 62
     7
 10
-256.49999999999989
 20
154.9029063971343
 30
0.0
 11
-252.0
 21
154.9029063971343
 31
0.0
  0
LINE
  5
124
  8
1
 62
     7
 10
-256.0
 20
156.38301989534779
 30
0.0
 11
-256.0
 21
154.9029063971343
 31
0.0
  0
LINE
  5
125
  8
1
 62
     7
 10
-256.0
 20
157.52546967013879
 30
0.0
 11
-252.49999999999989
 21
157.52546967013879
 31
0.0
  0
LINE
  5
126
  8
1
 62
     7
 10
-240.0
 20
178.61981213083979
 30
0.0
 11
-240.0
 21
139.02362911012591
 31
0.0
  0
LINE
  5
127
  8
1
 62
     7
 10
-238.0
 20
178.61981213083979
 30
0.0
 11
-238.0
 21
139.02362911012591
 31
0.0
  0
LINE
  5
128
  8
1
 62
     7
 10
-239.1999733070669
 20
123.8756252169679
 30
0.0
 11
-239.1999733070669
 21
117.0034692133617
 31
0.0
  0
LINE
  5
129
  8
1
 62
     7
 10
-238.73063286221691
 20
124.7232102784975
 30
0.0
 11
-235.5617376188861
 21
126.7072052973667
 31
0.0
  0
LINE
  5
12A
  8
1
 62
     7
 10
-233.49999999999989
 20
117.0034692133617
 30
0.0
 11
-232.80000000000001
 21
114.9999999999999
 31
0.0
  0
LINE
  5
12B
  8
1
 62
     7
 10
-237.82110257823601
 20
116.0512637467552
 30
0.0
 11
-236.59999663731489
 21
115.8514472366878
 31
0.0
  0
LINE
  5
12C
  8
1
 62
     7
 10
-237.35552302898111
 20
116.7654583633251
 30
0.0
 11
-236.59999663731509
 21
116.64160923513769
 31
0.0
  0
LINE
  5
12D
  8
1
 62
     7
 10
-234.26765406092181
 20
115.554259066214
 30
0.0
 11
-234.59999663731489
 21
115.5939150652512
 31
0.0
  0
LINE
  5
12E
  8
1
 62
     7
 10
-238.76173761888609
 20
117.6292478611193
 30
0.0
 11
-235.5617376188861
 21
119.63271707448099
 31
0.0
  0
LINE
  5
12F
  8
1
 62
     7
 10
-237.59043440472161
 20
117.1599138753012
 30
0.0
 11
-234.39043440472139
 21
119.163383088663
 31
0.0
  0
LINE
  5
130
  8
1
 62
     7
 10
-233.49999999999989
 20
117.0034692133617
 30
0.0
 11
-233.49999999999989
 21
119.00693842672371
 31
0.0
  0
LINE
  5
131
  8
1
 62
     7
 10
-233.59999999999991
 20
114.965203688974
 30
0.0
 11
-233.91375373885759
 21
115.39639655440909
 31
0.0
  0
LINE
  5
132
  8
1
 62
     7
 10
-233.59999999999991
 20
114.965203688974
 30
0.0
 11
-232.80000000000001
 21
114.9999999999999
 31
0.0
  0
LINE
  5
133
  8
1
 62
     7
 10
-232.80000000000001
 20
114.9999999999999
 30
0.0
 11
-232.80000000000001
 21
107.9878577532334
 31
0.0
  0
LINE
  5
134
  8
1
 62
     7
 10
-232.80000000000001
 20
114.9999999999999
 30
0.0
 11
-232.0
 21
115.0
 31
0.0
  0
LINE
  5
135
  8
1
 62
     7
 10
-233.59999999999991
 20
107.9878577532334
 30
0.0
 11
-232.0
 21
107.9878577532334
 31
0.0
  0
LINE
  5
136
  8
1
 62
     7
 10
-234.90000000000001
 20
110.58593342896449
 30
0.0
 11
-233.59999999999991
 21
110.58593342896449
 31
0.0
  0
LINE
  5
137
  8
1
 62
     7
 10
-233.59999999999991
 20
107.9878577532334
 30
0.0
 11
-233.59999999999991
 21
114.965203688974
 31
0.0
  0
LINE
  5
138
  8
1
 62
     7
 10
-232.0
 20
126.0814266496094
 30
0.0
 11
-232.0
 21
107.9878577532334
 31
0.0
  0
LINE
  5
139
  8
1
 62
     7
 10
13.24195134850128
 20
95.5
 30
0.0
 11
14.899999999999981
 21
95.5
 31
0.0
  0
LINE
  5
13A
  8
1
 62
     7
 10
15.19999999999993
 20
109.2
 30
0.0
 11
15.19999999999993
 21
95.799999999999997
 31
0.0
  0
LINE
  5
13B
  8
1
 62
     7
 10
13.24195134850128
 20
109.4999999999999
 30
0.0
 11
14.899999999999981
 21
109.4999999999999
 31
0.0
  0
LINE
  5
13C
  8
1
 62
     7
 10
13.24195134850128
 20
-109.5000000000001
 30
0.0
 11
14.899999999999981
 21
-109.5000000000001
 31
0.0
  0
LINE
  5
13D
  8
1
 62
     7
 10
15.19999999999993
 20
-95.800000000000026
 30
0.0
 11
15.19999999999993
 21
-109.2
 31
0.0
  0
LINE
  5
13E
  8
1
 62
     7
 10
13.24195134850128
 20
-95.500000000000057
 30
0.0
 11
14.899999999999981
 21
-95.500000000000057
 31
0.0
  0
LINE
  5
13F
  8
1
 62
     7
 10
97.699999999999918
 20
132.99999999999989
 30
0.0
 11
100.0289999999999
 21
132.99999999999989
 31
0.0
  0
LINE
  5
140
  8
1
 62
     7
 10
97.0
 20
155.0
 30
0.0
 11
99.299999999999969
 21
155.0
 31
0.0
  0
LINE
  5
141
  8
1
 62
     7
 10
-460.52553230489548
 20
-0.5774999999999438
 30
0.0
 11
-460.52553230489548
 21
0.5775000000000361
 31
0.0
  0
LINE
  5
142
  8
1
 62
     7
 10
-463.7980323048954
 20
3.8500000000000649
 30
0.0
 11
-464.95303230489549
 21
3.8500000000000649
 31
0.0
  0
LINE
  5
143
  8
1
 62
     7
 10
-468.22553230489552
 20
0.5775000000000361
 30
0.0
 11
-468.22553230489552
 21
-0.5774999999999438
 31
0.0
  0
LINE
  5
144
  8
1
 62
     7
 10
-464.95303230489549
 20
-3.8499999999999792
 30
0.0
 11
-463.7980323048954
 21
-3.8499999999999792
 31
0.0
  0
LINE
  5
145
  8
1
 62
     7
 10
-567.45303230489537
 20
-106.34999999999989
 30
0.0
 11
-566.2980323048954
 21
-106.34999999999989
 31
0.0
  0
LINE
  5
146
  8
1
 62
     7
 10
-563.02553230489536
 20
-103.0774999999999
 30
0.0
 11
-563.02553230489536
 21
-101.9225
 31
0.0
  0
LINE
  5
147
  8
1
 62
     7
 10
-566.2980323048954
 20
-98.649999999999963
 30
0.0
 11
-567.45303230489537
 21
-98.649999999999963
 31
0.0
  0
LINE
  5
148
  8
1
 62
     7
 10
-570.72553230489552
 20
-101.9225
 30
0.0
 11
-570.72553230489552
 21
-103.0774999999999
 31
0.0
  0
LINE
  5
149
  8
1
 62
     7
 10
-673.22553230489552
 20
0.5775000000000503
 30
0.0
 11
-673.22553230489552
 21
-0.5774999999999153
 31
0.0
  0
LINE
  5
14A
  8
1
 62
     7
 10
-669.95303230489537
 20
-3.8499999999999441
 30
0.0
 11
-668.79803230489551
 21
-3.8499999999999441
 31
0.0
  0
LINE
  5
14B
  8
1
 62
     7
 10
-665.52553230489548
 20
-0.5774999999999153
 30
0.0
 11
-665.52553230489548
 21
0.5775000000000503
 31
0.0
  0
LINE
  5
14C
  8
1
 62
     7
 10
-668.79803230489551
 20
3.8500000000000929
 30
0.0
 11
-669.95303230489537
 21
3.8500000000000929
 31
0.0
  0
LINE
  5
14D
  8
1
 62
     7
 10
-563.02553230489536
 20
101.9225
 30
0.0
 11
-563.02553230489536
 21
103.0774999999999
 31
0.0
  0
LINE
  5
14E
  8
1
 62
     7
 10
-567.45303230489537
 20
98.650000000000077
 30
0.0
 11
-566.2980323048954
 21
98.650000000000077
 31
0.0
  0
LINE
  5
14F
  8
1
 62
     7
 10
-570.72553230489552
 20
103.0774999999999
 30
0.0
 11
-570.72553230489552
 21
101.9225
 31
0.0
  0
LINE
  5
150
  8
1
 62
     7
 10
-566.2980323048954
 20
106.34999999999989
 30
0.0
 11
-567.45303230489537
 21
106.34999999999989
 31
0.0
  0
LINE
  5
151
  8
1
 62
     7
 10
-541.76446856277335
 20
147.99999999999989
 30
0.0
 11
-566.76446856277335
 21
147.99999999999989
 31
0.0
  0
LINE
  5
152
  8
1
 62
     7
 10
-541.76446856277335
 20
163.0
 30
0.0
 11
-541.76446856277335
 21
147.99999999999989
 31
0.0
  0
LINE
  5
153
  8
1
 62
     7
 10
-551.87546856277345
 20
217.99999999999989
 30
0.0
 11
-551.87546856277345
 21
173.0
 31
0.0
  0
LINE
  5
154
  8
1
 62
     7
 10
-566.76446856277335
 20
222.99999999999989
 30
0.0
 11
-556.76446856277335
 21
222.99999999999989
 31
0.0
  0
LINE
  5
155
  8
1
 62
     7
 10
-576.9865960470172
 20
222.99999999999989
 30
0.0
 11
-566.98659604701731
 21
222.99999999999989
 31
0.0
  0
LINE
  5
156
  8
1
 62
     7
 10
-581.87559604701721
 20
173.0
 30
0.0
 11
-581.87559604701721
 21
217.99999999999989
 31
0.0
  0
LINE
  5
157
  8
1
 62
     7
 10
-591.98659604701731
 20
147.99999999999989
 30
0.0
 11
-591.98659604701731
 21
163.0
 31
0.0
  0
LINE
  5
158
  8
1
 62
     7
 10
-566.98659604701731
 20
147.99999999999989
 30
0.0
 11
-591.98659604701731
 21
147.99999999999989
 31
0.0
  0
LINE
  5
159
  8
1
 62
     7
 10
0.0
 20
47.750000000000007
 30
0.0
 11
2.0
 21
49.750000000000007
 31
0.0
  0
LINE
  5
15A
  8
1
 62
     7
 10
47.0
 20
186.99999999999989
 30
0.0
 11
50.0
 21
189.99999999999989
 31
0.0
  0
LINE
  5
15B
  8
1
 62
     7
 10
69.0
 20
181.59999999999991
 30
0.0
 11
69.0
 21
143.49999999999989
 31
0.0
  0
LINE
  5
15C
  8
1
 62
     7
 10
47.0
 20
181.59999999999991
 30
0.0
 11
69.0
 21
181.59999999999991
 31
0.0
  0
LINE
  5
15D
  8
1
 62
     7
 10
13.24195134850128
 20
95.5
 30
0.0
 11
14.899999999999981
 21
95.5
 31
0.0
  0
LINE
  5
15E
  8
1
 62
     7
 10
15.19999999999993
 20
109.2
 30
0.0
 11
15.19999999999993
 21
95.799999999999997
 31
0.0
  0
LINE
  5
15F
  8
1
 62
     7
 10
13.24195134850128
 20
109.4999999999999
 30
0.0
 11
14.899999999999981
 21
109.4999999999999
 31
0.0
  0
LINE
  5
160
  8
1
 62
     7
 10
16.799999999999951
 20
110.25
 30
0.0
 11
16.799999999999951
 21
94.749999999999986
 31
0.0
  0
LINE
  5
161
  8
1
 62
     7
 10
15.19999999999993
 20
110.25
 30
0.0
 11
16.799999999999951
 21
110.25
 31
0.0
  0
LINE
  5
162
  8
1
 62
     7
 10
15.19999999999993
 20
94.749999999999986
 30
0.0
 11
15.19999999999993
 21
110.25
 31
0.0
  0
LINE
  5
163
  8
1
 62
     7
 10
16.799999999999951
 20
94.749999999999986
 30
0.0
 11
15.19999999999993
 21
94.749999999999986
 31
0.0
  0
LINE
  5
164
  8
1
 62
     7
 10
16.799999999999951
 20
80.0
 30
0.0
 11
20.0
 21
80.0
 31
0.0
  0
LINE
  5
165
  8
1
 62
     7
 10
16.799999999999951
 20
111.0
 30
0.0
 11
20.0
 21
111.0
 31
0.0
  0
LINE
  5
166
  8
1
 62
     7
 10
16.799999999999951
 20
111.0
 30
0.0
 11
16.799999999999951
 21
62.885739253455419
 31
0.0
  0
LINE
  5
167
  8
1
 62
     3
 10
-10.0
 20
0.0
 30
0.0
 11
0.0
 21
0.0
 31
0.0
  0
LINE
  5
168
  8
1
 62
     7
 10
14.0
 20
50.0
 30
0.0
 11
14.0
 21
49.750000000000007
 31
0.0
  0
LINE
  5
169
  8
1
 62
     7
 10
17.0
 20
50.0
 30
0.0
 11
14.0
 21
50.0
 31
0.0
  0
LINE
  5
16A
  8
1
 62
     7
 10
17.0
 20
59.607695154586807
 30
0.0
 11
17.0
 21
48.0
 31
0.0
  0
LINE
  5
16B
  8
1
 62
     7
 10
20.0
 20
48.0
 30
0.0
 11
17.0
 21
48.0
 31
0.0
  0
LINE
  5
16C
  8
1
 62
     7
 10
14.0
 20
49.750000000000007
 30
0.0
 11
2.0
 21
49.750000000000007
 31
0.0
  0
LINE
  5
16D
  8
1
 62
     7
 10
80.0
 20
35.0
 30
0.0
 11
0.0
 21
35.0
 31
0.0
  0
LINE
  5
16E
  8
1
 62
     7
 10
80.0
 20
41.0
 30
0.0
 11
0.0
 21
41.0
 31
0.0
  0
LINE
  5
16F
  8
1
 62
     7
 10
47.0
 20
186.99999999999989
 30
0.0
 11
47.0
 21
179.99999999999989
 31
0.0
  0
LINE
  5
170
  8
1
 62
     7
 10
80.0
 20
189.99999999999989
 30
0.0
 11
50.0
 21
189.99999999999989
 31
0.0
  0
LINE
  5
171
  8
1
 62
     7
 10
411.61707124540061
 20
171.88534276661031
 30
0.0
 11
407.61707124540061
 21
174.19474384336871
 31
0.0
  0
LINE
  5
172
  8
1
 62
     7
 10
407.61707124540061
 20
174.19474384336871
 30
0.0
 11
403.61707124540061
 21
171.88534276661031
 31
0.0
  0
LINE
  5
173
  8
1
 62
     7
 10
403.61707124540061
 20
171.88534276661031
 30
0.0
 11
403.61707124540061
 21
167.2665406130933
 31
0.0
  0
LINE
  5
174
  8
1
 62
     7
 10
403.61707124540061
 20
167.2665406130933
 30
0.0
 11
407.61707124540061
 21
164.95713953633481
 31
0.0
  0
LINE
  5
175
  8
1
 62
     7
 10
407.61707124540061
 20
164.95713953633481
 30
0.0
 11
411.61707124540061
 21
167.2665406130933
 31
0.0
  0
LINE
  5
176
  8
1
 62
     7
 10
411.61707124540061
 20
167.2665406130933
 30
0.0
 11
411.61707124540061
 21
171.88534276661031
 31
0.0
  0
LINE
  5
177
  8
1
 62
     7
 10
379.61707124540061
 20
171.88534276661031
 30
0.0
 11
379.61707124540061
 21
167.2665406130933
 31
0.0
  0
LINE
  5
178
  8
1
 62
     7
 10
379.61707124540061
 20
167.2665406130933
 30
0.0
 11
383.61707124540061
 21
164.95713953633481
 31
0.0
  0
LINE
  5
179
  8
1
 62
     7
 10
383.61707124540061
 20
164.95713953633481
 30
0.0
 11
387.61707124540061
 21
167.2665406130933
 31
0.0
  0
LINE
  5
17A
  8
1
 62
     7
 10
387.61707124540061
 20
167.2665406130933
 30
0.0
 11
387.61707124540061
 21
171.88534276661031
 31
0.0
  0
LINE
  5
17B
  8
1
 62
     7
 10
387.61707124540061
 20
171.88534276661031
 30
0.0
 11
383.61707124540061
 21
174.19474384336871
 31
0.0
  0
LINE
  5
17C
  8
1
 62
     7
 10
383.61707124540061
 20
174.19474384336871
 30
0.0
 11
379.61707124540061
 21
171.88534276661031
 31
0.0
  0
LINE
  5
17D
  8
1
 62
     7
 10
226.2398210763003
 20
42.416457982849913
 30
0.0
 11
227.2001240415907
 21
37.898587738123133
 31
0.0
  0
LINE
  5
17E
  8
1
 62
     7
 10
229.6722599965903
 20
45.507039868484341
 30
0.0
 11
226.2398210763003
 21
42.416457982849913
 31
0.0
  0
LINE
  5
17F
  8
1
 62
     7
 10
234.06500188217061
 20
44.079751509391997
 30
0.0
 11
229.6722599965903
 21
45.507039868484341
 31
0.0
  0
LINE
  5
180
  8
1
 62
     7
 10
235.0253048474612
 20
39.561881264665189
 30
0.0
 11
234.06500188217061
 21
44.079751509391997
 31
0.0
  0
LINE
  5
181
  8
1
 62
     7
 10
231.59286592717109
 20
36.471299379030746
 30
0.0
 11
235.0253048474612
 21
39.561881264665189
 31
0.0
  0
LINE
  5
182
  8
1
 62
     7
 10
227.2001240415907
 20
37.898587738123133
 30
0.0
 11
231.59286592717109
 21
36.471299379030746
 31
0.0
  0
LINE
  5
183
  8
1
 62
     7
 10
241.48140974716941
 20
66.905107900475656
 30
0.0
 11
237.08866786158899
 21
68.332396259568
 31
0.0
  0
LINE
  5
184
  8
1
 62
     7
 10
242.44171271245989
 20
62.387237655748862
 30
0.0
 11
241.48140974716941
 21
66.905107900475656
 31
0.0
  0
LINE
  5
185
  8
1
 62
     7
 10
239.00927379216989
 20
59.29665577011442
 30
0.0
 11
242.44171271245989
 21
62.387237655748862
 31
0.0
  0
LINE
  5
186
  8
1
 62
     7
 10
234.6165319065895
 20
60.723944129206771
 30
0.0
 11
239.00927379216989
 21
59.29665577011442
 31
0.0
  0
LINE
  5
187
  8
1
 62
     7
 10
233.65622894129899
 20
65.241814373933579
 30
0.0
 11
234.6165319065895
 21
60.723944129206771
 31
0.0
  0
LINE
  5
188
  8
1
 62
     7
 10
237.08866786158899
 20
68.332396259568
 30
0.0
 11
233.65622894129899
 21
65.241814373933579
 31
0.0
  0
LINE
  5
189
  8
1
 62
     7
 10
302.9361737199028
 20
-147.97993112758559
 30
0.0
 11
307.52967359194952
 21
-148.4627274188301
 31
0.0
  0
LINE
  5
18A
  8
1
 62
     7
 10
301.05753763694992
 20
-143.76044540049031
 30
0.0
 11
302.9361737199028
 21
-147.97993112758559
 31
0.0
  0
LINE
  5
18B
  8
1
 62
     7
 10
303.77240142604393
 20
-140.02375596463941
 30
0.0
 11
301.05753763694992
 21
-143.76044540049031
 31
0.0
  0
LINE
  5
18C
  8
1
 62
     7
 10
308.36590129809082
 20
-140.5065522558838
 30
0.0
 11
303.77240142604393
 21
-140.02375596463941
 31
0.0
  0
LINE
  5
18D
  8
1
 62
     7
 10
310.24453738104347
 20
-144.72603798297919
 30
0.0
 11
308.36590129809082
 21
-140.5065522558838
 31
0.0
  0
LINE
  5
18E
  8
1
 62
     7
 10
307.52967359194952
 20
-148.4627274188301
 30
0.0
 11
310.24453738104347
 21
-144.72603798297919
 31
0.0
  0
LINE
  5
18F
  8
1
 62
     7
 10
284.3559935610453
 20
-125.9169099096201
 30
0.0
 11
281.64112977195111
 21
-129.65359934547101
 31
0.0
  0
LINE
  5
190
  8
1
 62
     7
 10
288.94949343309202
 20
-126.3997062008646
 30
0.0
 11
284.3559935610453
 21
-125.9169099096201
 31
0.0
  0
LINE
  5
191
  8
1
 62
     7
 10
290.82812951604473
 20
-130.6191919279598
 30
0.0
 11
288.94949343309202
 21
-126.3997062008646
 31
0.0
  0
LINE
  5
192
  8
1
 62
     7
 10
288.11326572695071
 20
-134.35588136381071
 30
0.0
 11
290.82812951604473
 21
-130.6191919279598
 31
0.0
  0
LINE
  5
193
  8
1
 62
     7
 10
283.51976585490399
 20
-133.87308507256631
 30
0.0
 11
288.11326572695071
 21
-134.35588136381071
 31
0.0
  0
LINE
  5
194
  8
1
 62
     7
 10
281.64112977195111
 20
-129.65359934547101
 30
0.0
 11
283.51976585490399
 21
-133.87308507256631
 31
0.0
  0
LINE
  5
195
  8
1
 62
     7
 10
507.71437663589711
 20
-133.87308507256631
 30
0.0
 11
509.59301271884982
 21
-129.65359934547101
 31
0.0
  0
LINE
  5
196
  8
1
 62
     7
 10
503.12087676385028
 20
-134.35588136381071
 30
0.0
 11
507.71437663589711
 21
-133.87308507256631
 31
0.0
  0
LINE
  5
197
  8
1
 62
     7
 10
500.40601297475632
 20
-130.6191919279598
 30
0.0
 11
503.12087676385028
 21
-134.35588136381071
 31
0.0
  0
LINE
  5
198
  8
1
 62
     7
 10
502.28464905770909
 20
-126.3997062008646
 30
0.0
 11
500.40601297475632
 21
-130.6191919279598
 31
0.0
  0
LINE
  5
199
  8
1
 62
     7
 10
506.87814892975581
 20
-125.9169099096201
 30
0.0
 11
502.28464905770909
 21
-126.3997062008646
 31
0.0
  0
LINE
  5
19A
  8
1
 62
     7
 10
509.59301271884982
 20
-129.65359934547101
 30
0.0
 11
506.87814892975581
 21
-125.9169099096201
 31
0.0
  0
LINE
  5
19B
  8
1
 62
     7
 10
480.98960510975758
 20
-144.72603798297919
 30
0.0
 11
483.70446889885159
 21
-148.4627274188301
 31
0.0
  0
LINE
  5
19C
  8
1
 62
     7
 10
482.86824119271029
 20
-140.5065522558838
 30
0.0
 11
480.98960510975758
 21
-144.72603798297919
 31
0.0
  0
LINE
  5
19D
  8
1
 62
     7
 10
487.46174106475712
 20
-140.02375596463941
 30
0.0
 11
482.86824119271029
 21
-140.5065522558838
 31
0.0
  0
LINE
  5
19E
  8
1
 62
     7
 10
490.17660485385119
 20
-143.76044540049031
 30
0.0
 11
487.46174106475712
 21
-140.02375596463941
 31
0.0
  0
LINE
  5
19F
  8
1
 62
     7
 10
488.29796877089831
 20
-147.97993112758559
 30
0.0
 11
490.17660485385119
 21
-143.76044540049031
 31
0.0
  0
LINE
  5
1A0
  8
1
 62
     7
 10
483.70446889885159
 20
-148.4627274188301
 30
0.0
 11
488.29796877089831
 21
-147.97993112758559
 31
0.0
  0
LINE
  5
1A1
  8
1
 62
     7
 10
557.57791354950211
 20
65.241814373933551
 30
0.0
 11
554.145474629212
 21
68.332396259567957
 31
0.0
  0
LINE
  5
1A2
  8
1
 62
     7
 10
556.61761058421155
 20
60.723944129206743
 30
0.0
 11
557.57791354950211
 21
65.241814373933551
 31
0.0
  0
LINE
  5
1A3
  8
1
 62
     7
 10
552.22486869863121
 20
59.296655770114391
 30
0.0
 11
556.61761058421155
 21
60.723944129206743
 31
0.0
  0
LINE
  5
1A4
  8
1
 62
     7
 10
548.79242977834122
 20
62.38723765574882
 30
0.0
 11
552.22486869863121
 21
59.296655770114391
 31
0.0
  0
LINE
  5
1A5
  8
1
 62
     7
 10
549.75273274363167
 20
66.905107900475642
 30
0.0
 11
548.79242977834122
 21
62.38723765574882
 31
0.0
  0
LINE
  5
1A6
  8
1
 62
     7
 10
554.145474629212
 20
68.332396259567957
 30
0.0
 11
549.75273274363167
 21
66.905107900475642
 31
0.0
  0
LINE
  5
1A7
  8
1
 62
     7
 10
559.64127656362996
 20
36.471299379030718
 30
0.0
 11
564.03401844921041
 21
37.898587738123069
 31
0.0
  0
LINE
  5
1A8
  8
1
 62
     7
 10
556.20883764333985
 20
39.561881264665153
 30
0.0
 11
559.64127656362996
 21
36.471299379030718
 31
0.0
  0
LINE
  5
1A9
  8
1
 62
     7
 10
557.16914060863041
 20
44.079751509391947
 30
0.0
 11
556.20883764333985
 21
39.561881264665153
 31
0.0
  0
LINE
  5
1AA
  8
1
 62
     7
 10
561.56188249421075
 20
45.507039868484313
 30
0.0
 11
557.16914060863041
 21
44.079751509391947
 31
0.0
  0
LINE
  5
1AB
  8
1
 62
     7
 10
564.99432141450075
 20
42.416457982849892
 30
0.0
 11
561.56188249421075
 21
45.507039868484313
 31
0.0
  0
LINE
  5
1AC
  8
1
 62
     7
 10
564.03401844921041
 20
37.898587738123069
 30
0.0
 11
564.99432141450075
 21
42.416457982849892
 31
0.0
  0
LINE
  5
1AD
  8
1
 62
     3
 10
465.60531744178661
 20
69.988246196386186
 30
0.0
 11
481.43166117055171
 21
85.814589925151225
 31
0.0
  0
LINE
  5
1AE
  8
1
 62
     3
 10
325.62882504901432
 20
69.988246196386143
 30
0.0
 11
309.80248132024929
 21
85.814589925151225
 31
0.0
  0
LINE
  5
1AF
  8
1
 62
     3
 10
296.6387442677642
 20
0.0000000000000497
 30
0.0
 11
274.2569143237663
 21
0.0000000000000426
 31
0.0
  0
LINE
  5
1B0
  8
1
 62
     3
 10
325.62882504901449
 20
-69.988246196386029
 30
0.0
 11
309.8024813202494
 21
-85.814589925151154
 31
0.0
  0
LINE
  5
1B1
  8
1
 62
     3
 10
465.60531744178661
 20
-69.988246196386029
 30
0.0
 11
481.43166117055171
 21
-85.814589925151154
 31
0.0
  0
LINE
  5
1B2
  8
1
 62
     3
 10
494.59539822303702
 20
0.0000000000000142
 30
0.0
 11
516.97722816703492
 21
0.0000000000000142
 31
0.0
  0
LINE
  5
1B3
  8
1
 62
     7
 10
-575.87553230489527
 20
33.823069050575533
 30
0.0
 11
-575.87553230489527
 21
41.0
 31
0.0
  0
LINE
  5
1B4
  8
1
 62
     7
 10
-575.87553230489527
 20
41.0
 30
0.0
 11
-557.87553230489527
 21
41.0
 31
0.0
  0
LINE
  5
1B5
  8
1
 62
     7
 10
386.61707124540038
 20
33.823069050575548
 30
0.0
 11
386.61707124540038
 21
41.0
 31
0.0
  0
LINE
  5
1B6
  8
1
 62
     7
 10
404.61707124540038
 20
33.823069050575548
 30
0.0
 11
404.61707124540038
 21
41.0
 31
0.0
  0
LINE
  5
1B7
  8
1
 62
     7
 10
386.61707124540038
 20
41.0
 30
0.0
 11
404.61707124540038
 21
41.0
 31
0.0
  0
LINE
  5
1B8
  8
1
 62
     7
 10
20.0
 20
90.0
 30
0.0
 11
54.0
 21
90.0
 31
0.0
  0
LINE
  5
1B9
  8
1
 62
     7
 10
54.0
 20
84.0
 30
0.0
 11
59.0
 21
84.0
 31
0.0
  0
LINE
  5
1BA
  8
1
 62
     7
 10
18.0
 20
115.0
 30
0.0
 11
20.0
 21
115.0
 31
0.0
  0
LINE
  5
1BB
  8
1
 62
     7
 10
23.0
 20
179.99999999999989
 30
0.0
 11
60.0
 21
179.99999999999989
 31
0.0
  0
LINE
  5
1BC
  8
1
 62
     7
 10
60.0
 20
179.99999999999989
 30
0.0
 11
60.0
 21
124.0
 31
0.0
  0
LINE
  5
1BD
  8
1
 62
     7
 10
60.0
 20
124.0
 30
0.0
 11
41.0
 21
124.0
 31
0.0
  0
LINE
  5
1BE
  8
1
 62
     7
 10
41.0
 20
124.0
 30
0.0
 11
41.0
 21
96.0
 31
0.0
  0
LINE
  5
1BF
  8
1
 62
     7
 10
41.0
 20
96.0
 30
0.0
 11
59.0
 21
96.0
 31
0.0
  0
LINE
  5
1C0
  8
1
 62
     7
 10
59.0
 20
96.0
 30
0.0
 11
59.0
 21
60.0
 31
0.0
  0
LINE
  5
1C1
  8
1
 62
     7
 10
43.0
 20
80.392304845413264
 30
0.0
 11
54.0
 21
80.392304845413179
 31
0.0
  0
LINE
  5
1C2
  8
1
 62
     7
 10
31.0
 20
80.392304845413264
 30
0.0
 11
20.0
 21
80.392304845413179
 31
0.0
  0
LINE
  5
1C3
  8
1
 62
     7
 10
20.0
 20
115.0
 30
0.0
 11
20.0
 21
48.0
 31
0.0
  0
LINE
  5
1C4
  8
1
 62
     7
 10
31.0
 20
59.607695154586743
 30
0.0
 11
17.0
 21
59.607695154586807
 31
0.0
  0
LINE
  5
1C5
  8
1
 62
     3
 10
22.94665515959149
 20
82.172714639328078
 30
0.0
 11
22.94665515959149
 21
55.836848433228809
 31
0.0
  0
LINE
  5
1C6
  8
1
 62
     3
 10
51.061971785021797
 20
82.528604723194306
 30
0.0
 11
51.061971785021797
 21
55.480958349362609
 31
0.0
  0
LINE
  5
1C7
  8
1
 62
     7
 10
-575.87553230489527
 20
33.823069050575533
 30
0.0
 11
-575.87553230489527
 21
41.0
 31
0.0
  0
LINE
  5
1C8
  8
1
 62
     7
 10
-557.87553230489527
 20
41.0
 30
0.0
 11
-557.87553230489527
 21
33.823069050575533
 31
0.0
  0
LINE
  5
1C9
  8
1
 62
     7
 10
69.0
 20
143.49999999999989
 30
0.0
 11
65.0
 21
143.49999999999989
 31
0.0
  0
LINE
  5
1CA
  8
1
 62
     7
 10
65.0
 20
143.49999999999989
 30
0.0
 11
65.0
 21
122.39999999999991
 31
0.0
  0
LINE
  5
1CB
  8
1
 62
     7
 10
47.0
 20
96.0
 30
0.0
 11
47.0
 21
122.39999999999991
 31
0.0
  0
LINE
  5
1CC
  8
1
 62
     7
 10
47.0
 20
122.39999999999991
 30
0.0
 11
65.0
 21
122.39999999999991
 31
0.0
  0
LINE
  5
1CD
  8
1
 62
     7
 10
47.0
 20
108.4999999999999
 30
0.0
 11
65.0
 21
108.4999999999999
 31
0.0
  0
LINE
  5
1CE
  8
1
 62
     7
 10
43.0
 20
59.607695154586743
 30
0.0
 11
65.0
 21
59.607695154586807
 31
0.0
  0
LINE
  5
1CF
  8
1
 62
     7
 10
65.0
 20
108.4999999999999
 30
0.0
 11
65.0
 21
59.607695154586807
 31
0.0
  0
LINE
  5
1D0
  8
1
 62
     7
 10
77.0
 20
129.99999999999989
 30
0.0
 11
77.0
 21
73.0
 31
0.0
  0
LINE
  5
1D1
  8
1
 62
     7
 10
77.0
 20
129.99999999999989
 30
0.0
 11
80.0
 21
129.99999999999989
 31
0.0
  0
LINE
  5
1D2
  8
1
 62
     7
 10
77.0
 20
73.0
 30
0.0
 11
80.0
 21
73.0
 31
0.0
  0
LINE
  5
1D3
  8
1
 62
     7
 10
80.0
 20
-73.000000000000028
 30
0.0
 11
77.0
 21
-73.000000000000028
 31
0.0
  0
LINE
  5
1D4
  8
1
 62
     7
 10
80.0
 20
-130.0
 30
0.0
 11
77.0
 21
-130.0
 31
0.0
  0
LINE
  5
1D5
  8
1
 62
     7
 10
77.0
 20
-73.000000000000028
 30
0.0
 11
77.0
 21
-130.0
 31
0.0
  0
LINE
  5
1D6
  8
1
 62
     7
 10
65.0
 20
-59.607695154586743
 30
0.0
 11
65.0
 21
-108.5000000000001
 31
0.0
  0
LINE
  5
1D7
  8
1
 62
     7
 10
65.0
 20
-108.5000000000001
 30
0.0
 11
47.0
 21
-108.5000000000001
 31
0.0
  0
LINE
  5
1D8
  8
1
 62
     7
 10
65.0
 20
-122.40000000000001
 30
0.0
 11
47.0
 21
-122.40000000000001
 31
0.0
  0
LINE
  5
1D9
  8
1
 62
     7
 10
65.0
 20
-122.40000000000001
 30
0.0
 11
65.0
 21
-143.5
 31
0.0
  0
LINE
  5
1DA
  8
1
 62
     7
 10
65.0
 20
-143.5
 30
0.0
 11
69.0
 21
-143.5
 31
0.0
  0
LINE
  5
1DB
  8
1
 62
     7
 10
69.0
 20
-143.5
 30
0.0
 11
69.000000000000014
 21
-181.59999999999999
 31
0.0
  0
LINE
  5
1DC
  8
1
 62
     3
 10
51.061971785021797
 20
-55.480958349362631
 30
0.0
 11
51.061971785021797
 21
-82.528604723194235
 31
0.0
  0
LINE
  5
1DD
  8
1
 62
     3
 10
22.94665515959149
 20
-55.836848433228823
 30
0.0
 11
22.94665515959149
 21
-82.172714639328049
 31
0.0
  0
LINE
  5
1DE
  8
1
 62
     7
 10
65.0
 20
-59.607695154586743
 30
0.0
 11
43.0
 21
-59.607695154586743
 31
0.0
  0
LINE
  5
1DF
  8
1
 62
     7
 10
20.0
 20
-80.392304845413236
 30
0.0
 11
31.0
 21
-80.392304845413236
 31
0.0
  0
LINE
  5
1E0
  8
1
 62
     7
 10
54.0
 20
-80.392304845413236
 30
0.0
 11
43.0
 21
-80.392304845413236
 31
0.0
  0
LINE
  5
1E1
  8
1
 62
     7
 10
59.0
 20
-96.000000000000057
 30
0.0
 11
41.0
 21
-96.000000000000057
 31
0.0
  0
LINE
  5
1E2
  8
1
 62
     7
 10
41.0
 20
-96.000000000000057
 30
0.0
 11
41.0
 21
-124.0000000000001
 31
0.0
  0
LINE
  5
1E3
  8
1
 62
     7
 10
41.0
 20
-124.0000000000001
 30
0.0
 11
60.0
 21
-124.0000000000001
 31
0.0
  0
LINE
  5
1E4
  8
1
 62
     7
 10
60.0
 20
-180.0
 30
0.0
 11
23.0
 21
-180.0
 31
0.0
  0
LINE
  5
1E5
  8
1
 62
     7
 10
20.0
 20
-115.0000000000001
 30
0.0
 11
18.0
 21
-115.0000000000001
 31
0.0
  0
LINE
  5
1E6
  8
1
 62
     7
 10
18.0
 20
-115.0000000000001
 30
0.0
 11
18.0
 21
-175.0
 31
0.0
  0
LINE
  5
1E7
  8
1
 62
     7
 10
59.0
 20
-84.000000000000071
 30
0.0
 11
54.0
 21
-84.000000000000071
 31
0.0
  0
LINE
  5
1E8
  8
1
 62
     7
 10
50.0
 20
-190.0
 30
0.0
 11
80.0
 21
-190.0
 31
0.0
  0
LINE
  5
1E9
  8
1
 62
     7
 10
0.0
 20
-34.999999999999993
 30
0.0
 11
80.0
 21
-34.999999999999993
 31
0.0
  0
LINE
  5
1EA
  8
1
 62
     7
 10
2.0
 20
-49.749999999999993
 30
0.0
 11
14.0
 21
-49.749999999999993
 31
0.0
  0
LINE
  5
1EB
  8
1
 62
     7
 10
0.0
 20
-47.749999999999993
 30
0.0
 11
0.0
 21
47.750000000000007
 31
0.0
  0
LINE
  5
1EC
  8
1
 62
     7
 10
17.0
 20
-59.607695154586743
 30
0.0
 11
31.0
 21
-59.607695154586743
 31
0.0
  0
LINE
  5
1ED
  8
1
 62
     7
 10
17.0
 20
-47.999999999999993
 30
0.0
 11
20.0
 21
-47.999999999999993
 31
0.0
  0
LINE
  5
1EE
  8
1
 62
     7
 10
17.0
 20
-47.999999999999993
 30
0.0
 11
17.0
 21
-59.607695154586743
 31
0.0
  0
LINE
  5
1EF
  8
1
 62
     7
 10
14.0
 20
-50.0
 30
0.0
 11
17.0
 21
-50.0
 31
0.0
  0
LINE
  5
1F0
  8
1
 62
     7
 10
14.0
 20
-49.749999999999993
 30
0.0
 11
14.0
 21
-50.0
 31
0.0
  0
LINE
  5
1F1
  8
1
 62
     7
 10
20.0
 20
-115.0000000000001
 30
0.0
 11
20.0
 21
-47.999999999999993
 31
0.0
  0
LINE
  5
1F2
  8
1
 62
     7
 10
20.0
 20
-111.0
 30
0.0
 11
16.799999999999951
 21
-111.0
 31
0.0
  0
LINE
  5
1F3
  8
1
 62
     7
 10
20.0
 20
-80.000000000000071
 30
0.0
 11
16.799999999999951
 21
-80.000000000000071
 31
0.0
  0
LINE
  5
1F4
  8
1
 62
     7
 10
15.19999999999993
 20
-94.750000000000057
 30
0.0
 11
16.799999999999951
 21
-94.750000000000057
 31
0.0
  0
LINE
  5
1F5
  8
1
 62
     7
 10
15.19999999999993
 20
-110.25
 30
0.0
 11
15.19999999999993
 21
-94.750000000000057
 31
0.0
  0
LINE
  5
1F6
  8
1
 62
     7
 10
16.799999999999951
 20
-110.25
 30
0.0
 11
15.19999999999993
 21
-110.25
 31
0.0
  0
LINE
  5
1F7
  8
1
 62
     7
 10
16.799999999999951
 20
-94.750000000000057
 30
0.0
 11
16.799999999999951
 21
-110.25
 31
0.0
  0
LINE
  5
1F8
  8
1
 62
     7
 10
14.899999999999981
 20
-109.5000000000001
 30
0.0
 11
13.24195134850128
 21
-109.5000000000001
 31
0.0
  0
LINE
  5
1F9
  8
1
 62
     7
 10
15.19999999999993
 20
-95.800000000000026
 30
0.0
 11
15.19999999999993
 21
-109.2
 31
0.0
  0
LINE
  5
1FA
  8
1
 62
     7
 10
14.899999999999981
 20
-95.500000000000057
 30
0.0
 11
13.24195134850128
 21
-95.500000000000057
 31
0.0
  0
LINE
  5
1FB
  8
1
 62
     7
 10
60.0
 20
-124.0000000000001
 30
0.0
 11
60.0
 21
-180.0
 31
0.0
  0
LINE
  5
1FC
  8
1
 62
     7
 10
47.0
 20
-96.000000000000057
 30
0.0
 11
47.0
 21
-122.40000000000001
 31
0.0
  0
LINE
  5
1FD
  8
1
 62
     7
 10
16.799999999999951
 20
-62.885739253455419
 30
0.0
 11
16.799999999999951
 21
-111.0
 31
0.0
  0
LINE
  5
1FE
  8
1
 62
     7
 10
59.0
 20
-60.000000000000028
 30
0.0
 11
59.0
 21
-96.000000000000057
 31
0.0
  0
LINE
  5
1FF
  8
1
 62
     7
 10
80.0
 20
189.99999999999989
 30
0.0
 11
80.0
 21
-190.0
 31
0.0
  0
LINE
  5
200
  8
1
 62
     7
 10
69.000000000000014
 20
-181.59999999999999
 30
0.0
 11
47.0
 21
-181.59999999999999
 31
0.0
  0
LINE
  5
201
  8
1
 62
     7
 10
50.0
 20
-190.0
 30
0.0
 11
47.0
 21
-187.0
 31
0.0
  0
LINE
  5
202
  8
1
 62
     7
 10
2.0
 20
-49.749999999999993
 30
0.0
 11
0.0
 21
-47.749999999999993
 31
0.0
  0
LINE
  5
203
  8
1
 62
     7
 10
14.799999999999949
 20
222.99999999999989
 30
0.0
 11
14.799999999999949
 21
147.99999999999989
 31
0.0
  0
LINE
  5
204
  8
1
 62
     7
 10
18.0
 20
115.0
 30
0.0
 11
18.0
 21
222.99999999999989
 31
0.0
  0
LINE
  5
205
  8
1
 62
     7
 10
14.799999999999949
 20
222.99999999999989
 30
0.0
 11
18.0
 21
222.99999999999989
 31
0.0
  0
LINE
  5
206
  8
1
 62
     7
 10
14.799999999999949
 20
216.49999999999989
 30
0.0
 11
18.0
 21
216.49999999999989
 31
0.0
  0
LINE
  5
207
  8
1
 62
     3
 10
12.01307170583755
 20
209.99999999999989
 30
0.0
 11
20.468540351893349
 21
209.99999999999989
 31
0.0
  0
LINE
  5
208
  8
1
 62
     7
 10
14.799999999999949
 20
203.49999999999989
 30
0.0
 11
18.0
 21
203.49999999999989
 31
0.0
  0
LINE
  5
209
  8
1
 62
     7
 10
14.799999999999949
 20
147.99999999999989
 30
0.0
 11
18.0
 21
147.99999999999989
 31
0.0
  0
LINE
  5
20A
  8
1
 62
     7
 10
80.799999999999955
 20
190.49999999999989
 30
0.0
 11
97.0
 21
190.49999999999989
 31
0.0
  0
LINE
  5
20B
  8
1
 62
     7
 10
97.0
 20
190.49999999999989
 30
0.0
 11
97.0
 21
137.49999999999989
 31
0.0
  0
LINE
  5
20C
  8
1
 62
     7
 10
97.0
 20
137.49999999999989
 30
0.0
 11
94.799999999999955
 21
137.49999999999989
 31
0.0
  0
LINE
  5
20D
  8
1
 62
     7
 10
80.799999999999955
 20
129.99999999999989
 30
0.0
 11
94.799999999999955
 21
129.99999999999989
 31
0.0
  0
LINE
  5
20E
  8
1
 62
     7
 10
94.799999999999955
 20
136.49999999999989
 30
0.0
 11
97.699999999999918
 21
136.49999999999989
 31
0.0
  0
LINE
  5
20F
  8
1
 62
     7
 10
97.699999999999918
 20
136.49999999999989
 30
0.0
 11
97.0
 21
144.50103661193211
 31
0.0
  0
LINE
  5
210
  8
1
 62
     7
 10
97.0
 20
187.99999999999989
 30
0.0
 11
99.299999999999969
 21
187.99999999999989
 31
0.0
  0
LINE
  5
211
  8
1
 62
     7
 10
99.299999999999969
 20
187.99999999999989
 30
0.0
 11
99.299999999999969
 21
145.32927145518241
 31
0.0
  0
LINE
  5
212
  8
1
 62
     7
 10
99.299999999999969
 20
178.99999999999989
 30
0.0
 11
101.2999999999999
 21
178.99999999999989
 31
0.0
  0
LINE
  5
213
  8
1
 62
     7
 10
101.2999999999999
 20
178.99999999999989
 30
0.0
 11
101.2999999999999
 21
161.0
 31
0.0
  0
LINE
  5
214
  8
1
 62
     7
 10
101.2999999999999
 20
161.0
 30
0.0
 11
99.299999999999969
 21
161.0
 31
0.0
  0
LINE
  5
215
  8
1
 62
     7
 10
101.2999999999999
 20
177.99999999999989
 30
0.0
 11
110.6999999999999
 21
177.99999999999989
 31
0.0
  0
LINE
  5
216
  8
1
 62
     7
 10
110.6999999999999
 20
177.99999999999989
 30
0.0
 11
111.2999999999999
 21
176.96076951545859
 31
0.0
  0
LINE
  5
217
  8
1
 62
     7
 10
111.2999999999999
 20
176.96076951545859
 30
0.0
 11
111.2999999999999
 21
163.03923048454129
 31
0.0
  0
LINE
  5
218
  8
1
 62
     7
 10
111.2999999999999
 20
163.03923048454129
 30
0.0
 11
110.6999999999999
 21
162.0
 31
0.0
  0
LINE
  5
219
  8
1
 62
     7
 10
110.6999999999999
 20
162.0
 30
0.0
 11
101.2999999999999
 21
162.0
 31
0.0
  0
LINE
  5
21A
  8
1
 62
     7
 10
110.6999999999999
 20
177.99999999999989
 30
0.0
 11
110.6999999999999
 21
162.0
 31
0.0
  0
LINE
  5
21B
  8
1
 62
     7
 10
97.699999999999918
 20
92.5
 30
0.0
 11
99.999999999999872
 21
92.5
 31
0.0
  0
LINE
  5
21C
  8
1
 62
     7
 10
94.799999999999955
 20
93.499999999999986
 30
0.0
 11
97.699999999999918
 21
93.499999999999986
 31
0.0
  0
LINE
  5
21D
  8
1
 62
     7
 10
97.699999999999918
 20
-93.500000000000057
 30
0.0
 11
94.799999999999955
 21
-93.500000000000057
 31
0.0
  0
LINE
  5
21E
  8
1
 62
     7
 10
99.999999999999872
 20
-92.500000000000057
 30
0.0
 11
97.699999999999918
 21
-92.500000000000057
 31
0.0
  0
LINE
  5
21F
  8
1
 62
     7
 10
99.999999999999872
 20
136.93566196490801
 30
0.0
 11
99.999999999999872
 21
-104.0
 31
0.0
  0
LINE
  5
220
  8
1
 62
     7
 10
97.699999999999918
 20
136.49999999999989
 30
0.0
 11
97.699999999999918
 21
-104.0
 31
0.0
  0
LINE
  5
221
  8
1
 62
     7
 10
97.699999999999918
 20
-136.5
 30
0.0
 11
94.799999999999955
 21
-136.5
 31
0.0
  0
LINE
  5
222
  8
1
 62
     7
 10
94.799999999999955
 20
-130.0
 30
0.0
 11
80.799999999999955
 21
-130.0
 31
0.0
  0
LINE
  5
223
  8
1
 62
     7
 10
94.799999999999955
 20
137.49999999999989
 30
0.0
 11
94.799999999999955
 21
-137.5
 31
0.0
  0
LINE
  5
224
  8
1
 62
     7
 10
94.799999999999955
 20
-137.5
 30
0.0
 11
97.0
 21
-137.5
 31
0.0
  0
LINE
  5
225
  8
1
 62
     7
 10
97.0
 20
-190.5
 30
0.0
 11
80.799999999999955
 21
-190.5
 31
0.0
  0
LINE
  5
226
  8
1
 62
     7
 10
99.999999999999872
 20
-116.0000000000001
 30
0.0
 11
99.999999999999872
 21
-188.0
 31
0.0
  0
LINE
  5
227
  8
1
 62
     7
 10
97.699999999999918
 20
-116.0000000000001
 30
0.0
 11
97.699999999999918
 21
-188.0
 31
0.0
  0
LINE
  5
228
  8
1
 62
     7
 10
97.0
 20
-137.5
 30
0.0
 11
97.0
 21
-190.5
 31
0.0
  0
LINE
  5
229
  8
1
 62
     7
 10
97.699999999999918
 20
-188.0
 30
0.0
 11
99.999999999999872
 21
-188.0
 31
0.0
  0
LINE
  5
22A
  8
1
 62
     7
 10
94.799999999999955
 20
-119.0000000000001
 30
0.0
 11
83.499999999999986
 21
-119.0000000000001
 31
0.0
  0
LINE
  5
22B
  8
1
 62
     7
 10
83.499999999999986
 20
-119.0000000000001
 30
0.0
 11
82.799999999999955
 21
-117.78756443470169
 31
0.0
  0
LINE
  5
22C
  8
1
 62
     7
 10
82.799999999999955
 20
-117.78756443470169
 30
0.0
 11
82.799999999999955
 21
-102.21243556529819
 31
0.0
  0
LINE
  5
22D
  8
1
 62
     7
 10
82.799999999999955
 20
-102.21243556529819
 30
0.0
 11
83.499999999999986
 21
-101.0000000000001
 31
0.0
  0
LINE
  5
22E
  8
1
 62
     7
 10
83.499999999999986
 20
-101.0000000000001
 30
0.0
 11
94.799999999999955
 21
-101.0000000000001
 31
0.0
  0
LINE
  5
22F
  8
1
 62
     7
 10
83.499999999999986
 20
-119.0000000000001
 30
0.0
 11
83.499999999999986
 21
-101.0000000000001
 31
0.0
  0
LINE
  5
230
  8
1
 62
     7
 10
94.799999999999955
 20
-116.0000000000001
 30
0.0
 11
118.59999999999989
 21
-116.0000000000001
 31
0.0
  0
LINE
  5
231
  8
1
 62
     7
 10
118.59999999999989
 20
-116.0000000000001
 30
0.0
 11
119.7999999999999
 21
-114.7999999999999
 31
0.0
  0
LINE
  5
232
  8
1
 62
     7
 10
119.7999999999999
 20
-114.7999999999999
 30
0.0
 11
119.7999999999999
 21
-105.2
 31
0.0
  0
LINE
  5
233
  8
1
 62
     7
 10
119.7999999999999
 20
-105.2
 30
0.0
 11
118.59999999999989
 21
-104.0
 31
0.0
  0
LINE
  5
234
  8
1
 62
     7
 10
118.59999999999989
 20
-104.0
 30
0.0
 11
94.799999999999955
 21
-104.0
 31
0.0
  0
LINE
  5
235
  8
1
 62
     7
 10
118.59999999999989
 20
-116.0000000000001
 30
0.0
 11
118.59999999999989
 21
-104.0
 31
0.0
  0
LINE
  5
236
  8
1
 62
     3
 10
119.7999999999999
 20
-114.7999999999999
 30
0.0
 11
97.378460969082624
 21
-114.7999999999999
 31
0.0
  0
LINE
  5
237
  8
1
 62
     3
 10
97.378460969082624
 20
-114.7999999999999
 30
0.0
 11
95.299999999999969
 21
-116.0000000000001
 31
0.0
  0
LINE
  5
238
  8
1
 62
     3
 10
119.7999999999999
 20
-105.2
 30
0.0
 11
97.378460969082624
 21
-105.2
 31
0.0
  0
LINE
  5
239
  8
1
 62
     3
 10
97.378460969082624
 20
-105.2
 30
0.0
 11
95.299999999999969
 21
-104.0
 31
0.0
  0
LINE
  5
23A
  8
1
 62
     3
 10
97.378460969082624
 20
-116.0000000000001
 30
0.0
 11
97.378460969082624
 21
-104.0
 31
0.0
  0
LINE
  5
23B
  8
1
 62
     3
 10
81.749615373197017
 20
-110.0
 30
0.0
 11
122.50401833603379
 21
-110.0
 31
0.0
  0
LINE
  5
23C
  8
1
 62
     7
 10
80.799999999999955
 20
190.49999999999989
 30
0.0
 11
80.799999999999955
 21
-190.5
 31
0.0
  0
LINE
  5
23D
  8
1
 62
     7
 10
384.61700750327873
 20
222.99999999999989
 30
0.0
 11
406.61713498752221
 21
222.99999999999989
 31
0.0
  0
LINE
  5
23E
  8
1
 62
     7
 10
410.61713498752221
 20
189.82716045129411
 30
0.0
 11
410.61713498752221
 21
218.99999999999989
 31
0.0
  0
LINE
  5
23F
  8
1
 62
     7
 10
380.61700750327873
 20
189.992677762395
 30
0.0
 11
380.61700750327873
 21
218.99999999999989
 31
0.0
  0
LINE
  5
240
  8
1
 62
     7
 10
-550.87553230489527
 20
-49.91107281520538
 30
0.0
 11
-550.87553230489527
 21
-53.73979485566354
 31
0.0
  0
LINE
  5
241
  8
1
 62
     7
 10
-582.87553230489527
 20
-49.91107281520538
 30
0.0
 11
-582.87553230489527
 21
-53.73979485566354
 31
0.0
  0
LINE
  5
242
  8
1
 62
     7
 10
-556.87553230489539
 20
-48.98979485566354
 30
0.0
 11
-556.87553230489539
 21
-56.73979485566354
 31
0.0
  0
LINE
  5
243
  8
1
 62
     7
 10
-556.87553230489539
 20
-56.73979485566354
 30
0.0
 11
-553.87553230489527
 21
-56.73979485566354
 31
0.0
  0
LINE
  5
244
  8
1
 62
     7
 10
-576.87553230489539
 20
-48.98979485566354
 30
0.0
 11
-576.87553230489539
 21
-56.73979485566354
 31
0.0
  0
LINE
  5
245
  8
1
 62
     7
 10
-576.87553230489539
 20
-56.73979485566354
 30
0.0
 11
-579.87553230489527
 21
-56.73979485566354
 31
0.0
  0
LINE
  5
246
  8
1
 62
     7
 10
14.799999999999949
 20
154.61087686753359
 30
0.0
 11
7.2999999999999536
 21
154.61087686753359
 31
0.0
  0
LINE
  5
247
  8
1
 62
     7
 10
7.2999999999999536
 20
154.61087686753359
 30
0.0
 11
6.7999999999999536
 21
155.47690227131801
 31
0.0
  0
LINE
  5
248
  8
1
 62
     7
 10
6.7999999999999536
 20
155.47690227131801
 30
0.0
 11
6.7999999999999536
 21
166.74485146374909
 31
0.0
  0
LINE
  5
249
  8
1
 62
     7
 10
6.7999999999999536
 20
166.74485146374909
 30
0.0
 11
7.2999999999999536
 21
167.61087686753359
 31
0.0
  0
LINE
  5
24A
  8
1
 62
     7
 10
7.2999999999999536
 20
167.61087686753359
 30
0.0
 11
14.799999999999949
 21
167.61087686753359
 31
0.0
  0
LINE
  5
24B
  8
1
 62
     7
 10
14.799999999999949
 20
167.61087686753359
 30
0.0
 11
14.799999999999949
 21
154.61087686753359
 31
0.0
  0
LINE
  5
24C
  8
1
 62
     7
 10
7.2999999999999536
 20
154.61087686753359
 30
0.0
 11
7.2999999999999536
 21
167.61087686753359
 31
0.0
  0
LINE
  5
24D
  8
1
 62
     7
 10
-584.37553230489527
 20
164.46410161513779
 30
0.0
 11
-587.37553230489527
 21
162.7320508075689
 31
0.0
  0
LINE
  5
24E
  8
1
 62
     7
 10
-587.37553230489527
 20
162.7320508075689
 30
0.0
 11
-587.37553230489527
 21
159.2679491924311
 31
0.0
  0
LINE
  5
24F
  8
1
 62
     7
 10
-587.37553230489527
 20
159.2679491924311
 30
0.0
 11
-584.37553230489527
 21
157.53589838486229
 31
0.0
  0
LINE
  5
250
  8
1
 62
     7
 10
-584.37553230489527
 20
157.53589838486229
 30
0.0
 11
-581.37553230489539
 21
159.2679491924311
 31
0.0
  0
LINE
  5
251
  8
1
 62
     7
 10
-581.37553230489539
 20
159.2679491924311
 30
0.0
 11
-581.37553230489539
 21
162.7320508075689
 31
0.0
  0
LINE
  5
252
  8
1
 62
     7
 10
-581.37553230489539
 20
162.7320508075689
 30
0.0
 11
-584.37553230489527
 21
164.46410161513779
 31
0.0
  0
LINE
  5
253
  8
1
 62
     7
 10
-549.37553230489527
 20
164.46410161513779
 30
0.0
 11
-552.37553230489539
 21
162.7320508075689
 31
0.0
  0
LINE
  5
254
  8
1
 62
     7
 10
-552.37553230489539
 20
162.7320508075689
 30
0.0
 11
-552.37553230489539
 21
159.2679491924311
 31
0.0
  0
LINE
  5
255
  8
1
 62
     7
 10
-552.37553230489539
 20
159.2679491924311
 30
0.0
 11
-549.37553230489527
 21
157.53589838486229
 31
0.0
  0
LINE
  5
256
  8
1
 62
     7
 10
-549.37553230489527
 20
157.53589838486229
 30
0.0
 11
-546.37553230489527
 21
159.2679491924311
 31
0.0
  0
LINE
  5
257
  8
1
 62
     7
 10
-546.37553230489527
 20
159.2679491924311
 30
0.0
 11
-546.37553230489527
 21
162.7320508075689
 31
0.0
  0
LINE
  5
258
  8
1
 62
     7
 10
-546.37553230489527
 20
162.7320508075689
 30
0.0
 11
-549.37553230489527
 21
164.46410161513779
 31
0.0
  0
LINE
  5
259
  8
1
 62
     7
 10
-236.7580486514986
 20
95.5
 30
0.0
 11
-235.09999999999991
 21
95.5
 31
0.0
  0
LINE
  5
25A
  8
1
 62
     7
 10
-234.80000000000001
 20
109.2
 30
0.0
 11
-234.80000000000001
 21
95.799999999999997
 31
0.0
  0
LINE
  5
25B
  8
1
 62
     7
 10
-236.7580486514986
 20
-109.5000000000001
 30
0.0
 11
-235.09999999999991
 21
-109.5000000000001
 31
0.0
  0
LINE
  5
25C
  8
1
 62
     7
 10
-234.80000000000001
 20
-95.800000000000026
 30
0.0
 11
-234.80000000000001
 21
-109.2
 31
0.0
  0
LINE
  5
25D
  8
1
 62
     7
 10
-236.7580486514986
 20
-95.500000000000057
 30
0.0
 11
-235.09999999999991
 21
-95.500000000000057
 31
0.0
  0
LINE
  5
25E
  8
1
 62
     7
 10
-250.0
 20
47.750000000000007
 30
0.0
 11
-248.0
 21
49.750000000000007
 31
0.0
  0
LINE
  5
25F
  8
1
 62
     7
 10
-203.0
 20
186.99999999999989
 30
0.0
 11
-200.0
 21
189.99999999999989
 31
0.0
  0
LINE
  5
260
  8
1
 62
     7
 10
-236.7580486514986
 20
95.5
 30
0.0
 11
-235.09999999999991
 21
95.5
 31
0.0
  0
LINE
  5
261
  8
1
 62
     7
 10
-234.80000000000001
 20
109.2
 30
0.0
 11
-234.80000000000001
 21
95.799999999999997
 31
0.0
  0
LINE
  5
262
  8
1
 62
     7
 10
-234.80000000000001
 20
110.25
 30
0.0
 11
-233.59999999999991
 21
110.25
 31
0.0
  0
LINE
  5
263
  8
1
 62
     7
 10
-234.80000000000001
 20
94.749999999999986
 30
0.0
 11
-234.80000000000001
 21
110.25
 31
0.0
  0
LINE
  5
264
  8
1
 62
     7
 10
-233.1999999999999
 20
94.749999999999986
 30
0.0
 11
-234.80000000000001
 21
94.749999999999986
 31
0.0
  0
LINE
  5
265
  8
1
 62
     3
 10
-260.0
 20
0.0
 30
0.0
 11
-250.0
 21
0.0
 31
0.0
  0
LINE
  5
266
  8
1
 62
     7
 10
-236.0
 20
50.0
 30
0.0
 11
-236.0
 21
49.750000000000007
 31
0.0
  0
LINE
  5
267
  8
1
 62
     7
 10
-233.0
 20
50.0
 30
0.0
 11
-236.0
 21
50.0
 31
0.0
  0
LINE
  5
268
  8
1
 62
     7
 10
-236.0
 20
49.750000000000007
 30
0.0
 11
-248.0
 21
49.750000000000007
 31
0.0
  0
LINE
  5
269
  8
1
 62
     7
 10
-170.0
 20
189.99999999999989
 30
0.0
 11
-200.0
 21
189.99999999999989
 31
0.0
  0
LINE
  5
26A
  8
1
 62
     7
 10
-227.0
 20
179.99999999999989
 30
0.0
 11
-203.0
 21
179.99999999999989
 31
0.0
  0
LINE
  5
26B
  8
1
 62
     7
 10
-200.0
 20
-190.0
 30
0.0
 11
-170.0
 21
-190.0
 31
0.0
  0
LINE
  5
26C
  8
1
 62
     7
 10
-248.0
 20
-49.749999999999993
 30
0.0
 11
-236.0
 21
-49.749999999999993
 31
0.0
  0
LINE
  5
26D
  8
1
 62
     7
 10
-250.0
 20
-47.749999999999993
 30
0.0
 11
-250.0
 21
47.750000000000007
 31
0.0
  0
LINE
  5
26E
  8
1
 62
     7
 10
-236.0
 20
-50.0
 30
0.0
 11
-233.0
 21
-50.0
 31
0.0
  0
LINE
  5
26F
  8
1
 62
     7
 10
-236.0
 20
-49.749999999999993
 30
0.0
 11
-236.0
 21
-50.0
 31
0.0
  0
LINE
  5
270
  8
1
 62
     7
 10
-234.80000000000001
 20
-94.750000000000057
 30
0.0
 11
-233.1999999999999
 21
-94.750000000000057
 31
0.0
  0
LINE
  5
271
  8
1
 62
     7
 10
-234.80000000000001
 20
-110.25
 30
0.0
 11
-234.80000000000001
 21
-94.750000000000057
 31
0.0
  0
LINE
  5
272
  8
1
 62
     7
 10
-233.1999999999999
 20
-110.25
 30
0.0
 11
-234.80000000000001
 21
-110.25
 31
0.0
  0
LINE
  5
273
  8
1
 62
     7
 10
-233.1999999999999
 20
-94.750000000000057
 30
0.0
 11
-233.1999999999999
 21
-110.25
 31
0.0
  0
LINE
  5
274
  8
1
 62
     7
 10
-235.09999999999991
 20
-109.5000000000001
 30
0.0
 11
-236.7580486514986
 21
-109.5000000000001
 31
0.0
  0
LINE
  5
275
  8
1
 62
     7
 10
-234.80000000000001
 20
-95.800000000000026
 30
0.0
 11
-234.80000000000001
 21
-109.2
 31
0.0
  0
LINE
  5
276
  8
1
 62
     7
 10
-235.09999999999991
 20
-95.500000000000057
 30
0.0
 11
-236.7580486514986
 21
-95.500000000000057
 31
0.0
  0
LINE
  5
277
  8
1
 62
     7
 10
-170.0
 20
189.99999999999989
 30
0.0
 11
-170.0
 21
-190.0
 31
0.0
  0
LINE
  5
278
  8
1
 62
     7
 10
-200.0
 20
-190.0
 30
0.0
 11
-203.0
 21
-187.0
 31
0.0
  0
LINE
  5
279
  8
1
 62
     7
 10
-248.0
 20
-49.749999999999993
 30
0.0
 11
-250.0
 21
-47.749999999999993
 31
0.0
  0
LINE
  5
27A
  8
1
 62
     7
 10
-235.1999999999999
 20
222.99999999999989
 30
0.0
 11
-235.1999999999999
 21
190.2869589384367
 31
0.0
  0
LINE
  5
27B
  8
1
 62
     7
 10
-235.1999999999999
 20
222.99999999999989
 30
0.0
 11
-232.0
 21
222.99999999999989
 31
0.0
  0
LINE
  5
27C
  8
1
 62
     3
 10
-237.98692829416251
 20
209.99999999999989
 30
0.0
 11
-229.53145964810651
 21
209.99999999999989
 31
0.0
  0
LINE
  5
27D
  8
1
 62
     7
 10
-235.1999999999999
 20
147.99999999999989
 30
0.0
 11
-232.0
 21
147.99999999999989
 31
0.0
  0
LINE
  5
27E
  8
1
 62
     7
 10
-169.1999999999999
 20
190.49999999999989
 30
0.0
 11
-153.0
 21
190.49999999999989
 31
0.0
  0
LINE
  5
27F
  8
1
 62
     7
 10
-152.3000000000001
 20
136.49999999999989
 30
0.0
 11
-153.0
 21
144.50103661193211
 31
0.0
  0
LINE
  5
280
  8
1
 62
     7
 10
-150.02932985670921
 20
136.93566196490801
 30
0.0
 11
-150.76367553317201
 21
145.32927145518241
 31
0.0
  0
LINE
  5
281
  8
1
 62
     7
 10
-153.0
 20
187.99999999999989
 30
0.0
 11
-150.6999999999999
 21
187.99999999999989
 31
0.0
  0
LINE
  5
282
  8
1
 62
     7
 10
-150.6999999999999
 20
187.99999999999989
 30
0.0
 11
-150.6999999999999
 21
145.32927145518241
 31
0.0
  0
LINE
  5
283
  8
1
 62
     7
 10
-150.6999999999999
 20
178.99999999999989
 30
0.0
 11
-148.6999999999999
 21
178.99999999999989
 31
0.0
  0
LINE
  5
284
  8
1
 62
     7
 10
-148.6999999999999
 20
178.99999999999989
 30
0.0
 11
-148.6999999999999
 21
161.0
 31
0.0
  0
LINE
  5
285
  8
1
 62
     7
 10
-148.6999999999999
 20
161.0
 30
0.0
 11
-150.6999999999999
 21
161.0
 31
0.0
  0
LINE
  5
286
  8
1
 62
     7
 10
-148.6999999999999
 20
177.99999999999989
 30
0.0
 11
-139.30000000000001
 21
177.99999999999989
 31
0.0
  0
LINE
  5
287
  8
1
 62
     7
 10
-139.30000000000001
 20
177.99999999999989
 30
0.0
 11
-138.69999999999999
 21
176.96076951545859
 31
0.0
  0
LINE
  5
288
  8
1
 62
     7
 10
-138.69999999999999
 20
176.96076951545859
 30
0.0
 11
-138.69999999999999
 21
163.03923048454129
 31
0.0
  0
LINE
  5
289
  8
1
 62
     7
 10
-138.69999999999999
 20
163.03923048454129
 30
0.0
 11
-139.30000000000001
 21
162.0
 31
0.0
  0
LINE
  5
28A
  8
1
 62
     7
 10
-139.30000000000001
 20
162.0
 30
0.0
 11
-148.6999999999999
 21
162.0
 31
0.0
  0
LINE
  5
28B
  8
1
 62
     7
 10
-139.30000000000001
 20
177.99999999999989
 30
0.0
 11
-139.30000000000001
 21
162.0
 31
0.0
  0
LINE
  5
28C
  8
1
 62
     7
 10
-152.3000000000001
 20
136.49999999999989
 30
0.0
 11
-152.3000000000001
 21
-188.0
 31
0.0
  0
LINE
  5
28D
  8
1
 62
     7
 10
-153.0
 20
-190.5
 30
0.0
 11
-169.1999999999999
 21
-190.5
 31
0.0
  0
LINE
  5
28E
  8
1
 62
     7
 10
-152.3000000000001
 20
-188.0
 30
0.0
 11
-150.02932985670921
 21
-188.0
 31
0.0
  0
LINE
  5
28F
  8
1
 62
     7
 10
-131.40000000000001
 20
-116.0000000000001
 30
0.0
 11
-130.1999999999999
 21
-114.7999999999999
 31
0.0
  0
LINE
  5
290
  8
1
 62
     7
 10
-130.1999999999999
 20
-114.7999999999999
 30
0.0
 11
-130.1999999999999
 21
-105.2
 31
0.0
  0
LINE
  5
291
  8
1
 62
     7
 10
-130.1999999999999
 20
-105.2
 30
0.0
 11
-131.40000000000001
 21
-104.0
 31
0.0
  0
LINE
  5
292
  8
1
 62
     7
 10
-131.40000000000001
 20
-104.0
 30
0.0
 11
-150.02932985670921
 21
-104.0
 31
0.0
  0
LINE
  5
293
  8
1
 62
     7
 10
-131.40000000000001
 20
-116.0000000000001
 30
0.0
 11
-131.40000000000001
 21
-104.0
 31
0.0
  0
LINE
  5
294
  8
1
 62
     3
 10
-130.1999999999999
 20
-114.7999999999999
 30
0.0
 11
-150.02932985670921
 21
-114.7999999999999
 31
0.0
  0
LINE
  5
295
  8
1
 62
     3
 10
-130.1999999999999
 20
-105.2
 30
0.0
 11
-150.02932985670921
 21
-105.2
 31
0.0
  0
LINE
  5
296
  8
1
 62
     3
 10
-159.6372012273155
 20
-110.0
 30
0.0
 11
-127.49598166396611
 21
-110.0
 31
0.0
  0
LINE
  5
297
  8
1
 62
     7
 10
-169.1999999999999
 20
190.49999999999989
 30
0.0
 11
-169.1999999999999
 21
-190.0
 31
0.0
  0
LINE
  5
298
  8
1
 62
     7
 10
-235.1999999999999
 20
154.61087686753359
 30
0.0
 11
-238.0
 21
154.61087686753359
 31
0.0
  0
LINE
  5
299
  8
1
 62
     7
 10
-242.69999999999999
 20
154.61087686753359
 30
0.0
 11
-243.1999999999999
 21
155.47690227131801
 31
0.0
  0
LINE
  5
29A
  8
1
 62
     7
 10
-243.1999999999999
 20
155.47690227131801
 30
0.0
 11
-243.1999999999999
 21
166.74485146374909
 31
0.0
  0
LINE
  5
29B
  8
1
 62
     7
 10
-243.1999999999999
 20
166.74485146374909
 30
0.0
 11
-242.69999999999999
 21
167.61087686753359
 31
0.0
  0
LINE
  5
29C
  8
1
 62
     7
 10
-242.69999999999999
 20
167.61087686753359
 30
0.0
 11
-240.0
 21
167.61087686753359
 31
0.0
  0
LINE
  5
29D
  8
1
 62
     7
 10
-235.1999999999999
 20
167.61087686753359
 30
0.0
 11
-235.1999999999999
 21
154.61087686753359
 31
0.0
  0
LINE
  5
29E
  8
1
 62
     7
 10
-242.69999999999999
 20
154.61087686753359
 30
0.0
 11
-242.69999999999999
 21
167.61087686753359
 31
0.0
  0
LINE
  5
29F
  8
1
 62
     7
 10
-232.0
 20
190.80367890167679
 30
0.0
 11
-232.0
 21
-175.0
 31
0.0
  0
LINE
  5
2A0
  8
1
 62
     7
 10
-233.1999999999999
 20
-111.0
 30
0.0
 11
-233.1999999999999
 21
107.9878577532334
 31
0.0
  0
LINE
  5
2A1
  8
1
 62
     7
 10
-232.0
 20
-111.0
 30
0.0
 11
-233.1999999999999
 21
-111.0
 31
0.0
  0
LINE
  5
2A2
  8
1
 62
     7
 10
-203.0
 20
186.99999999999989
 30
0.0
 11
-203.0
 21
-187.0
 31
0.0
  0
LINE
  5
2A3
  8
1
 62
     7
 10
-203.0
 20
-180.0
 30
0.0
 11
-227.0
 21
-180.0
 31
0.0
  0
LINE
  5
2A4
  8
1
 62
     7
 10
-153.0
 20
136.49999999999989
 30
0.0
 11
-152.3000000000001
 21
136.49999999999989
 31
0.0
  0
LINE
  5
2A5
  8
1
 62
     7
 10
-150.02932985670921
 20
-116.0000000000001
 30
0.0
 11
-131.40000000000001
 21
-116.0000000000001
 31
0.0
  0
LINE
  5
2A6
  8
1
 62
     7
 10
-150.02932985670921
 20
136.93566196490801
 30
0.0
 11
-150.02932985670921
 21
-188.0
 31
0.0
  0
LINE
  5
2A7
  8
1
 62
     7
 10
-153.0
 20
-137.5
 30
0.0
 11
-152.3000000000001
 21
-137.5
 31
0.0
  0
LINE
  5
2A8
  8
1
 62
     7
 10
-153.0
 20
190.49999999999989
 30
0.0
 11
-153.0
 21
-190.5
 31
0.0
  0
LINE
  5
2A9
  8
1
 62
     3
 10
-150.02932985670921
 20
0.0
 30
0.0
 11
-140.0293298567093
 21
0.0
 31
0.0
  0
LINE
  5
2AA
  8
1
  6
DASHDOT
 62
     3
 10
-551.18227915781245
 20
0.0
 30
0.0
 11
-582.56878545197821
 21
0.0
 31
0.0
  0
LINE
  5
2AB
  8
1
  6
DASHDOT
 62
     3
 10
-566.87553230489527
 20
15.69325314708318
 30
0.0
 11
-566.87553230489527
 21
-15.69325314708316
 31
0.0
  0
LINE
  5
2AC
  8
1
  6
DASHDOT
 62
     3
 10
-555.85257938790232
 20
209.99999999999989
 30
0.0
 11
-578.00948522188833
 21
209.99999999999989
 31
0.0
  0
LINE
  5
2AD
  8
1
  6
DASHDOT
 62
     3
 10
-566.87553230489527
 20
221.13395291699311
 30
0.0
 11
-566.87553230489527
 21
198.86604708300669
 31
0.0
  0
LINE
  5
2AE
  8
1
 62
     3
 10
99.999999999999872
 20
0.0
 30
0.0
 11
110.0000000000289
 21
0.0
 31
0.0
  0
LINE
  5
2AF
  8
1
  6
DASHDOT
 62
     3
 10
414.02459659551357
 20
0.0
 30
0.0
 11
377.20954589528759
 21
0.0
 31
0.0
  0
LINE
  5
2B0
  8
1
  6
DASHDOT
 62
     3
 10
395.61707124540061
 20
18.407525350113019
 30
0.0
 11
395.61707124540061
 21
-18.407525350113008
 31
0.0
  0
LINE
  5
2B1
  8
1
  6
DASHDOT
 62
     3
 10
405.69700240957349
 20
209.99999999999989
 30
0.0
 11
385.53714008122762
 21
209.99999999999989
 31
0.0
  0
LINE
  5
2B2
  8
1
  6
DASHDOT
 62
     3
 10
395.61707124540061
 20
220.07993116417299
 30
0.0
 11
395.61707124540061
 21
199.9200688358269
 31
0.0
  0
LINE
  5
2B3
  8
1
 62
     7
 10
47.0
 20
-180.0
 30
0.0
 11
47.0
 21
-187.0
 31
0.0
  0
ARC
  5
2B4
  8
1
 62
     7
 10
-203.25000000000011
 20
130.1412967827109
 30
0.0
 40
49.999999999999893
 50
180.0
 51
195.4204643525174
  0
ARC
  5
2B5
  8
1
 62
     7
 10
-235.1999999999999
 20
110.63593342896441
 30
0.0
 40
0.2999999999999661
 50
339.50824758260683
 51
349.80906739483828
  0
ARC
  5
2B6
  8
1
 62
     7
 10
-236.18749217771909
 20
111.9359334289643
 30
0.0
 40
1.5999999999998491
 50
196.1913516386166
 51
239.16824074109741
  0
ARC
  5
2B7
  8
1
 62
     7
 10
14.899999999999981
 20
95.799999999999997
 30
0.0
 40
0.3000000000000114
 50
270.0
 51
0.0
  0
ARC
  5
2B8
  8
1
 62
     7
 10
14.899999999999981
 20
109.2
 30
0.0
 40
0.2999999999999492
 50
0.0
 51
90.0
  0
ARC
  5
2B9
  8
1
 62
     7
 10
13.24195134850128
 20
98.099999999999994
 30
0.0
 40
2.600000000000029
 50
196.60154959901979
 51
270.0
  0
ARC
  5
2BA
  8
1
 62
     7
 10
13.24195134850128
 20
106.90000000000001
 30
0.0
 40
2.5999999999998948
 50
90.0
 51
163.39845040098089
  0
ARC
  5
2BB
  8
1
 62
     7
 10
14.899999999999981
 20
-109.2
 30
0.0
 40
0.3000000000000966
 50
270.0
 51
0.0
  0
ARC
  5
2BC
  8
1
 62
     7
 10
14.899999999999981
 20
-95.800000000000026
 30
0.0
 40
0.2999999999999492
 50
0.0
 51
90.0
  0
ARC
  5
2BD
  8
1
 62
     7
 10
13.24195134850128
 20
-106.90000000000001
 30
0.0
 40
2.600000000000076
 50
196.60154959901851
 51
270.0
  0
ARC
  5
2BE
  8
1
 62
     7
 10
13.24195134850128
 20
-98.100000000000037
 30
0.0
 40
2.599999999999993
 50
90.0
 51
163.39845040097831
  0
ARC
  5
2BF
  8
1
 62
     7
 10
14.899999999999981
 20
95.799999999999997
 30
0.0
 40
0.3000000000000114
 50
270.0
 51
0.0
  0
ARC
  5
2C0
  8
1
 62
     7
 10
14.899999999999981
 20
109.2
 30
0.0
 40
0.2999999999999492
 50
0.0
 51
90.0
  0
ARC
  5
2C1
  8
1
 62
     7
 10
13.24195134850128
 20
98.099999999999994
 30
0.0
 40
2.600000000000029
 50
196.60154959901979
 51
270.0
  0
ARC
  5
2C2
  8
1
 62
     7
 10
13.24195134850128
 20
106.90000000000001
 30
0.0
 40
2.5999999999998948
 50
90.0
 51
163.39845040098089
  0
ARC
  5
2C3
  8
1
 62
     7
 10
24.799999999999951
 20
54.800000000000011
 30
0.0
 40
4.7999999999999501
 50
180.0
 51
270.0
  0
ARC
  5
2C4
  8
1
 62
     7
 10
49.200000000000053
 20
85.200000000000017
 30
0.0
 40
4.7999999999999474
 50
0.0
 51
90.0
  0
ARC
  5
2C5
  8
1
 62
     7
 10
24.799999999999951
 20
85.200000000000017
 30
0.0
 40
4.7999999999999821
 50
90.0
 51
180.0
  0
ARC
  5
2C6
  8
1
 62
     7
 10
49.200000000000053
 20
54.800000000000011
 30
0.0
 40
4.8000000000000043
 50
270.0
 51
0.0
  0
ARC
  5
2C7
  8
1
 62
     7
 10
49.200000000000053
 20
-54.800000000000033
 30
0.0
 40
4.7999999999999474
 50
0.0
 51
90.0
  0
ARC
  5
2C8
  8
1
 62
     7
 10
24.799999999999951
 20
-85.199999999999946
 30
0.0
 40
4.7999999999999501
 50
180.0
 51
270.0
  0
ARC
  5
2C9
  8
1
 62
     7
 10
49.200000000000053
 20
-85.199999999999946
 30
0.0
 40
4.8000000000001251
 50
270.0
 51
0.0
  0
ARC
  5
2CA
  8
1
 62
     7
 10
24.799999999999951
 20
-54.800000000000033
 30
0.0
 40
4.8000000000000389
 50
90.0
 51
180.0
  0
ARC
  5
2CB
  8
1
 62
     7
 10
13.24195134850128
 20
-106.90000000000001
 30
0.0
 40
2.600000000000076
 50
196.60154959901851
 51
270.0
  0
ARC
  5
2CC
  8
1
 62
     7
 10
13.24195134850128
 20
-98.100000000000037
 30
0.0
 40
2.599999999999993
 50
90.0
 51
163.39845040097831
  0
ARC
  5
2CD
  8
1
 62
     7
 10
14.899999999999981
 20
-109.2
 30
0.0
 40
0.3000000000000966
 50
270.0
 51
0.0
  0
ARC
  5
2CE
  8
1
 62
     7
 10
14.899999999999981
 20
-95.800000000000026
 30
0.0
 40
0.2999999999999492
 50
0.0
 51
90.0
  0
ARC
  5
2CF
  8
1
 62
     7
 10
384.61700750327873
 20
218.99999999999989
 30
0.0
 40
4.0
 50
90.0
 51
180.0
  0
ARC
  5
2D0
  8
1
 62
     7
 10
406.61713498752221
 20
218.99999999999989
 30
0.0
 40
4.0
 50
0.0
 51
90.0
  0
ARC
  5
2D1
  8
1
 62
     7
 10
-553.87553230489527
 20
-53.73979485566354
 30
0.0
 40
3.0
 50
270.0
 51
0.0
  0
ARC
  5
2D2
  8
1
 62
     7
 10
-579.87553230489527
 20
-53.73979485566354
 30
0.0
 40
3.0
 50
180.0
 51
270.0
  0
ARC
  5
2D3
  8
1
 62
     7
 10
-235.09999999999991
 20
95.799999999999997
 30
0.0
 40
0.3000000000000114
 50
270.0
 51
0.0
  0
ARC
  5
2D4
  8
1
 62
     7
 10
-235.09999999999991
 20
109.2
 30
0.0
 40
0.2999999999998977
 50
0.0
 51
90.0
  0
ARC
  5
2D5
  8
1
 62
     7
 10
-236.7580486514986
 20
98.099999999999994
 30
0.0
 40
2.6000000000000312
 50
196.60154959901979
 51
270.0
  0
ARC
  5
2D6
  8
1
 62
     7
 10
-235.09999999999991
 20
-109.2
 30
0.0
 40
0.3000000000000966
 50
270.0
 51
0.0
  0
ARC
  5
2D7
  8
1
 62
     7
 10
-235.09999999999991
 20
-95.800000000000026
 30
0.0
 40
0.2999999999998977
 50
0.0
 51
90.0
  0
ARC
  5
2D8
  8
1
 62
     7
 10
-236.7580486514986
 20
-106.90000000000001
 30
0.0
 40
2.6000000000001009
 50
196.60154959901831
 51
270.0
  0
ARC
  5
2D9
  8
1
 62
     7
 10
-236.7580486514986
 20
-98.100000000000037
 30
0.0
 40
2.599999999999993
 50
90.0
 51
163.39845040097839
  0
ARC
  5
2DA
  8
1
 62
     7
 10
-235.09999999999991
 20
95.799999999999997
 30
0.0
 40
0.3000000000000114
 50
270.0
 51
0.0
  0
ARC
  5
2DB
  8
1
 62
     7
 10
-235.09999999999991
 20
109.2
 30
0.0
 40
0.2999999999998977
 50
0.0
 51
90.0
  0
ARC
  5
2DC
  8
1
 62
     7
 10
-236.7580486514986
 20
98.099999999999994
 30
0.0
 40
2.6000000000000312
 50
196.60154959901979
 51
270.0
  0
ARC
  5
2DD
  8
1
 62
     7
 10
-236.7580486514986
 20
106.90000000000001
 30
0.0
 40
2.5999999999999721
 50
108.47140642108801
 51
163.39845040098101
  0
ARC
  5
2DE
  8
1
 62
     7
 10
-236.7580486514986
 20
-106.90000000000001
 30
0.0
 40
2.6000000000001009
 50
196.60154959901831
 51
270.0
  0
ARC
  5
2DF
  8
1
 62
     7
 10
-236.7580486514986
 20
-98.100000000000037
 30
0.0
 40
2.599999999999993
 50
90.0
 51
163.39845040097839
  0
ARC
  5
2E0
  8
1
 62
     7
 10
-235.09999999999991
 20
-109.2
 30
0.0
 40
0.3000000000000966
 50
270.0
 51
0.0
  0
ARC
  5
2E1
  8
1
 62
     7
 10
-235.09999999999991
 20
-95.800000000000026
 30
0.0
 40
0.2999999999998977
 50
0.0
 51
90.0
  0
ARC
  5
2E2
  8
1
 62
     7
 10
-566.87553230489527
 20
0.0
 30
0.0
 40
180.0
 50
38.105669548563107
 51
48.332383883167708
  0
ARC
  5
2E3
  8
1
 62
     7
 10
-566.87553230489527
 20
0.0
 30
0.0
 40
180.0
 50
49.763412686134302
 51
56.359350356197481
  0
ARC
  5
2E4
  8
1
 62
     7
 10
-566.87553230489527
 20
0.0
 30
0.0
 40
179.99999999999989
 50
58.135318260127413
 51
85.219787792233447
  0
ARC
  5
2E5
  8
1
 62
     7
 10
-566.87553230489527
 20
0.0
 30
0.0
 40
180.0
 50
94.780212207766596
 51
36.190257233180418
  0
ARC
  5
2E6
  8
1
 62
     7
 10
-493.38322619459439
 20
167.3969658133378
 30
0.0
 40
22.885438347090219
 50
10.99074856896053
 51
69.559910766550246
  0
ARC
  5
2E7
  8
1
 62
     7
 10
-493.38322619459439
 20
167.3969658133378
 30
0.0
 40
20.88543834709003
 50
10.99074856896063
 51
69.559910766548569
  0
ARC
  5
2E8
  8
1
 62
     7
 10
-493.38322619459439
 20
167.3969658133378
 30
0.0
 40
18.885438347090069
 50
10.99074856896061
 51
69.559910766549152
  0
ARC
  5
2E9
  8
1
 62
     7
 10
-504.46892207808543
 20
137.65214655969919
 30
0.0
 40
54.628893194552141
 50
69.559910766549649
 51
87.820117424877324
  0
ARC
  5
2EA
  8
1
 62
     7
 10
-504.46892207808543
 20
137.65214655969919
 30
0.0
 40
52.628893194552333
 50
69.559910766548967
 51
87.820117424877935
  0
ARC
  5
2EB
  8
1
 62
     7
 10
-503.1013612085743
 20
173.5796119090339
 30
0.0
 40
18.675409508552171
 50
87.820117424876159
 51
165.00000000000031
  0
ARC
  5
2EC
  8
1
 62
     7
 10
-503.1013612085743
 20
173.5796119090339
 30
0.0
 40
16.675409508552139
 50
87.820117424878063
 51
165.0000000000006
  0
ARC
  5
2ED
  8
1
 62
     7
 10
-795.25577605961132
 20
108.76946908108791
 30
0.0
 40
326.39839699288581
 50
7.6926670267265891
 51
10.99074856890698
  0
ARC
  5
2EE
  8
1
 62
     7
 10
-795.25577605961178
 20
108.7694690810889
 30
0.0
 40
328.39839699288621
 50
7.6926670267263786
 51
10.990748568906801
  0
ARC
  5
2EF
  8
1
 62
     7
 10
-795.25577605961132
 20
108.76946908108791
 30
0.0
 40
330.39839699288581
 50
7.6926670267265864
 51
10.990748568906961
  0
ARC
  5
2F0
  8
1
 62
     7
 10
-504.46892207808543
 20
137.65214655969919
 30
0.0
 40
50.628893194552099
 50
69.559910766549208
 51
87.820117424877623
  0
ARC
  5
2F1
  8
1
 62
     7
 10
-503.1013612085743
 20
173.5796119090339
 30
0.0
 40
14.67540950855205
 50
87.820117424876884
 51
165.0
  0
ARC
  5
2F2
  8
1
 62
     7
 10
-453.53257245745232
 20
132.4784516892467
 30
0.0
 40
4.8627211824794623
 50
242.24470239656199
 51
260.09565530298892
  0
ARC
  5
2F3
  8
1
 62
     7
 10
-452.71603505204729
 20
134.0300858419759
 30
0.0
 40
6.616089905349674
 50
205.4938931590541
 51
242.2447023965338
  0
ARC
  5
2F4
  8
1
 62
     7
 10
-446.80880085942039
 20
116.6726188957804
 30
0.0
 40
2.0399999999995182
 50
134.99999999998889
 51
225.0000000000131
  0
ARC
  5
2F5
  8
1
 62
     7
 10
-450.2029134091153
 20
120.0667314454757
 30
0.0
 40
2.0400000000003109
 50
224.9999999999927
 51
315.00000000000881
  0
ARC
  5
2F6
  8
1
 62
     7
 10
-453.59702595881129
 20
116.6726188957804
 30
0.0
 40
2.040000000000501
 50
315.00000000000421
 51
44.999999999989569
  0
ARC
  5
2F7
  8
1
 62
     7
 10
-450.2029134091153
 20
113.2785063460848
 30
0.0
 40
2.040000000000441
 50
44.999999999989569
 51
135.00000000000711
  0
ARC
  5
2F8
  8
1
 62
     7
 10
-452.92451157276821
 20
152.09664640675749
 30
0.0
 40
14.47878979867645
 50
259.25578242272331
 51
272.23257884706862
  0
ARC
  5
2F9
  8
1
 62
     7
 10
-452.14886725172943
 20
132.20097662601609
 30
0.0
 40
5.4319937152155626
 50
351.62423627811381
 51
92.232578847079964
  0
ARC
  5
2FA
  8
1
 62
     7
 10
-452.92451157276821
 20
152.09664640675749
 30
0.0
 40
16.478789798676551
 50
259.25587536292483
 51
272.2325788470697
  0
ARC
  5
2FB
  8
1
 62
     7
 10
-452.92451157277139
 20
152.09664640675771
 30
0.0
 40
18.478789798676271
 50
262.13751241128602
 51
272.2325788470813
  0
ARC
  5
2FC
  8
1
 62
     7
 10
-452.07095526795428
 20
130.2024947715114
 30
0.0
 40
5.4319937152154809
 50
336.11541938967861
 51
92.232578847081797
  0
ARC
  5
2FD
  8
1
 62
     7
 10
-452.07095526795428
 20
130.2024947715114
 30
0.0
 40
3.4319937152161191
 50
7.5785908879701154
 51
92.232578847081129
  0
ARC
  5
2FE
  8
1
 62
     7
 10
-427.95244150360128
 20
145.8384743343851
 30
0.0
 40
30.050987467037508
 50
205.49389315905751
 51
216.06188861198561
  0
ARC
  5
2FF
  8
1
 62
     7
 10
-445.46010769057119
 20
137.49003639355331
 30
0.0
 40
10.654730318652151
 50
182.69860776632069
 51
205.4938931590514
  0
ARC
  5
300
  8
1
 62
     7
 10
-455.13367516041319
 20
137.0340781132229
 30
0.0
 40
0.9704231391482681
 50
42.982368801021082
 51
182.69860776632831
  0
ARC
  5
301
  8
1
 62
     7
 10
-427.95244150360128
 20
145.8384743343851
 30
0.0
 40
32.050987467037181
 50
205.49389315905711
 51
216.06188861198621
  0
ARC
  5
302
  8
1
 62
     7
 10
-445.46010769057119
 20
137.49003639355331
 30
0.0
 40
12.65473031865197
 50
182.6986077663214
 51
205.49389315905179
  0
ARC
  5
303
  8
1
 62
     7
 10
-455.13367516041319
 20
137.0340781132229
 30
0.0
 40
2.9704231391482931
 50
42.982368801016179
 51
182.69860776632609
  0
ARC
  5
304
  8
1
 62
     7
 10
-458.39901805440041
 20
133.99097465895389
 30
0.0
 40
7.4339355283656827
 50
29.29066447732864
 51
42.982368801011368
  0
ARC
  5
305
  8
1
 62
     7
 10
-379.63181810895009
 20
166.2999497158406
 30
0.0
 40
77.702083032955812
 50
205.6552455481548
 51
206.6480538434536
  0
ARC
  5
306
  8
1
 62
     7
 10
-379.63181810892979
 20
166.29994971579941
 30
0.0
 40
79.70208303295523
 50
204.20061957541881
 51
206.64805384341969
  0
ARC
  5
307
  8
1
 62
     7
 10
-445.46010769057148
 20
137.4900363935545
 30
0.0
 40
14.654730318652501
 50
178.97091371509151
 51
205.4938931590568
  0
ARC
  5
308
  8
1
 62
     7
 10
-457.14534530043852
 20
137.89308902467181
 30
0.0
 40
2.9704231391485378
 50
45.272408365214488
 51
182.69860776632621
  0
ARC
  5
309
  8
1
 62
     7
 10
-379.63181810892831
 20
166.29994971579629
 30
0.0
 40
81.702083032956054
 50
203.52478637073031
 51
206.6480538434169
  0
ARC
  5
30A
  8
1
 62
     7
 10
-454.23177793400941
 20
148.85794771605561
 30
0.0
 40
10.986209871404141
 50
223.91095631575851
 51
239.94248940771379
  0
ARC
  5
30B
  8
1
 62
     7
 10
-454.23177793400811
 20
148.8579477160545
 30
0.0
 40
12.98620987140405
 50
223.9109563157493
 51
243.06960572588719
  0
ARC
  5
30C
  8
1
 62
     7
 10
-454.23177793400941
 20
148.85794771605561
 30
0.0
 40
14.98620987140405
 50
223.9109563157578
 51
247.77971904360211
  0
ARC
  5
30D
  8
1
 62
     7
 10
-450.78339115305641
 20
129.21311007481211
 30
0.0
 40
3.808200801068172
 50
216.0618886119893
 51
278.64018844694431
  0
ARC
  5
30E
  8
1
 62
     7
 10
-450.78339115305641
 20
129.21311007481211
 30
0.0
 40
1.808200801068429
 50
216.06188861198339
 51
245.726314425525
  0
ARC
  5
30F
  8
1
 62
     7
 10
-447.01183535202631
 20
155.80851336730291
 30
0.0
 40
25.008082638478651
 50
187.69266702672661
 51
223.91095631575689
  0
ARC
  5
310
  8
1
 62
     7
 10
-447.01183535202631
 20
155.80851336730291
 30
0.0
 40
23.008082638478388
 50
187.69266702672689
 51
223.91095631575621
  0
ARC
  5
311
  8
1
 62
     7
 10
-447.01183535202631
 20
155.80851336730291
 30
0.0
 40
21.008082638478701
 50
187.69266702672661
 51
223.91095631575729
  0
ARC
  5
312
  8
1
 62
     7
 10
-417.05970545412652
 20
147.5181810544224
 30
0.0
 40
35.826056655394041
 50
206.64805384341739
 51
214.34397677396259
  0
ARC
  5
313
  8
1
 62
     7
 10
-417.05970545412652
 20
147.5181810544224
 30
0.0
 40
37.826056655393948
 50
206.64805384341739
 51
214.9134633389443
  0
ARC
  5
314
  8
1
 62
     7
 10
-417.05970545412652
 20
147.5181810544224
 30
0.0
 40
39.826056655394773
 50
206.64805384341679
 51
215.42489197299781
  0
ARC
  5
315
  8
1
 62
     7
 10
-407.47651294293951
 20
154.0661756364205
 30
0.0
 40
47.43268457879828
 50
226.48485589433591
 51
230.3899513338223
  0
ARC
  5
316
  8
1
 62
     7
 10
-416.7034416662874
 20
142.9167167121357
 30
0.0
 40
32.960412885312977
 50
230.38995133382281
 51
271.00112090907692
  0
ARC
  5
317
  8
1
 62
     7
 10
-416.53526605892029
 20
133.2927324249074
 30
0.0
 40
23.33495930661228
 50
271.00112090907692
 51
305.22501070597087
  0
ARC
  5
318
  8
1
 62
     7
 10
-418.65124118790732
 20
136.28954027882921
 30
0.0
 40
27.003502349813338
 50
305.22501070597031
 51
339.12521725233671
  0
ARC
  5
319
  8
1
 62
     7
 10
-419.0344288619234
 20
136.43567221278889
 30
0.0
 40
27.41360884286189
 50
339.12521725214509
 51
0.0000000000892823
  0
ARC
  5
31A
  8
1
 62
     7
 10
-418.65124118790732
 20
136.28954027882921
 30
0.0
 40
29.003502349813349
 50
305.22501070597082
 51
339.12521725233682
  0
ARC
  5
31B
  8
1
 62
     7
 10
-416.53526605892029
 20
133.2927324249074
 30
0.0
 40
25.33495930661217
 50
271.00112090907788
 51
305.22501070597127
  0
ARC
  5
31C
  8
1
 62
     7
 10
-416.7034416662874
 20
142.9167167121357
 30
0.0
 40
34.960412885313069
 50
230.3899513338219
 51
271.0011209090776
  0
ARC
  5
31D
  8
1
 62
     7
 10
-407.47651294293951
 20
154.0661756364205
 30
0.0
 40
49.432684578798458
 50
226.42476737189671
 51
230.38995133382181
  0
ARC
  5
31E
  8
1
 62
     7
 10
-407.4765129429411
 20
154.06617563642189
 30
0.0
 40
51.431085256344652
 50
226.36939600829831
 51
230.3899513338246
  0
ARC
  5
31F
  8
1
 62
     7
 10
-416.7034416662874
 20
142.9167167121357
 30
0.0
 40
36.958813562859213
 50
230.38995133382281
 51
271.00112090907828
  0
ARC
  5
320
  8
1
 62
     7
 10
-416.53526605892029
 20
133.2927324249074
 30
0.0
 40
27.333359984158442
 50
271.00112090907902
 51
305.22501070597161
  0
ARC
  5
321
  8
1
 62
     7
 10
-418.65124118790732
 20
136.28954027882921
 30
0.0
 40
31.001903027359852
 50
305.22501070597087
 51
339.12521725233671
  0
ARC
  5
322
  8
1
 62
     7
 10
-419.0344288619234
 20
136.43567221278889
 30
0.0
 40
31.412009520408262
 50
339.12521725214509
 51
344.5795356474818
  0
ARC
  5
323
  8
1
 62
     7
 10
-419.03442886192357
 20
136.43567221278781
 30
0.0
 40
29.413608842862299
 50
339.12521725214782
 51
0.00000000009135
  0
ARC
  5
324
  8
1
 62
     7
 10
-216.0786475506026
 20
175.59925063253499
 30
0.0
 40
24.111302220604461
 50
141.58144301806709
 51
172.80331966084191
  0
ARC
  5
325
  8
1
 62
     7
 10
-215.9813485845427
 20
175.52208109931601
 30
0.0
 40
22.235488474487809
 50
141.5814430180674
 51
171.99180553166801
  0
ARC
  5
326
  8
1
 62
     7
 10
-224.87903877908499
 20
182.5789967772989
 30
0.0
 40
12.87903877908499
 50
0.0
 51
141.58144301806709
  0
ARC
  5
327
  8
1
 62
     7
 10
-224.87903877908499
 20
182.5789967772989
 30
0.0
 40
10.87903877908499
 50
0.0
 51
141.58144301806749
  0
ARC
  5
328
  8
1
 62
     7
 10
-243.35085741342471
 20
112.8720784585697
 30
0.0
 40
6.750860776110378
 50
195.42046435251751
 51
0.0
  0
ARC
  5
329
  8
1
 62
     7
 10
-243.35085741342471
 20
112.8720784585697
 30
0.0
 40
8.7508607761103825
 50
195.420464352517
 51
0.0
  0
ARC
  5
32A
  8
1
 62
     7
 10
-225.04021788143001
 20
136.76559572556971
 30
0.0
 40
14.302546835188521
 50
212.45689583909791
 51
224.00010331882481
  0
ARC
  5
32B
  8
1
 62
     7
 10
-226.39648080068281
 20
132.58832889302531
 30
0.0
 40
12.255878865437991
 50
203.65520854483509
 51
212.61627641761891
  0
ARC
  5
32C
  8
1
 62
     7
 10
-233.76742023791229
 20
122.6501531556564
 30
0.0
 40
4.7325797620868864
 50
130.96625686798001
 51
143.9562157561906
  0
ARC
  5
32D
  8
1
 62
     7
 10
-233.76742023789129
 20
124.65018983897809
 30
0.0
 40
4.7325797621090784
 50
142.9796549151184
 51
177.3278420787631
  0
ARC
  5
32E
  8
1
 62
     7
 10
-224.38385265082761
 20
138.95180490828361
 30
0.0
 40
18.441734698398481
 50
214.14177525587149
 51
222.04458255356329
  0
ARC
  5
32F
  8
1
 62
     7
 10
-230.73852378721941
 20
136.64260857778419
 30
0.0
 40
10.763778051834899
 50
192.9624009495875
 51
194.88204367507461
  0
ARC
  5
330
  8
1
 62
     7
 10
-211.7052633373645
 20
139.02362911012591
 30
0.0
 40
28.29473666263538
 50
180.0
 51
183.2719893871668
  0
ARC
  5
331
  8
1
 62
     7
 10
-221.489924199662
 20
139.02362911012591
 30
0.0
 40
18.51007580033799
 50
180.0
 51
184.95835269917509
  0
ARC
  5
332
  8
1
 62
     7
 10
-221.489924199662
 20
139.02362911012591
 30
0.0
 40
16.51007580033799
 50
180.0
 51
183.9634817935806
  0
ARC
  5
333
  8
1
 62
     7
 10
-238.30234072826059
 20
134.9015911935565
 30
0.0
 40
3.0021758815503481
 50
92.497835593472416
 51
192.9624009495561
  0
ARC
  5
334
  8
1
 62
     7
 10
-238.30833461128631
 20
135.03899279319651
 30
0.0
 40
2.8646436081840161
 50
41.090517617749718
 51
92.497835593475415
  0
ARC
  5
335
  8
1
 62
     7
 10
-247.21289959532999
 20
127.2736404652974
 30
0.0
 40
14.67954836156497
 50
25.571216651863669
 51
41.090517617748468
  0
ARC
  5
336
  8
1
 62
     7
 10
-237.25136751691139
 20
130.6558078264394
 30
0.0
 40
3.8678507098933061
 50
349.48207125228481
 51
352.8983155427166
  0
ARC
  5
337
  8
1
 62
     7
 10
-239.5469629714529
 20
130.9418078916041
 30
0.0
 40
6.1811934273015536
 50
352.89831554267909
 51
25.57121665186385
  0
ARC
  5
338
  8
1
 62
     7
 10
-230.7385237872181
 20
134.64260857777859
 30
0.0
 40
10.76377805183491
 50
192.96240094955701
 51
214.14177525587181
  0
ARC
  5
339
  8
1
 62
     7
 10
-238.30234072826059
 20
132.9015911935565
 30
0.0
 40
3.0021758815503481
 50
92.497835593472416
 51
192.96240094955641
  0
ARC
  5
33A
  8
1
 62
     7
 10
-238.30833461128631
 20
133.03899279319651
 30
0.0
 40
2.8646436081840161
 50
41.090517617749718
 51
92.497835593475415
  0
ARC
  5
33B
  8
1
 62
     7
 10
-247.21289959532999
 20
125.2736404652974
 30
0.0
 40
14.67954836156497
 50
25.571216651863669
 51
41.090517617748468
  0
ARC
  5
33C
  8
1
 62
     7
 10
-239.5469629714529
 20
128.94180789160399
 30
0.0
 40
6.1811934273015536
 50
352.89831554267909
 51
25.57121665186385
  0
ARC
  5
33D
  8
1
 62
     7
 10
-237.25136751691099
 20
128.6558078264421
 30
0.0
 40
3.8678507098931929
 50
347.39074312849402
 51
352.89831554267778
  0
ARC
  5
33E
  8
1
 62
     7
 10
-238.30234072826059
 20
132.9015911935565
 30
0.0
 40
1.002175881550297
 50
92.497835593468807
 51
192.9624009495551
  0
ARC
  5
33F
  8
1
 62
     7
 10
-238.30833461128631
 20
133.03899279319651
 30
0.0
 40
0.8646436081838462
 50
41.090517617748517
 51
92.497835593478229
  0
ARC
  5
340
  8
1
 62
     7
 10
-247.21289959532999
 20
125.2736404652974
 30
0.0
 40
12.67954836156496
 50
25.599357694733438
 51
41.090517617748212
  0
ARC
  5
341
  8
1
 62
     7
 10
-211.7052633373645
 20
139.02362911012591
 30
0.0
 40
28.294736662635412
 50
192.96240094955741
 51
203.65520854483549
  0
ARC
  5
342
  8
1
 62
     7
 10
-233.0
 20
126.10728343293739
 30
0.0
 40
1.0
 50
0.0
 51
53.24709128646802
  0
ARC
  5
343
  8
1
 62
     7
 10
-225.04021788143001
 20
136.76559572556971
 30
0.0
 40
12.302546835188529
 50
212.4568958390978
 51
233.24709128647001
  0
ARC
  5
344
  8
1
 62
     7
 10
-221.489924199662
 20
139.02362911012591
 30
0.0
 40
16.510075800338111
 50
206.1643009053281
 51
212.4568958390978
  0
ARC
  5
345
  8
1
 62
     7
 10
-221.489924199662
 20
139.02362911012591
 30
0.0
 40
18.51007580033804
 50
197.52369508549879
 51
212.45689583909791
  0
ARC
  5
346
  8
1
 62
     7
 10
-226.19999999999999
 20
114.8359334289644
 30
0.0
 40
12.000000000000011
 50
173.87169304445229
 51
196.19135163861679
  0
ARC
  5
347
  8
1
 62
     7
 10
27.99999999999989
 20
102.4999999999999
 30
0.0
 40
18.000000000000011
 50
163.3984504009795
 51
196.60154959902019
  0
ARC
  5
348
  8
1
 62
     7
 10
27.99999999999989
 20
-102.5000000000001
 30
0.0
 40
18.000000000000039
 50
163.39845040097941
 51
196.60154959901971
  0
ARC
  5
349
  8
1
 62
     7
 10
-460.52553230489548
 20
-3.8499999999999792
 30
0.0
 40
3.2725000000000359
 50
90.0
 51
180.0
  0
ARC
  5
34A
  8
1
 62
     7
 10
-460.52553230489548
 20
3.8500000000000649
 30
0.0
 40
3.2725000000000359
 50
180.0
 51
270.0
  0
ARC
  5
34B
  8
1
 62
     7
 10
-468.22553230489552
 20
3.8500000000000649
 30
0.0
 40
3.2725000000000279
 50
270.0
 51
0.0
  0
ARC
  5
34C
  8
1
 62
     7
 10
-468.22553230489552
 20
-3.8499999999999792
 30
0.0
 40
3.2725000000000359
 50
0.0
 51
90.0
  0
ARC
  5
34D
  8
1
 62
     7
 10
-570.72553230489552
 20
-106.34999999999989
 30
0.0
 40
3.2725000000000359
 50
0.0
 51
90.0
  0
ARC
  5
34E
  8
1
 62
     7
 10
-563.02553230489536
 20
-106.34999999999989
 30
0.0
 40
3.2724999999998929
 50
90.0
 51
180.0
  0
ARC
  5
34F
  8
1
 62
     7
 10
-563.02553230489536
 20
-98.649999999999963
 30
0.0
 40
3.2725000000000359
 50
180.0
 51
270.0
  0
ARC
  5
350
  8
1
 62
     7
 10
-570.72553230489552
 20
-98.649999999999963
 30
0.0
 40
3.272500000000051
 50
270.0
 51
0.0
  0
ARC
  5
351
  8
1
 62
     7
 10
-673.22553230489552
 20
3.8500000000000929
 30
0.0
 40
3.272500000000043
 50
270.0
 51
0.0
  0
ARC
  5
352
  8
1
 62
     7
 10
-673.22553230489552
 20
-3.8499999999999441
 30
0.0
 40
3.2725000000000359
 50
0.0
 51
90.0
  0
ARC
  5
353
  8
1
 62
     7
 10
-665.52553230489548
 20
-3.8499999999999441
 30
0.0
 40
3.2725000000000288
 50
90.0
 51
180.0
  0
ARC
  5
354
  8
1
 62
     7
 10
-665.52553230489548
 20
3.8500000000000929
 30
0.0
 40
3.2725000000000359
 50
180.0
 51
270.0
  0
ARC
  5
355
  8
1
 62
     7
 10
-563.02553230489536
 20
98.650000000000077
 30
0.0
 40
3.272499999999936
 50
90.0
 51
180.0
  0
ARC
  5
356
  8
1
 62
     7
 10
-570.72553230489552
 20
98.650000000000077
 30
0.0
 40
3.2725000000000359
 50
0.0
 51
90.0
  0
ARC
  5
357
  8
1
 62
     7
 10
-570.72553230489552
 20
106.34999999999989
 30
0.0
 40
3.2724999999999929
 50
270.0
 51
0.0
  0
ARC
  5
358
  8
1
 62
     7
 10
-563.02553230489536
 20
106.34999999999989
 30
0.0
 40
3.2725000000000359
 50
180.0
 51
270.0
  0
ARC
  5
359
  8
1
 62
     7
 10
-566.76446856277335
 20
209.99999999999989
 30
0.0
 40
6.5
 50
270.0
 51
90.0
  0
ARC
  5
35A
  8
1
 62
     7
 10
-546.76446856277335
 20
163.0
 30
0.0
 40
5.0
 50
0.0
 51
90.0
  0
ARC
  5
35B
  8
1
 62
     7
 10
-546.81996856277351
 20
173.05549999999999
 30
0.0
 40
5.0558046342792347
 50
180.62897597167651
 51
270.62897597167711
  0
ARC
  5
35C
  8
1
 62
     7
 10
-556.81996856277419
 20
218.05549999999999
 30
0.0
 40
4.9448114726458083
 50
359.3569052026217
 51
89.356905202610491
  0
ARC
  5
35D
  8
1
 62
     7
 10
-576.93109604701749
 20
218.05549999999999
 30
0.0
 40
4.9448114726447256
 50
90.643094797376506
 51
180.64309479737841
  0
ARC
  5
35E
  8
1
 62
     7
 10
-586.93109604701738
 20
173.05549999999999
 30
0.0
 40
5.0558046342794034
 50
269.37102402832539
 51
359.37102402832352
  0
ARC
  5
35F
  8
1
 62
     7
 10
-586.98659604701731
 20
163.0
 30
0.0
 40
5.0
 50
90.0
 51
180.0
  0
ARC
  5
360
  8
1
 62
     7
 10
-566.98659604701731
 20
209.99999999999989
 30
0.0
 40
6.5
 50
90.0
 51
270.0
  0
ARC
  5
361
  8
1
 62
     7
 10
27.99999999999989
 20
102.4999999999999
 30
0.0
 40
18.000000000000011
 50
163.3984504009795
 51
196.60154959902019
  0
ARC
  5
362
  8
1
 62
     7
 10
337.91270160583309
 20
131.92602761377819
 30
0.0
 40
11.00600346732775
 50
113.6245411827895
 51
291.05225562146109
  0
ARC
  5
363
  8
1
 62
     7
 10
395.61707124540061
 20
0.0000000000000355
 30
0.0
 40
133.0
 50
66.16266829388249
 51
113.8373317061176
  0
ARC
  5
364
  8
1
 62
     7
 10
395.61707124540061
 20
0.0000000000000355
 30
0.0
 40
154.99999999999949
 50
66.375458817210429
 51
113.6245411827895
  0
ARC
  5
365
  8
1
 62
     7
 10
453.32144088496773
 20
131.92602761377819
 30
0.0
 40
11.006003467327441
 50
248.94774437853931
 51
66.375458817209747
  0
ARC
  5
366
  8
1
 62
     7
 10
395.61707124540061
 20
0.0000000000000355
 30
0.0
 40
154.9999999999996
 50
210.3754588172103
 51
257.62454118278953
  0
ARC
  5
367
  8
1
 62
     7
 10
395.61707124540061
 20
0.0000000000000355
 30
0.0
 40
133.0
 50
138.1626682938824
 51
185.8373317061176
  0
ARC
  5
368
  8
1
 62
     7
 10
395.61707124540061
 20
0.0000000000000355
 30
0.0
 40
133.0
 50
282.1626682938824
 51
329.83733170611748
  0
ARC
  5
369
  8
1
 62
     7
 10
395.61707124540061
 20
0.0000000000000355
 30
0.0
 40
132.99999999999989
 50
354.16266829388252
 51
41.837331706117602
  0
ARC
  5
36A
  8
1
 62
     7
 10
252.31633214606239
 20
-14.112732231378709
 30
0.0
 40
11.00600346732776
 50
185.62454118278961
 51
3.0522556214611711
  0
ARC
  5
36B
  8
1
 62
     7
 10
364.75671350859591
 20
-140.6481758068964
 30
0.0
 40
11.006003467327741
 50
257.62454118278941
 51
75.052255621462692
  0
ARC
  5
36C
  8
1
 62
     7
 10
519.84506035841275
 20
-72.812620872953829
 30
0.0
 40
11.00600346732776
 50
329.62454118278862
 51
147.05225562146109
  0
ARC
  5
36D
  8
1
 62
     7
 10
503.2545486080985
 20
95.647501297450916
 30
0.0
 40
11.00600346732768
 50
41.624541182790097
 51
219.05225562146109
  0
ARC
  5
36E
  8
1
 62
     7
 10
287.97959388270249
 20
95.647501297450873
 30
0.0
 40
11.006003467327609
 50
320.94774437853857
 51
138.3754588172097
  0
ARC
  5
36F
  8
1
 62
     7
 10
271.38908213238841
 20
-72.812620872953829
 30
0.0
 40
11.006003467327639
 50
32.947744378539177
 51
210.3754588172105
  0
ARC
  5
370
  8
1
 62
     7
 10
426.47742898220508
 20
-140.64817580689629
 30
0.0
 40
11.00600346732749
 50
104.9477443785387
 51
282.3754588172107
  0
ARC
  5
371
  8
1
 62
     7
 10
538.91781034473877
 20
-14.112732231378651
 30
0.0
 40
11.00600346732767
 50
176.9477443785388
 51
354.37545881721059
  0
ARC
  5
372
  8
1
 62
     7
 10
395.61707124540061
 20
0.0000000000000355
 30
0.0
 40
154.99999999999989
 50
138.37545881721039
 51
185.62454118278961
  0
ARC
  5
373
  8
1
 62
     7
 10
395.61707124540061
 20
0.0000000000000355
 30
0.0
 40
154.99999999999989
 50
282.37545881721047
 51
329.62454118278959
  0
ARC
  5
374
  8
1
 62
     7
 10
395.61707124540061
 20
0.0000000000000355
 30
0.0
 40
154.9999999999998
 50
354.37545881721041
 51
41.624541182789642
  0
ARC
  5
375
  8
1
 62
     7
 10
395.61707124540061
 20
0.0000000000000355
 30
0.0
 40
132.99999999999989
 50
210.1626682938824
 51
257.83733170611742
  0
ARC
  5
376
  8
1
 62
     7
 10
395.61707124540061
 20
0.0000000000000355
 30
0.0
 40
35.000000000000028
 50
104.90059668783
 51
180.0
  0
ARC
  5
377
  8
1
 62
     7
 10
395.61707124540061
 20
0.0000000000000355
 30
0.0
 40
35.0
 50
180.0
 51
75.099403312170296
  0
ARC
  5
378
  8
1
 62
     7
 10
23.0
 20
175.0
 30
0.0
 40
4.9999999999998863
 50
90.0
 51
180.0
  0
ARC
  5
379
  8
1
 62
     7
 10
23.0
 20
-175.0
 30
0.0
 40
5.0
 50
180.0
 51
270.0
  0
ARC
  5
37A
  8
1
 62
     7
 10
27.99999999999989
 20
-102.5000000000001
 30
0.0
 40
18.000000000000039
 50
163.39845040097941
 51
196.60154959901971
  0
ARC
  5
37B
  8
1
 62
     7
 10
395.61707124540061
 20
0.0000000000000355
 30
0.0
 40
190.49999999999989
 50
180.0
 51
0.0
  0
ARC
  5
37C
  8
1
 62
     7
 10
395.61707124540061
 20
0.0000000000000355
 30
0.0
 40
190.49999999999969
 50
0.0
 51
180.0
  0
ARC
  5
37D
  8
1
 62
     7
 10
-566.87553230489527
 20
0.0
 30
0.0
 40
35.0
 50
104.9005966878299
 51
75.099403312170139
  0
ARC
  5
37E
  8
1
 62
     7
 10
395.61707124540061
 20
0.0000000000000355
 30
0.0
 40
137.5
 50
62.756570448847839
 51
117.2434295511521
  0
ARC
  5
37F
  8
1
 62
     7
 10
395.61707124540061
 20
0.0000000000000355
 30
0.0
 40
137.5
 50
134.7565704488479
 51
189.24342955115199
  0
ARC
  5
380
  8
1
 62
     7
 10
395.61707124540061
 20
0.0000000000000355
 30
0.0
 40
137.5
 50
206.75657044884781
 51
261.24342955115208
  0
ARC
  5
381
  8
1
 62
     7
 10
395.61707124540061
 20
0.0000000000000355
 30
0.0
 40
137.5
 50
278.75657044884781
 51
333.24342955115208
  0
ARC
  5
382
  8
1
 62
     7
 10
395.61707124540061
 20
0.0000000000000355
 30
0.0
 40
137.49999999999989
 50
350.75657044884781
 51
45.243429551152197
  0
ARC
  5
383
  8
1
 62
     7
 10
-566.87553230489527
 20
2.4750000000000161
 30
0.0
 40
54.775000000000013
 50
286.98396521778699
 51
253.0160347822129
  0
ARC
  5
384
  8
1
 62
     7
 10
-566.82003230489545
 20
-0.0601044127855701
 30
0.0
 40
190.05550950390901
 50
94.543541081298557
 51
179.98188040299851
  0
ARC
  5
385
  8
1
 62
     7
 10
-566.87553230489527
 20
0.0
 30
0.0
 40
190.0
 50
180.0
 51
34.163215109619479
  0
ARC
  5
386
  8
1
 62
     7
 10
-566.87553230489527
 20
0.0
 30
0.0
 40
190.00000000000031
 50
35.510339510005679
 51
59.03013119600152
  0
ARC
  5
387
  8
1
 62
     7
 10
-566.87553230489527
 20
0.0
 30
0.0
 40
189.99999999999989
 50
60.687163618775472
 51
74.049799658133637
  0
ARC
  5
388
  8
1
 62
     7
 10
-566.93103230489521
 20
-0.5811548764971662
 30
0.0
 40
190.57492699581221
 50
75.350331364706619
 51
85.468868388274643
  0
ARC
  5
389
  8
1
 62
     7
 10
-222.00000000000011
 20
102.4999999999999
 30
0.0
 40
18.000000000000011
 50
172.48542354441221
 51
196.60154959902019
  0
ARC
  5
38A
  8
1
 62
     7
 10
-222.00000000000011
 20
-102.5000000000001
 30
0.0
 40
18.00000000000006
 50
163.39845040097941
 51
196.60154959901971
  0
ARC
  5
38B
  8
1
 62
     7
 10
-227.0
 20
175.0
 30
0.0
 40
4.9999999999998863
 50
90.0
 51
180.0
  0
ARC
  5
38C
  8
1
 62
     7
 10
-227.0
 20
-175.0
 30
0.0
 40
5.0
 50
180.0
 51
270.0
  0
ARC
  5
38D
  8
1
 62
     7
 10
-222.00000000000011
 20
-102.5000000000001
 30
0.0
 40
18.00000000000006
 50
163.39845040097941
 51
196.60154959901971
  0
ARC
  5
38E
  8
1
 62
     3
 10
395.61707124540061
 20
0.0000000000000355
 30
0.0
 40
110.0
 50
84.711511547450215
 51
95.632145042750139
  0
ARC
  5
38F
  8
1
 62
     3
 10
395.61707124540061
 20
0.0000000000000355
 30
0.0
 40
110.0
 50
173.42560901529271
 51
180.0
  0
ARC
  5
390
  8
1
 62
     3
 10
395.61707124540061
 20
0.0000000000000355
 30
0.0
 40
109.9999999999998
 50
38.915105406718673
 51
50.30941129384707
  0
ARC
  5
391
  8
1
 62
     3
 10
395.61707124540061
 20
0.0000000000000355
 30
0.0
 40
110.0
 50
353.41055258336229
 51
5.7704144721644468
  0
ARC
  5
392
  8
1
 62
     3
 10
395.61707124540061
 20
0.0000000000000355
 30
0.0
 40
109.9999999999997
 50
309.97938417424751
 51
320.98523932910382
  0
ARC
  5
393
  8
1
 62
     3
 10
395.61707124540061
 20
0.0000000000000355
 30
0.0
 40
109.9999999999998
 50
263.37563634489362
 51
274.89019571551461
  0
ARC
  5
394
  8
1
 62
     3
 10
395.61707124540061
 20
0.0000000000000355
 30
0.0
 40
110.0
 50
219.25425606524371
 51
230.77423731503481
  0
ARC
  5
395
  8
1
 62
     3
 10
395.61707124540061
 20
0.0000000000000355
 30
0.0
 40
110.0
 50
180.0
 51
185.7942978828568
  0
ARC
  5
396
  8
1
 62
     3
 10
395.61707124540061
 20
0.0000000000000355
 30
0.0
 40
110.0
 50
128.69957264004231
 51
140.51166489617671
  0
CIRCLE
  5
397
  8
1
 62
     7
 10
37.0
 20
70.0
 30
0.0
 40
12.000000000000011
  0
CIRCLE
  5
398
  8
1
 62
     7
 10
37.0
 20
-70.000000000000028
 30
0.0
 40
12.000000000000011
  0
CIRCLE
  5
399
  8
1
 62
     7
 10
-450.2029134091153
 20
116.6726188957803
 30
0.0
 40
4.5000000000002842
  0
CIRCLE
  5
39A
  8
1
 62
     7
 10
-464.37553230489539
 20
0.0000000000000426
 30
0.0
 40
7.0
  0
CIRCLE
  5
39B
  8
1
 62
     7
 10
-566.87553230489527
 20
-102.4999999999999
 30
0.0
 40
7.0
  0
CIRCLE
  5
39C
  8
1
 62
     7
 10
-669.37553230489539
 20
0.0
 30
0.0
 40
6.9999999999998863
  0
CIRCLE
  5
39D
  8
1
 62
     7
 10
-566.87553230489527
 20
102.4999999999999
 30
0.0
 40
7.0
  0
CIRCLE
  5
39E
  8
1
 62
     7
 10
395.61707124540061
 20
0.0000000000000355
 30
0.0
 40
92.500000000000114
  0
CIRCLE
  5
39F
  8
1
 62
     7
 10
395.61707124540061
 20
0.0000000000000355
 30
0.0
 40
188.0
  0
CIRCLE
  5
3A0
  8
1
 62
     7
 10
407.61707124540061
 20
169.57594168985179
 30
0.0
 40
9.0
  0
CIRCLE
  5
3A1
  8
1
 62
     7
 10
407.61707124540061
 20
169.57594168985179
 30
0.0
 40
8.0
  0
CIRCLE
  5
3A2
  8
1
 62
     7
 10
383.61707124540061
 20
169.57594168985179
 30
0.0
 40
8.0
  0
CIRCLE
  5
3A3
  8
1
 62
     7
 10
383.61707124540061
 20
169.57594168985179
 30
0.0
 40
9.0
  0
CIRCLE
  5
3A4
  8
1
 62
     7
 10
230.63256296188069
 20
40.989169623757547
 30
0.0
 40
9.0000000000001137
  0
CIRCLE
  5
3A5
  8
1
 62
     7
 10
230.63256296188069
 20
40.989169623757547
 30
0.0
 40
8.0000000000001137
  0
CIRCLE
  5
3A6
  8
1
 62
     7
 10
238.0489708268795
 20
63.814526014841213
 30
0.0
 40
8.0
  0
CIRCLE
  5
3A7
  8
1
 62
     7
 10
238.0489708268795
 20
63.814526014841213
 30
0.0
 40
9.0
  0
CIRCLE
  5
3A8
  8
1
 62
     7
 10
305.65103750899681
 20
-144.2432416917346
 30
0.0
 40
9.0
  0
CIRCLE
  5
3A9
  8
1
 62
     7
 10
305.65103750899681
 20
-144.2432416917346
 30
0.0
 40
8.0000000000001137
  0
CIRCLE
  5
3AA
  8
1
 62
     7
 10
286.23462964399801
 20
-130.13639563671541
 30
0.0
 40
8.0
  0
CIRCLE
  5
3AB
  8
1
 62
     7
 10
286.23462964399801
 20
-130.13639563671541
 30
0.0
 40
9.0000000000001137
  0
CIRCLE
  5
3AC
  8
1
 62
     7
 10
504.9995128468031
 20
-130.13639563671541
 30
0.0
 40
9.0
  0
CIRCLE
  5
3AD
  8
1
 62
     7
 10
504.9995128468031
 20
-130.13639563671541
 30
0.0
 40
8.0000000000001137
  0
CIRCLE
  5
3AE
  8
1
 62
     7
 10
485.5831049818043
 20
-144.2432416917346
 30
0.0
 40
8.0
  0
CIRCLE
  5
3AF
  8
1
 62
     7
 10
485.5831049818043
 20
-144.2432416917346
 30
0.0
 40
9.0
  0
CIRCLE
  5
3B0
  8
1
 62
     7
 10
553.18517166392155
 20
63.814526014841178
 30
0.0
 40
9.0
  0
CIRCLE
  5
3B1
  8
1
 62
     7
 10
553.18517166392155
 20
63.814526014841178
 30
0.0
 40
8.0
  0
CIRCLE
  5
3B2
  8
1
 62
     7
 10
560.60157952892041
 20
40.989169623757519
 30
0.0
 40
8.0
  0
CIRCLE
  5
3B3
  8
1
 62
     7
 10
560.60157952892041
 20
40.989169623757519
 30
0.0
 40
9.0
  0
CIRCLE
  5
3B4
  8
1
 62
     7
 10
-566.87553230489527
 20
0.0
 30
0.0
 40
115.0
  0
CIRCLE
  5
3B5
  8
1
 62
     7
 10
-566.87553230489527
 20
0.0
 30
0.0
 40
111.0
  0
CIRCLE
  5
3B6
  8
1
 62
     7
 10
-566.87553230489527
 20
0.0
 30
0.0
 40
80.0
  0
CIRCLE
  5
3B7
  8
1
 62
     7
 10
473.39881717592061
 20
77.781745930520302
 30
0.0
 40
6.000000000000056
  0
CIRCLE
  5
3B8
  8
1
 62
     7
 10
473.39881717592061
 20
77.781745930520302
 30
0.0
 40
5.000000000000056
  0
CIRCLE
  5
3B9
  8
1
 62
     7
 10
395.61707124540038
 20
110.0
 30
0.0
 40
5.0
  0
CIRCLE
  5
3BA
  8
1
 62
     7
 10
395.61707124540038
 20
110.0
 30
0.0
 40
5.9999999999998863
  0
CIRCLE
  5
3BB
  8
1
 62
     7
 10
317.83532531488032
 20
77.781745930520273
 30
0.0
 40
5.000000000000056
  0
CIRCLE
  5
3BC
  8
1
 62
     7
 10
317.83532531488032
 20
77.781745930520273
 30
0.0
 40
6.0
  0
CIRCLE
  5
3BD
  8
1
 62
     7
 10
285.61707124540061
 20
0.000000000000049
 30
0.0
 40
5.0
  0
CIRCLE
  5
3BE
  8
1
 62
     7
 10
285.61707124540061
 20
0.000000000000049
 30
0.0
 40
6.0
  0
CIRCLE
  5
3BF
  8
1
 62
     7
 10
317.83532531488032
 20
-77.78174593052016
 30
0.0
 40
5.0
  0
CIRCLE
  5
3C0
  8
1
 62
     7
 10
317.83532531488032
 20
-77.78174593052016
 30
0.0
 40
6.0000000000001128
  0
CIRCLE
  5
3C1
  8
1
 62
     7
 10
395.61707124540038
 20
-109.9999999999998
 30
0.0
 40
5.0000000000001128
  0
CIRCLE
  5
3C2
  8
1
 62
     7
 10
395.61707124540038
 20
-109.9999999999998
 30
0.0
 40
6.0
  0
CIRCLE
  5
3C3
  8
1
 62
     7
 10
473.39881717592061
 20
-77.78174593052016
 30
0.0
 40
5.0
  0
CIRCLE
  5
3C4
  8
1
 62
     7
 10
473.39881717592061
 20
-77.78174593052016
 30
0.0
 40
6.0
  0
CIRCLE
  5
3C5
  8
1
 62
     7
 10
505.61707124540038
 20
0.0000000000000213
 30
0.0
 40
5.0
  0
CIRCLE
  5
3C6
  8
1
 62
     7
 10
505.61707124540038
 20
0.0000000000000213
 30
0.0
 40
5.9999999999998863
  0
CIRCLE
  5
3C7
  8
1
 62
     7
 10
395.61707124540061
 20
0.0000000000000355
 30
0.0
 40
73.0
  0
CIRCLE
  5
3C8
  8
1
 62
     7
 10
395.61707124540061
 20
209.99999999999989
 30
0.0
 40
6.5
  0
CIRCLE
  5
3C9
  8
1
 62
     7
 10
-566.87553230489527
 20
0.0
 30
0.0
 40
50.0
  0
CIRCLE
  5
3CA
  8
1
 62
     7
 10
-553.87553230489527
 20
-52.86479485566354
 30
0.0
 40
1.5
  0
CIRCLE
  5
3CB
  8
1
 62
     7
 10
-579.87553230489527
 20
-52.86479485566354
 30
0.0
 40
1.5
  0
CIRCLE
  5
3CC
  8
1
 62
     7
 10
-584.37553230489527
 20
161.0
 30
0.0
 40
6.5
  0
CIRCLE
  5
3CD
  8
1
 62
     7
 10
-549.37553230489527
 20
161.0
 30
0.0
 40
6.5
  0
POLYLINE
  5
3CE
  8
1
 62
     7
 66
     1
 10
0.0
 20
0.0
 30
0.0
  0
VERTEX
  5
4BF
  8
1
 62
     7
 10
-234.39043440472139
 20
119.163383088663
 30
0.0
 42
-0.0230758756874795
  0
VERTEX
  5
4C0
  8
1
 62
     7
 10
-234.28712117223139
 20
119.2014178909194
 30
0.0
 42
-0.0238968072451057
  0
VERTEX
  5
4C1
  8
1
 62
     7
 10
-234.17398886145889
 20
119.2316325791423
 30
0.0
 42
-0.0268990003599522
  0
VERTEX
  5
4C2
  8
1
 62
     7
 10
-234.05499676370749
 20
119.25092826133741
 30
0.0
 42
-0.0320464469441021
  0
VERTEX
  5
4C3
  8
1
 62
     7
 10
-233.93410417027999
 20
119.2562060455097
 30
0.0
 42
-0.0394909086991836
  0
VERTEX
  5
4C4
  8
1
 62
     7
 10
-233.8152703724798
 20
119.2443670396645
 30
0.0
 42
-0.049007200722522
  0
VERTEX
  5
4C5
  8
1
 62
     7
 10
-233.70245466160989
 20
119.2123123518076
 30
0.0
 42
-0.0589810674554349
  0
VERTEX
  5
4C6
  8
1
 62
     7
 10
-233.59961632897381
 20
119.15694308994379
 30
0.0
 42
-0.0458391924863754
  0
VERTEX
  5
4C7
  8
1
 62
     7
 10
-233.55167534351361
 20
119.1167813932217
 30
0.0
 42
-0.0768870314551215
  0
VERTEX
  5
4C8
  8
1
 62
     7
 10
-233.51576838010669
 20
119.0673779760768
 30
0.0
 42
-0.107059266256553
  0
VERTEX
  5
4C9
  8
1
 62
     7
 10
-233.49999999999989
 20
119.00693842672371
 30
0.0
  0
SEQEND
  5
4CA
  8
1
 62
     7
  0
POLYLINE
  5
3DB
  8
1
 62
     7
 66
     1
 10
0.0
 20
0.0
 30
0.0
  0
VERTEX
  5
4CB
  8
1
 62
     7
 10
-235.5617376188861
 20
119.63271707448099
 30
0.0
 42
-0.0123804817582353
  0
VERTEX
  5
4CC
  8
1
 62
     7
 10
-235.2094711726694
 20
119.7498375951035
 30
0.0
 42
-0.0151896105162656
  0
VERTEX
  5
4CD
  8
1
 62
     7
 10
-234.80317456241951
 20
119.861378912962
 30
0.0
 42
-0.0193399498914588
  0
VERTEX
  5
4CE
  8
1
 62
     7
 10
-234.3620360439258
 20
119.95103010604539
 30
0.0
 42
-0.0254195250765367
  0
VERTEX
  5
4CF
  8
1
 62
     7
 10
-233.90524387297759
 20
120.00248025234249
 30
0.0
 42
-0.03433771219043
  0
VERTEX
  5
4D0
  8
1
 62
     7
 10
-233.4519863053647
 20
119.99941842984239
 30
0.0
 42
-0.047090337104037
  0
VERTEX
  5
4D1
  8
1
 62
     7
 10
-233.02145159687609
 20
119.92553371653391
 30
0.0
 42
-0.063401107660829
  0
VERTEX
  5
4D2
  8
1
 62
     7
 10
-232.63282800330151
 20
119.7645151904057
 30
0.0
 42
-0.0712863492063533
  0
VERTEX
  5
4D3
  8
1
 62
     7
 10
-232.3149565771044
 20
119.5115095023219
 30
0.0
 42
-0.0648860268001261
  0
VERTEX
  5
4D4
  8
1
 62
     7
 10
-232.08202297417259
 20
119.1872722644114
 30
0.0
  0
VERTEX
  5
4D5
  8
1
 62
     7
 10
-232.0
 20
119.00693842672371
 30
0.0
  0
SEQEND
  5
4D6
  8
1
 62
     7
  0
POLYLINE
  5
3E8
  8
1
 62
     7
 66
     1
 10
0.0
 20
0.0
 30
0.0
  0
VERTEX
  5
4D7
  8
1
 62
     7
 10
-237.35552302898111
 20
116.7654583633251
 30
0.0
 42
-0.0190570502522156
  0
VERTEX
  5
4D8
  8
1
 62
     7
 10
-237.4654896207573
 20
116.7933205356625
 30
0.0
 42
-0.0272792027610029
  0
VERTEX
  5
4D9
  8
1
 62
     7
 10
-237.55448988058239
 20
116.8251742624706
 30
0.0
 42
-0.0409696120482205
  0
VERTEX
  5
4DA
  8
1
 62
     7
 10
-237.62252380845609
 20
116.86101954374909
 30
0.0
 42
-0.0635806984926473
  0
VERTEX
  5
4DB
  8
1
 62
     7
 10
-237.66959140437851
 20
116.90085637949819
 30
0.0
 42
-0.0941938513147416
  0
VERTEX
  5
4DC
  8
1
 62
     7
 10
-237.69569266834981
 20
116.9446847697177
 30
0.0
 42
-0.1104407157913295
  0
VERTEX
  5
4DD
  8
1
 62
     7
 10
-237.70082760036951
 20
116.9925047144078
 30
0.0
 42
-0.0907080386157836
  0
VERTEX
  5
4DE
  8
1
 62
     7
 10
-237.68499620043809
 20
117.04431621356849
 30
0.0
 42
-0.0604330766312713
  0
VERTEX
  5
4DF
  8
1
 62
     7
 10
-237.64819846855551
 20
117.1001192671995
 30
0.0
 42
-0.0390024375534646
  0
VERTEX
  5
4E0
  8
1
 62
     7
 10
-237.59043440472161
 20
117.1599138753012
 30
0.0
  0
SEQEND
  5
4E1
  8
1
 62
     7
  0
POLYLINE
  5
3F4
  8
1
 62
     7
 66
     1
 10
0.0
 20
0.0
 30
0.0
  0
VERTEX
  5
4E2
  8
1
 62
     7
 10
-237.82110257823601
 20
116.0512637467552
 30
0.0
 42
-0.031990541285653
  0
VERTEX
  5
4E3
  8
1
 62
     7
 10
-237.99546874722299
 20
116.08040242627381
 30
0.0
 42
-0.0254330638706584
  0
VERTEX
  5
4E4
  8
1
 62
     7
 10
-238.18169038790629
 20
116.133212117159
 30
0.0
 42
-0.0226002506975668
  0
VERTEX
  5
4E5
  8
1
 62
     7
 10
-238.37230511987201
 20
116.2071803412867
 30
0.0
 42
-0.0222685428902203
  0
VERTEX
  5
4E6
  8
1
 62
     7
 10
-238.5598505627066
 20
116.2997946205334
 30
0.0
 42
-0.0241002710639188
  0
VERTEX
  5
4E7
  8
1
 62
     7
 10
-238.73686433599659
 20
116.4085424767749
 30
0.0
 42
-0.0283558836817898
  0
VERTEX
  5
4E8
  8
1
 62
     7
 10
-238.89588405932801
 20
116.5309114318874
 30
0.0
 42
-0.0358543011443359
  0
VERTEX
  5
4E9
  8
1
 62
     7
 10
-239.02944735228741
 20
116.6643890077472
 30
0.0
 42
-0.0478951698375263
  0
VERTEX
  5
4EA
  8
1
 62
     7
 10
-239.1300918344611
 20
116.80646272623039
 30
0.0
 42
-0.0652354211370489
  0
VERTEX
  5
4EB
  8
1
 62
     7
 10
-239.19035512543519
 20
116.9546201092129
 30
0.0
 42
-0.0839621391649488
  0
VERTEX
  5
4EC
  8
1
 62
     7
 10
-239.20277484479649
 20
117.10634867857109
 30
0.0
 42
-0.0912717759326972
  0
VERTEX
  5
4ED
  8
1
 62
     7
 10
-239.15988861213111
 20
117.2591359561808
 30
0.0
 42
-0.0794135208414615
  0
VERTEX
  5
4EE
  8
1
 62
     7
 10
-239.0542340470254
 20
117.4104694639187
 30
0.0
 42
-0.059400215545486
  0
VERTEX
  5
4EF
  8
1
 62
     7
 10
-238.8783487690655
 20
117.5578367236606
 30
0.0
  0
VERTEX
  5
4F0
  8
1
 62
     7
 10
-238.76173761888609
 20
117.6292478611193
 30
0.0
  0
SEQEND
  5
4F1
  8
1
 62
     7
  0
POLYLINE
  5
405
  8
1
 62
     7
 66
     1
 10
0.0
 20
0.0
 30
0.0
  0
VERTEX
  5
4F2
  8
1
 62
     7
 10
-235.5617376188861
 20
126.7072052973667
 30
0.0
 42
-0.0537145146923174
  0
VERTEX
  5
4F3
  8
1
 62
     7
 10
-235.0994377142049
 20
126.9210207782447
 30
0.0
 42
-0.0444501266185452
  0
VERTEX
  5
4F4
  8
1
 62
     7
 10
-234.60427890358071
 20
127.03967566460371
 30
0.0
 42
-0.0334186797927559
  0
VERTEX
  5
4F5
  8
1
 62
     7
 10
-234.08492297085519
 20
127.0813702556849
 30
0.0
 42
-0.0177289475077621
  0
VERTEX
  5
4F6
  8
1
 62
     7
 10
-233.62764228285229
 20
127.0692625374507
 30
0.0
 42
-0.025558953916961
  0
VERTEX
  5
4F7
  8
1
 62
     7
 10
-233.24886898604791
 20
127.0242731715895
 30
0.0
 42
-0.0373052171364555
  0
VERTEX
  5
4F8
  8
1
 62
     7
 10
-232.88831228173399
 20
126.93458019003791
 30
0.0
 42
-0.0523591421672196
  0
VERTEX
  5
4F9
  8
1
 62
     7
 10
-232.5619154092181
 20
126.78721825035861
 30
0.0
 42
-0.0683968630087051
  0
VERTEX
  5
4FA
  8
1
 62
     7
 10
-232.28562160780771
 20
126.5692220101147
 30
0.0
 42
-0.0776023774593935
  0
VERTEX
  5
4FB
  8
1
 62
     7
 10
-232.07537411681031
 20
126.2676261268693
 30
0.0
  0
VERTEX
  5
4FC
  8
1
 62
     7
 10
-232.0
 20
126.0814266496094
 30
0.0
  0
SEQEND
  5
4FD
  8
1
 62
     7
  0
POLYLINE
  5
412
  8
1
 62
     7
 66
     1
 10
0.0
 20
0.0
 30
0.0
  0
VERTEX
  5
4FE
  8
1
 62
     7
 10
345.4847525248739
 20
194.8237671765545
 30
0.0
 42
0.0390763219260329
  0
VERTEX
  5
4FF
  8
1
 62
     7
 10
345.18313934740308
 20
194.9745076808895
 30
0.0
 42
0.049621294344674
  0
VERTEX
  5
500
  8
1
 62
     7
 10
344.89507477212533
 20
195.0576300571129
 30
0.0
 42
0.0595700535786676
  0
VERTEX
  5
501
  8
1
 62
     7
 10
344.62055879904023
 20
195.0731343052249
 30
0.0
 42
0.0645567463318394
  0
VERTEX
  5
502
  8
1
 62
     7
 10
344.35959142814829
 20
195.0210204252254
 30
0.0
 42
0.0615009160033161
  0
VERTEX
  5
503
  8
1
 62
     7
 10
344.11217265944919
 20
194.90128841711461
 30
0.0
 42
0.0523625391373768
  0
VERTEX
  5
504
  8
1
 62
     7
 10
343.87830249294308
 20
194.71393828089211
 30
0.0
 42
0.0416542805659359
  0
VERTEX
  5
505
  8
1
 62
     7
 10
343.65798092863008
 20
194.4589700165582
 30
0.0
  0
VERTEX
  5
506
  8
1
 62
     7
 10
343.55290087229582
 20
194.30612908634939
 30
0.0
  0
SEQEND
  5
507
  8
1
 62
     7
  0
POLYLINE
  5
41D
  8
1
 62
     7
 66
     1
 10
0.0
 20
0.0
 30
0.0
  0
VERTEX
  5
508
  8
1
 62
     7
 10
341.62104921971758
 20
193.78849099614439
 30
0.0
 42
-0.0703303721379561
  0
VERTEX
  5
509
  8
1
 62
     7
 10
341.74624591333611
 20
194.12035938080629
 30
0.0
 42
-0.0884399814635571
  0
VERTEX
  5
50A
  8
1
 62
     7
 10
341.93545337468851
 20
194.34557716836389
 30
0.0
 42
-0.0872480244010634
  0
VERTEX
  5
50B
  8
1
 62
     7
 10
342.17597485383141
 20
194.4782027310616
 30
0.0
 42
-0.0679415468368598
  0
VERTEX
  5
50C
  8
1
 62
     7
 10
342.45511360082259
 20
194.53229444114311
 30
0.0
 42
-0.0472238781877814
  0
VERTEX
  5
50D
  8
1
 62
     7
 10
342.76017286571903
 20
194.52191067085249
 30
0.0
 42
-0.032227253888207
  0
VERTEX
  5
50E
  8
1
 62
     7
 10
343.07845589857789
 20
194.4611097924338
 30
0.0
 42
-0.022358338978162
  0
VERTEX
  5
50F
  8
1
 62
     7
 10
343.39726594945631
 20
194.36395017813109
 30
0.0
 42
-0.012469156359154
  0
VERTEX
  5
510
  8
1
 62
     7
 10
343.67800893462498
 20
194.25564639120481
 30
0.0
 42
-0.0000440801980557
  0
VERTEX
  5
511
  8
1
 62
     7
 10
343.91944712895162
 20
194.15441966005741
 30
0.0
 42
0.0147409629724668
  0
VERTEX
  5
512
  8
1
 62
     7
 10
344.15029323296687
 20
194.06539048738699
 30
0.0
 42
0.0332352562368507
  0
VERTEX
  5
513
  8
1
 62
     7
 10
344.3718814268293
 20
194.00361408873999
 30
0.0
 42
0.0561444864286401
  0
VERTEX
  5
514
  8
1
 62
     7
 10
344.58554589069581
 20
193.98414567966211
 30
0.0
 42
0.077222795301914
  0
VERTEX
  5
515
  8
1
 62
     7
 10
344.79262080472432
 20
194.02204047569921
 30
0.0
 42
0.0812393894944614
  0
VERTEX
  5
516
  8
1
 62
     7
 10
344.99444034907219
 20
194.13235369239729
 30
0.0
 42
0.0656780153342379
  0
VERTEX
  5
517
  8
1
 62
     7
 10
345.19233870389712
 20
194.3301405453023
 30
0.0
 42
0.0458387138609654
  0
VERTEX
  5
518
  8
1
 62
     7
 10
345.38765004935681
 20
194.6304562499601
 30
0.0
  0
VERTEX
  5
519
  8
1
 62
     7
 10
345.4847525248739
 20
194.8237671765545
 30
0.0
  0
SEQEND
  5
51A
  8
1
 62
     7
  0
ARC
  5
431
  8
1
 62
     7
 10
-238.1999733070669
 20
123.8756252169679
 30
0.0
 40
0.999999999999926
 50
122.0500291495873
 51
180.0
  0
TEXT
  5
433
  8
1
 62
     7
 10
-598.37553230489539
 20
385.88678159400979
 30
0.0
 40
18.0
  1
MMC 100
 41
0.9
  7
SIMPLEX
  0
ENDSEC
  0
EOF
