  0
SECTION
  2
HEADER
  9
$ACADVER
  1
AC1009
  9
$INSBASE
 10
0.0
 20
0.0
 30
0.0
  9
$EXTMIN
 10
-511.76491612576501
 20
-130.49999999999989
 30
0.0
  9
$EXTMAX
 10
440.61572209782139
 20
240.975349562627
 30
0.0
  9
$LIMMIN
 10
-511.76491612576501
 20
-130.49999999999989
  9
$LIMMAX
 10
440.61572209782139
 20
240.975349562627
  9
$ORTHOMODE
 70
     0
  9
$REGENMODE
 70
     1
  9
$FILLMODE
 70
     1
  9
$QTEXTMODE
 70
     0
  9
$MIRRTEXT
 70
     1
  9
$DRAGMODE
 70
     2
  9
$LTSCALE
 40
1.0
  9
$OSMODE
 70
    37
  9
$ATTMODE
 70
     1
  9
$TEXTSIZE
 40
3.5
  9
$TRACEWID
 40
0.5
  9
$TEXTSTYLE
  7
STANDARD
  9
$CLAYER
  8
0
  9
$CELTYPE
  6
BYLAYER
  9
$CECOLOR
 62
   256
  9
$DIMSCALE
 40
1.0
  9
$DIMASZ
 40
0.18
  9
$DIMEXO
 40
0.0625
  9
$DIMDLI
 40
0.38
  9
$DIMRND
 40
0.0
  9
$DIMDLE
 40
0.0
  9
$DIMEXE
 40
0.18
  9
$DIMTP
 40
0.0
  9
$DIMTM
 40
0.0
  9
$DIMTXT
 40
0.18
  9
$DIMCEN
 40
0.09
  9
$DIMTSZ
 40
0.0
  9
$DIMTOL
 70
     0
  9
$DIMLIM
 70
     0
  9
$DIMTIH
 70
     1
  9
$DIMTOH
 70
     1
  9
$DIMSE1
 70
     0
  9
$DIMSE2
 70
     0
  9
$DIMTAD
 70
     0
  9
$DIMZIN
 70
     0
  9
$DIMBLK
  1

  9
$DIMASO
 70
     1
  9
$DIMSHO
 70
     1
  9
$DIMPOST
  1

  9
$DIMAPOST
  1

  9
$DIMALT
 70
     0
  9
$DIMALTD
 70
     2
  9
$DIMALTF
 40
25.399999999999999
  9
$DIMLFAC
 40
1.0
  9
$DIMTOFL
 70
     0
  9
$DIMTVP
 40
0.0
  9
$DIMTIX
 70
     0
  9
$DIMSOXD
 70
     0
  9
$DIMSAH
 70
     0
  9
$DIMBLK1
  1

  9
$DIMBLK2
  1

  9
$DIMSTYLE
  2
STANDARD
  9
$DIMCLRD
 70
     0
  9
$DIMCLRE
 70
     0
  9
$DIMCLRT
 70
     0
  9
$DIMTFAC
 40
1.0
  9
$DIMGAP
 40
0.09
  9
$LUNITS
 70
     2
  9
$LUPREC
 70
     4
  9
$SKETCHINC
 40
0.1
  9
$FILLETRAD
 40
2.0
  9
$AUNITS
 70
     0
  9
$AUPREC
 70
     0
  9
$MENU
  1
ACAD
  9
$ELEVATION
 40
0.0
  9
$PELEVATION
 40
0.0
  9
$THICKNESS
 40
0.0
  9
$LIMCHECK
 70
     0
  9
$BLIPMODE
 70
     0
  9
$CHAMFERA
 40
0.0
  9
$CHAMFERB
 40
0.0
  9
$SKPOLY
 70
     0
  9
$TDCREATE
 40
2452094.895939583
  9
$TDUPDATE
 40
2452094.8970795139
  9
$TDINDWG
 40
0.001153125
  9
$TDUSRTIMER
 40
0.001153125
  9
$USRTIMER
 70
     1
  9
$ANGBASE
 50
0.0
  9
$ANGDIR
 70
     0
  9
$PDMODE
 70
     0
  9
$PDSIZE
 40
0.0
  9
$PLINEWID
 40
0.0
  9
$COORDS
 70
     1
  9
$SPLFRAME
 70
     0
  9
$SPLINETYPE
 70
     6
  9
$SPLINESEGS
 70
     8
  9
$ATTDIA
 70
     0
  9
$ATTREQ
 70
     1
  9
$HANDLING
 70
 10241
  9
$HANDSEED
  5
3A5
  9
$SURFTAB1
 70
     6
  9
$SURFTAB2
 70
     6
  9
$SURFTYPE
 70
     6
  9
$SURFU
 70
     6
  9
$SURFV
 70
     6
  9
$UCSNAME
  2

  9
$UCSORG
 10
0.0
 20
0.0
 30
0.0
  9
$UCSXDIR
 10
1.0
 20
0.0
 30
0.0
  9
$UCSYDIR
 10
0.0
 20
1.0
 30
0.0
  9
$PUCSNAME
  2

  9
$PUCSORG
 10
0.0
 20
0.0
 30
0.0
  9
$PUCSXDIR
 10
1.0
 20
0.0
 30
0.0
  9
$PUCSYDIR
 10
0.0
 20
1.0
 30
0.0
  9
$USERI1
 70
     0
  9
$USERI2
 70
     0
  9
$USERI3
 70
     0
  9
$USERI4
 70
     0
  9
$USERI5
 70
     0
  9
$USERR1
 40
0.0
  9
$USERR2
 40
0.0
  9
$USERR3
 40
0.0
  9
$USERR4
 40
0.0
  9
$USERR5
 40
0.0
  9
$WORLDVIEW
 70
     1
  9
$SHADEDGE
 70
     3
  9
$SHADEDIF
 70
    70
  9
$TILEMODE
 70
     1
  9
$MAXACTVP
 70
    64
  9
$PLIMCHECK
 70
     0
  9
$PEXTMIN
 10
1.0000000000000000E+020
 20
1.0000000000000000E+020
 30
1.0000000000000000E+020
  9
$PEXTMAX
 10
-1.0000000000000000E+020
 20
-1.0000000000000000E+020
 30
-1.0000000000000000E+020
  9
$PLIMMIN
 10
0.0
 20
0.0
  9
$PLIMMAX
 10
12.0
 20
9.0
  9
$UNITMODE
 70
     0
  9
$VISRETAIN
 70
     1
  9
$PLINEGEN
 70
     0
  9
$PSLTSCALE
 70
     1
  0
ENDSEC
  0
SECTION
  2
TABLES
  0
TABLE
  2
VPORT
 70
     2
  0
VPORT
  2
*ACTIVE
 70
     0
 10
0.0
 20
0.0
 11
1.0
 21
1.0
 12
-397.35968193858861
 22
216.8827887694662
 13
0.0
 23
0.0
 14
1.0
 24
1.0
 15
0.0
 25
0.0
 16
0.0
 26
0.0
 36
1.0
 17
0.0
 27
0.0
 37
0.0
 40
8.9999995682558378
 41
2.4144144144144142
 42
50.0
 43
0.0
 44
0.0
 50
0.0
 51
0.0
 71
     0
 72
   100
 73
     1
 74
     1
 75
     0
 76
     0
 77
     0
 78
     0
  0
ENDTAB
  0
TABLE
  2
LTYPE
 70
     9
  0
LTYPE
  2
CONTINUOUS
 70
     0
  3
Solid line
 72
    65
 73
     0
 40
0.0
  0
LTYPE
  2
BORDER
 70
     0
  3
__ __ . __ __ .
 72
    65
 73
     6
 40
43.859634655033588
 49
12.53132418715246
 49
-6.2656620935762266
 49
12.53132418715246
 49
-6.2656620935762266
 49
0.0
 49
-6.2656620935762266
  0
LTYPE
  2
CENTER
 70
     0
  3
____ _ ____ _
 72
    65
 73
     4
 40
50.125296748609813
 49
31.328310467881138
 49
-6.2656620935762266
 49
6.2656620935762266
 49
-6.2656620935762266
  0
LTYPE
  2
DASHDOT
 70
     0
  3
__ . __ . __ .
 72
    65
 73
     4
 40
25.062648374304899
 49
12.53132418715246
 49
-6.2656620935762266
 49
0.0
 49
-6.2656620935762266
  0
LTYPE
  2
DASHED
 70
     0
  3
__ __ __ __ __
 72
    65
 73
     2
 40
18.796986280728671
 49
12.53132418715246
 49
-6.2656620935762266
  0
LTYPE
  2
DIVIDE
 70
     0
  3
__ . . __ . . 
 72
    65
 73
     6
 40
31.328310467881138
 49
12.53132418715246
 49
-6.2656620935762266
 49
0.0
 49
-6.2656620935762266
 49
0.0
 49
-6.2656620935762266
  0
LTYPE
  2
DOT
 70
     0
  3
..............
 72
    65
 73
     4
 40
12.53132418715246
 49
0.0
 49
-6.2656620935762266
 49
0.0
 49
-6.2656620935762266
  0
LTYPE
  2
HIDDEN
 70
     0
  3
_ _ _ _ _ _ _
 72
    65
 73
     2
 40
9.398493140364339
 49
6.2656620935762266
 49
-3.1328310467881129
  0
LTYPE
  2
PHANTOM
 70
     0
  3
_____ _ _ _____ _ _ 
 72
    65
 73
     6
 40
62.656620935762277
 49
31.328310467881138
 49
-6.2656620935762266
 49
6.2656620935762266
 49
-6.2656620935762266
 49
6.2656620935762266
 49
-6.2656620935762266
  0
ENDTAB
  0
TABLE
  2
LAYER
 70
     2
  0
LAYER
  2
0
 70
     0
 62
     7
  6
CONTINUOUS
  0
LAYER
  2
1
 70
     0
 62
     7
  6
CONTINUOUS
  0
ENDTAB
  0
TABLE
  2
STYLE
 70
     4
  0
STYLE
  2
STANDARD
 70
     0
 40
0.0
 41
1.0
 50
0.0
 71
     0
 42
3.5
  3
txt
  4

  0
STYLE
  2
SIMPLEX
 70
     0
 40
0.0
 41
1.0
 50
0.0
 71
     0
 42
3.5
  3
simplex
  4

  0
STYLE
  2
COMPLEX
 70
     0
 40
0.0
 41
1.0
 50
0.0
 71
     0
 42
3.5
  3
complex
  4

  0
STYLE
  2
ITALIC
 70
     0
 40
0.0
 41
1.0
 50
0.0
 71
     0
 42
3.5
  3
italic
  4

  0
ENDTAB
  0
TABLE
  2
VIEW
 70
     0
  0
ENDTAB
  0
TABLE
  2
UCS
 70
     0
  0
ENDTAB
  0
TABLE
  2
APPID
 70
     1
  0
APPID
  2
ACAD
 70
     0
  0
ENDTAB
  0
TABLE
  2
DIMSTYLE
 70
     1
  0
DIMSTYLE
  2
STANDARD
 70
     0
  3

  4

  5

  6

  7

 40
1.0
 41
0.18
 42
0.0625
 43
0.38
 44
0.18
 45
0.0
 46
0.0
 47
0.0
 48
0.0
140
0.18
141
0.09
142
0.0
143
25.399999999999999
144
1.0
145
0.0
146
1.0
147
0.09
 71
     0
 72
     0
 73
     1
 74
     1
 75
     0
 76
     0
 77
     0
 78
     0
170
     0
171
     2
172
     0
173
     0
174
     0
175
     0
176
     0
177
     0
178
     0
  0
ENDTAB
  0
ENDSEC
  0
SECTION
  2
BLOCKS
  0
BLOCK
  8
0
  2
$MODEL_SPACE
 70
     0
 10
0.0
 20
0.0
 30
0.0
  3
$MODEL_SPACE
  1

  0
ENDBLK
  5
20
  8
0
  0
BLOCK
 67
     1
  8
0
  2
$PAPER_SPACE
 70
     0
 10
0.0
 20
0.0
 30
0.0
  3
$PAPER_SPACE
  1

  0
ENDBLK
  5
1C
 67
     1
  8
0
  0
ENDSEC
  0
SECTION
  2
ENTITIES
  0
LINE
  5
33
  8
1
 62
     7
 10
-75.260914677730241
 20
111.25
 30
0.0
 11
-76.860914677730193
 21
111.25
 31
0.0
  0
LINE
  5
34
  8
1
 62
     7
 10
-75.260914677730241
 20
126.75
 30
0.0
 11
-75.260914677730241
 21
111.25
 31
0.0
  0
LINE
  5
35
  8
1
 62
     7
 10
-76.860914677730193
 20
126.75
 30
0.0
 11
-75.260914677730241
 21
126.75
 31
0.0
  0
LINE
  5
36
  8
1
 62
     7
 10
-75.260914677730241
 20
125.5
 30
0.0
 11
-67.737914328957302
 21
125.5
 31
0.0
  0
LINE
  5
37
  8
1
 62
     7
 10
-67.737914328957302
 20
125.5
 30
0.0
 11
-67.237914328957302
 21
124.6339745962155
 31
0.0
  0
LINE
  5
38
  8
1
 62
     7
 10
-67.237914328957302
 20
124.6339745962155
 30
0.0
 11
-67.237914328957302
 21
113.36602540378431
 31
0.0
  0
LINE
  5
39
  8
1
 62
     7
 10
-67.237914328957302
 20
113.36602540378431
 30
0.0
 11
-67.737914328957302
 21
112.5
 31
0.0
  0
LINE
  5
3A
  8
1
 62
     7
 10
-67.737914328957302
 20
112.5
 30
0.0
 11
-75.260914677730241
 21
112.5
 31
0.0
  0
LINE
  5
3B
  8
1
 62
     7
 10
-67.737914328957302
 20
125.5
 30
0.0
 11
-67.737914328957302
 21
112.5
 31
0.0
  0
LINE
  5
3C
  8
1
 62
     7
 10
82.199999999999974
 20
111.25
 30
0.0
 11
80.599999999999966
 21
111.25
 31
0.0
  0
LINE
  5
3D
  8
1
 62
     7
 10
82.199999999999974
 20
126.75
 30
0.0
 11
82.199999999999974
 21
111.25
 31
0.0
  0
LINE
  5
3E
  8
1
 62
     7
 10
80.599999999999966
 20
126.75
 30
0.0
 11
82.199999999999974
 21
126.75
 31
0.0
  0
LINE
  5
3F
  8
1
 62
     7
 10
-239.24995497576941
 20
109.9266672445152
 30
0.0
 11
-245.1662024596142
 21
89.019706623722726
 31
0.0
  0
LINE
  5
40
  8
1
 62
     7
 10
-237.46240353107339
 20
109.4336065761638
 30
0.0
 11
-243.24059973482821
 21
88.485225099499345
 31
0.0
  0
LINE
  5
41
  8
1
 62
     7
 10
-244.10818358637721
 20
110.14811005615719
 30
0.0
 11
-244.10818358637721
 21
96.837692466387963
 31
0.0
  0
LINE
  5
42
  8
1
 62
     7
 10
-246.10818358637721
 20
96.837692466384851
 30
0.0
 11
-246.10818358637721
 21
110.14811005615719
 31
0.0
  0
LINE
  5
43
  8
1
 62
     7
 10
-351.47379666307933
 20
120.7754034631941
 30
0.0
 11
-352.25451448283081
 21
117.8617248935069
 31
0.0
  0
LINE
  5
44
  8
1
 62
     7
 10
-347.61009335792312
 20
119.740127282784
 30
0.0
 11
-348.39081117767461
 21
116.8264487130967
 31
0.0
  0
LINE
  5
45
  8
1
 62
     7
 10
-349.54194501050108
 20
120.257765372989
 30
0.0
 11
-350.31840214580859
 21
117.3599878941218
 31
0.0
  0
LINE
  5
46
  8
1
 62
     7
 10
-149.03791432895721
 20
70.226563473602567
 30
0.0
 11
-149.03791432895721
 21
77.20390940934324
 31
0.0
  0
LINE
  5
47
  8
1
 62
     7
 10
-150.33791432895731
 20
72.824639149333592
 30
0.0
 11
-149.03791432895721
 21
72.824639149333592
 31
0.0
  0
LINE
  5
48
  8
1
 62
     7
 10
-149.03791432895721
 20
70.226563473602567
 30
0.0
 11
-147.43791432895719
 21
70.226563473602567
 31
0.0
  0
LINE
  5
49
  8
1
 62
     7
 10
-148.23791432895729
 20
77.238705720369083
 30
0.0
 11
-147.43791432895719
 21
77.238705720369083
 31
0.0
  0
LINE
  5
4A
  8
1
 62
     7
 10
-148.23791432895729
 20
77.238705720369083
 30
0.0
 11
-148.23791432895729
 21
70.226563473602567
 31
0.0
  0
LINE
  5
4B
  8
1
 62
     7
 10
-149.03791432895721
 20
77.20390940934324
 30
0.0
 11
-148.23791432895729
 21
77.238705720369083
 31
0.0
  0
LINE
  5
4C
  8
1
 62
     7
 10
-149.03791432895721
 20
77.20390940934324
 30
0.0
 11
-149.35166806781481
 21
77.635102274778333
 31
0.0
  0
LINE
  5
4D
  8
1
 62
     7
 10
-148.93791432895731
 20
79.242174933730951
 30
0.0
 11
-148.93791432895731
 21
81.245644147092804
 31
0.0
  0
LINE
  5
4E
  8
1
 62
     7
 10
-153.0283487336788
 20
79.398619595670326
 30
0.0
 11
-149.82834873367881
 21
81.402088809032193
 31
0.0
  0
LINE
  5
4F
  8
1
 62
     7
 10
-154.19965194784331
 20
79.867953581488408
 30
0.0
 11
-150.9996519478434
 21
81.871422794850275
 31
0.0
  0
LINE
  5
50
  8
1
 62
     7
 10
-149.70556838987901
 20
77.792964786583227
 30
0.0
 11
-150.03791096627231
 21
77.832620785620435
 31
0.0
  0
LINE
  5
51
  8
1
 62
     7
 10
-152.7934373579385
 20
79.004164083694263
 30
0.0
 11
-152.03791096627239
 21
78.88031495550689
 31
0.0
  0
LINE
  5
52
  8
1
 62
     7
 10
-153.25901690719331
 20
78.289969467124308
 30
0.0
 11
-152.03791096627211
 21
78.090152957057072
 31
0.0
  0
LINE
  5
53
  8
1
 62
     7
 10
-148.93791432895731
 20
79.242174933730951
 30
0.0
 11
-148.23791432895729
 21
77.238705720369083
 31
0.0
  0
LINE
  5
54
  8
1
 62
     7
 10
38.0
 20
128.0
 30
0.0
 11
38.0
 21
121.5
 31
0.0
  0
LINE
  5
55
  8
1
 62
     7
 10
317.6157220978215
 20
30.0
 30
0.0
 11
317.6157220978215
 21
23.848480035423581
 31
0.0
  0
LINE
  5
56
  8
1
 62
     7
 10
302.6157220978215
 20
30.0
 30
0.0
 11
317.6157220978215
 21
30.0
 31
0.0
  0
LINE
  5
57
  8
1
 62
     7
 10
302.6157220978215
 20
23.848480035423581
 30
0.0
 11
302.6157220978215
 21
30.0
 31
0.0
  0
LINE
  5
58
  8
1
 62
     7
 10
432.15891124528918
 20
9.9999999999999165
 30
0.0
 11
430.42686043772051
 21
12.999999999999901
 31
0.0
  0
LINE
  5
59
  8
1
 62
     7
 10
430.42686043772051
 20
12.999999999999901
 30
0.0
 11
426.9627588225826
 21
12.999999999999901
 31
0.0
  0
LINE
  5
5A
  8
1
 62
     7
 10
426.9627588225826
 20
12.999999999999901
 30
0.0
 11
425.23070801501387
 21
9.9999999999999165
 31
0.0
  0
LINE
  5
5B
  8
1
 62
     7
 10
425.23070801501387
 20
9.9999999999999165
 30
0.0
 11
426.9627588225826
 21
6.9999999999999147
 31
0.0
  0
LINE
  5
5C
  8
1
 62
     7
 10
426.9627588225826
 20
6.9999999999999147
 30
0.0
 11
430.42686043772051
 21
6.9999999999999147
 31
0.0
  0
LINE
  5
5D
  8
1
 62
     7
 10
430.42686043772051
 20
6.9999999999999147
 30
0.0
 11
432.15891124528918
 21
9.9999999999999165
 31
0.0
  0
LINE
  5
5E
  8
1
 62
     7
 10
432.15891124528918
 20
-10.00000000000008
 30
0.0
 11
430.42686043772051
 21
-7.0000000000000844
 31
0.0
  0
LINE
  5
5F
  8
1
 62
     7
 10
430.42686043772051
 20
-7.0000000000000844
 30
0.0
 11
426.9627588225826
 21
-7.0000000000000844
 31
0.0
  0
LINE
  5
60
  8
1
 62
     7
 10
426.9627588225826
 20
-7.0000000000000844
 30
0.0
 11
425.23070801501387
 21
-10.00000000000008
 31
0.0
  0
LINE
  5
61
  8
1
 62
     7
 10
425.23070801501387
 20
-10.00000000000008
 30
0.0
 11
426.9627588225826
 21
-13.000000000000091
 31
0.0
  0
LINE
  5
62
  8
1
 62
     7
 10
426.9627588225826
 20
-13.000000000000091
 30
0.0
 11
430.42686043772051
 21
-13.000000000000091
 31
0.0
  0
LINE
  5
63
  8
1
 62
     7
 10
430.42686043772051
 20
-13.000000000000091
 30
0.0
 11
432.15891124528918
 21
-10.00000000000008
 31
0.0
  0
LINE
  5
64
  8
1
 62
     7
 10
320.1157220978215
 20
-122.0431891474679
 30
0.0
 11
323.11572209782139
 21
-120.311138339899
 31
0.0
  0
LINE
  5
65
  8
1
 62
     7
 10
323.11572209782139
 20
-120.311138339899
 30
0.0
 11
323.11572209782139
 21
-116.8470367247612
 31
0.0
  0
LINE
  5
66
  8
1
 62
     7
 10
323.11572209782139
 20
-116.8470367247612
 30
0.0
 11
320.11572209782128
 21
-115.1149859171924
 31
0.0
  0
LINE
  5
67
  8
1
 62
     7
 10
320.11572209782128
 20
-115.1149859171924
 30
0.0
 11
317.1157220978215
 21
-116.8470367247612
 31
0.0
  0
LINE
  5
68
  8
1
 62
     7
 10
317.1157220978215
 20
-116.8470367247612
 30
0.0
 11
317.11572209782128
 21
-120.311138339899
 31
0.0
  0
LINE
  5
69
  8
1
 62
     7
 10
317.11572209782128
 20
-120.311138339899
 30
0.0
 11
320.1157220978215
 21
-122.0431891474679
 31
0.0
  0
LINE
  5
6A
  8
1
 62
     7
 10
300.11572209782139
 20
-122.0431891474679
 30
0.0
 11
303.1157220978215
 21
-120.311138339899
 31
0.0
  0
LINE
  5
6B
  8
1
 62
     7
 10
303.1157220978215
 20
-120.311138339899
 30
0.0
 11
303.1157220978215
 21
-116.8470367247612
 31
0.0
  0
LINE
  5
6C
  8
1
 62
     7
 10
303.1157220978215
 20
-116.8470367247612
 30
0.0
 11
300.11572209782139
 21
-115.1149859171924
 31
0.0
  0
LINE
  5
6D
  8
1
 62
     7
 10
300.11572209782139
 20
-115.1149859171924
 30
0.0
 11
297.1157220978215
 21
-116.8470367247612
 31
0.0
  0
LINE
  5
6E
  8
1
 62
     7
 10
297.1157220978215
 20
-116.8470367247612
 30
0.0
 11
297.1157220978215
 21
-120.311138339899
 31
0.0
  0
LINE
  5
6F
  8
1
 62
     7
 10
297.1157220978215
 20
-120.311138339899
 30
0.0
 11
300.11572209782139
 21
-122.0431891474679
 31
0.0
  0
LINE
  5
70
  8
1
 62
     7
 10
188.07253295035349
 20
-10.00000000000008
 30
0.0
 11
189.8045837579225
 21
-13.0
 31
0.0
  0
LINE
  5
71
  8
1
 62
     7
 10
189.8045837579225
 20
-13.0
 30
0.0
 11
193.26868537306029
 21
-13.0
 31
0.0
  0
LINE
  5
72
  8
1
 62
     7
 10
193.26868537306029
 20
-13.0
 30
0.0
 11
195.00073618062899
 21
-10.0
 31
0.0
  0
LINE
  5
73
  8
1
 62
     7
 10
195.00073618062899
 20
-10.0
 30
0.0
 11
193.26868537306029
 21
-7.0000000000000844
 31
0.0
  0
LINE
  5
74
  8
1
 62
     7
 10
193.26868537306029
 20
-7.0000000000000844
 30
0.0
 11
189.8045837579225
 21
-7.0
 31
0.0
  0
LINE
  5
75
  8
1
 62
     7
 10
189.8045837579225
 20
-7.0
 30
0.0
 11
188.07253295035349
 21
-10.00000000000008
 31
0.0
  0
LINE
  5
76
  8
1
 62
     7
 10
188.07253295035349
 20
9.9999999999999165
 30
0.0
 11
189.8045837579225
 21
6.9999999999999147
 31
0.0
  0
LINE
  5
77
  8
1
 62
     7
 10
189.8045837579225
 20
6.9999999999999147
 30
0.0
 11
193.26868537306029
 21
7.0
 31
0.0
  0
LINE
  5
78
  8
1
 62
     7
 10
193.26868537306029
 20
7.0
 30
0.0
 11
195.00073618062899
 21
10.0
 31
0.0
  0
LINE
  5
79
  8
1
 62
     7
 10
195.00073618062899
 20
10.0
 30
0.0
 11
193.26868537306029
 21
13.0
 31
0.0
  0
LINE
  5
7A
  8
1
 62
     7
 10
193.26868537306029
 20
13.0
 30
0.0
 11
189.8045837579225
 21
12.999999999999901
 31
0.0
  0
LINE
  5
7B
  8
1
 62
     7
 10
189.8045837579225
 20
12.999999999999901
 30
0.0
 11
188.07253295035349
 21
9.9999999999999165
 31
0.0
  0
LINE
  5
7C
  8
1
 62
     7
 10
323.11572209782139
 20
120.3111383398989
 30
0.0
 11
320.1157220978215
 21
122.0431891474678
 31
0.0
  0
LINE
  5
7D
  8
1
 62
     7
 10
323.11572209782139
 20
116.8470367247611
 30
0.0
 11
323.11572209782139
 21
120.3111383398989
 31
0.0
  0
LINE
  5
7E
  8
1
 62
     7
 10
320.1157220978215
 20
115.1149859171922
 30
0.0
 11
323.11572209782139
 21
116.8470367247611
 31
0.0
  0
LINE
  5
7F
  8
1
 62
     7
 10
317.1157220978215
 20
116.8470367247611
 30
0.0
 11
320.1157220978215
 21
115.1149859171922
 31
0.0
  0
LINE
  5
80
  8
1
 62
     7
 10
317.1157220978215
 20
120.3111383398989
 30
0.0
 11
317.1157220978215
 21
116.8470367247611
 31
0.0
  0
LINE
  5
81
  8
1
 62
     7
 10
320.1157220978215
 20
122.0431891474678
 30
0.0
 11
317.1157220978215
 21
120.3111383398989
 31
0.0
  0
LINE
  5
82
  8
1
 62
     7
 10
303.11572209782162
 20
120.3111383398989
 30
0.0
 11
300.11572209782139
 21
122.0431891474678
 31
0.0
  0
LINE
  5
83
  8
1
 62
     7
 10
303.1157220978215
 20
116.8470367247611
 30
0.0
 11
303.11572209782162
 21
120.3111383398989
 31
0.0
  0
LINE
  5
84
  8
1
 62
     7
 10
300.11572209782162
 20
115.1149859171922
 30
0.0
 11
303.1157220978215
 21
116.8470367247611
 31
0.0
  0
LINE
  5
85
  8
1
 62
     7
 10
297.11572209782162
 20
116.8470367247611
 30
0.0
 11
300.11572209782162
 21
115.1149859171922
 31
0.0
  0
LINE
  5
86
  8
1
 62
     7
 10
297.11572209782162
 20
120.3111383398989
 30
0.0
 11
297.11572209782162
 21
116.8470367247611
 31
0.0
  0
LINE
  5
87
  8
1
 62
     7
 10
300.11572209782139
 20
122.0431891474678
 30
0.0
 11
297.11572209782162
 21
120.3111383398989
 31
0.0
  0
LINE
  5
88
  8
1
 62
     7
 10
79.199999999999875
 20
88.999999999999957
 30
0.0
 11
78.599999999999966
 21
95.858031381656403
 31
0.0
  0
LINE
  5
89
  8
1
 62
     7
 10
80.599999999999966
 20
96.208248456931571
 30
0.0
 11
81.199999999999875
 21
88.999999999999957
 31
0.0
  0
LINE
  5
8A
  8
1
 62
     7
 10
82.199999999999974
 20
125.5
 30
0.0
 11
89.699999999999974
 21
125.5
 31
0.0
  0
LINE
  5
8B
  8
1
 62
     7
 10
89.699999999999974
 20
125.5
 30
0.0
 11
90.200000000000017
 21
124.6339745962155
 31
0.0
  0
LINE
  5
8C
  8
1
 62
     7
 10
90.200000000000017
 20
124.6339745962155
 30
0.0
 11
90.200000000000017
 21
113.36602540378431
 31
0.0
  0
LINE
  5
8D
  8
1
 62
     7
 10
90.200000000000017
 20
113.36602540378431
 30
0.0
 11
89.699999999999974
 21
112.5
 31
0.0
  0
LINE
  5
8E
  8
1
 62
     7
 10
89.699999999999974
 20
112.5
 30
0.0
 11
82.199999999999974
 21
112.5
 31
0.0
  0
LINE
  5
8F
  8
1
 62
     7
 10
89.699999999999974
 20
125.5
 30
0.0
 11
89.699999999999974
 21
112.5
 31
0.0
  0
LINE
  5
90
  8
1
 62
     7
 10
78.599999999999966
 20
129.0
 30
0.0
 11
80.599999999999966
 21
129.0
 31
0.0
  0
LINE
  5
91
  8
1
 62
     3
 10
88.199999999999861
 20
0.0
 30
0.0
 11
81.199999999999875
 21
0.0
 31
0.0
  0
LINE
  5
92
  8
1
 62
     7
 10
14.0
 20
121.5
 30
0.0
 11
50.0
 21
121.5
 31
0.0
  0
LINE
  5
93
  8
1
 62
     7
 10
6.8000000000000123
 20
152.0
 30
0.0
 11
6.8000000000000123
 21
91.999999999999943
 31
0.0
  0
LINE
  5
94
  8
1
 62
     7
 10
6.8000000000000123
 20
134.74999999999989
 30
0.0
 11
10.0
 21
134.74999999999989
 31
0.0
  0
LINE
  5
95
  8
1
 62
     7
 10
6.8000000000000123
 20
145.25
 30
0.0
 11
10.0
 21
145.25
 31
0.0
  0
LINE
  5
96
  8
1
 62
     7
 10
10.0
 20
116.9939654257124
 30
0.0
 11
10.0
 21
117.5
 31
0.0
  0
LINE
  5
97
  8
1
 62
     7
 10
6.8000000000000123
 20
91.999999999999943
 30
0.0
 11
10.0
 21
91.999999999999943
 31
0.0
  0
LINE
  5
98
  8
1
 62
     7
 10
6.8000000000000123
 20
152.0
 30
0.0
 11
10.0
 21
152.0
 31
0.0
  0
LINE
  5
99
  8
1
 62
     7
 10
62.0
 20
-48.5
 30
0.0
 11
62.0
 21
-85.0
 31
0.0
  0
LINE
  5
9A
  8
1
 62
     7
 10
65.0
 20
-85.0
 30
0.0
 11
62.0
 21
-85.0
 31
0.0
  0
LINE
  5
9B
  8
1
 62
     7
 10
65.0
 20
-48.5
 30
0.0
 11
62.0
 21
-48.5
 31
0.0
  0
LINE
  5
9C
  8
1
 62
     7
 10
40.0
 20
-130.0
 30
0.0
 11
65.0
 21
-130.0
 31
0.0
  0
LINE
  5
9D
  8
1
 62
     7
 10
0.0
 20
-36.5
 30
0.0
 11
0.0
 21
36.5
 31
0.0
  0
LINE
  5
9E
  8
1
 62
     7
 10
35.0
 20
-74.0
 30
0.0
 11
35.0
 21
-79.450000000000003
 31
0.0
  0
LINE
  5
9F
  8
1
 62
     7
 10
54.5
 20
-95.5
 30
0.0
 11
54.5
 21
-122.55
 31
0.0
  0
LINE
  5
A0
  8
1
 62
     7
 10
53.0
 20
-95.5
 30
0.0
 11
54.5
 21
-95.5
 31
0.0
  0
LINE
  5
A1
  8
1
 62
     7
 10
53.0
 20
-79.450000000000003
 30
0.0
 11
53.0
 21
-95.5
 31
0.0
  0
LINE
  5
A2
  8
1
 62
     7
 10
35.0
 20
-79.450000000000003
 30
0.0
 11
53.0
 21
-79.450000000000003
 31
0.0
  0
LINE
  5
A3
  8
1
 62
     7
 10
40.0
 20
-74.0
 30
0.0
 11
35.0
 21
-74.0
 31
0.0
  0
LINE
  5
A4
  8
1
 62
     7
 10
10.0
 20
-37.5
 30
0.0
 11
35.0
 21
-37.5
 31
0.0
  0
LINE
  5
A5
  8
1
 62
     7
 10
40.0
 20
-46.0
 30
0.0
 11
40.0
 21
-74.0
 31
0.0
  0
LINE
  5
A6
  8
1
 62
     7
 10
36.0
 20
-46.0
 30
0.0
 11
40.0
 21
-46.0
 31
0.0
  0
LINE
  5
A7
  8
1
 62
     7
 10
40.0
 20
-130.0
 30
0.0
 11
38.0
 21
-128.0
 31
0.0
  0
LINE
  5
A8
  8
1
 62
     7
 10
0.0
 20
-36.5
 30
0.0
 11
1.0
 21
-37.5
 31
0.0
  0
LINE
  5
A9
  8
1
 62
     7
 10
35.0
 20
-58.394709581221491
 30
0.0
 11
26.625
 21
-58.394709581221591
 31
0.0
  0
LINE
  5
AA
  8
1
 62
     7
 10
10.0
 20
-58.394709581221491
 30
0.0
 11
18.375
 21
-58.394709581221591
 31
0.0
  0
LINE
  5
AB
  8
1
 62
     7
 10
10.0
 20
-44.105290418778402
 30
0.0
 11
18.375
 21
-44.105290418778402
 31
0.0
  0
LINE
  5
AC
  8
1
 62
     7
 10
35.0
 20
-44.105290418778402
 30
0.0
 11
26.625
 21
-44.105290418778402
 31
0.0
  0
LINE
  5
AD
  8
1
 62
     7
 10
38.0
 20
-122.55
 30
0.0
 11
54.5
 21
-122.55
 31
0.0
  0
LINE
  5
AE
  8
1
 62
     7
 10
14.0
 20
-121.5
 30
0.0
 11
50.0
 21
-121.5
 31
0.0
  0
LINE
  5
AF
  8
1
 62
     7
 10
50.0
 20
-121.5
 30
0.0
 11
50.0
 21
-80.5
 31
0.0
  0
LINE
  5
B0
  8
1
 62
     7
 10
50.0
 20
-80.5
 30
0.0
 11
32.132401572550968
 21
-80.5
 31
0.0
  0
LINE
  5
B1
  8
1
 62
     7
 10
32.132401572550968
 20
-70.0
 30
0.0
 11
32.132401572550968
 21
-80.5
 31
0.0
  0
LINE
  5
B2
  8
1
 62
     7
 10
38.5
 20
-70.0
 30
0.0
 11
32.132401572550968
 21
-70.0
 31
0.0
  0
LINE
  5
B3
  8
1
 62
     7
 10
38.5
 20
-60.0
 30
0.0
 11
38.5
 21
-70.0
 31
0.0
  0
LINE
  5
B4
  8
1
 62
     7
 10
35.0
 20
-60.0
 30
0.0
 11
38.5
 21
-60.0
 31
0.0
  0
LINE
  5
B5
  8
1
 62
     7
 10
35.0
 20
-65.0
 30
0.0
 11
11.0
 21
-65.0
 31
0.0
  0
LINE
  5
B6
  8
1
 62
     7
 10
11.0
 20
-65.0
 30
0.0
 11
10.0
 21
-66.0
 31
0.0
  0
LINE
  5
B7
  8
1
 62
     7
 10
10.0
 20
-117.5
 30
0.0
 11
10.0
 21
-36.0
 31
0.0
  0
LINE
  5
B8
  8
1
 62
     7
 10
11.0
 20
-64.06643191323991
 30
0.0
 11
11.0
 21
-65.0
 31
0.0
  0
LINE
  5
B9
  8
1
 62
     7
 10
14.0
 20
-121.5
 30
0.0
 11
10.0
 21
-117.5
 31
0.0
  0
LINE
  5
BA
  8
1
 62
     7
 10
10.0
 20
-57.5
 30
0.0
 11
7.3999999999999773
 21
-57.5
 31
0.0
  0
LINE
  5
BB
  8
1
 62
     7
 10
10.0
 20
-82.5
 30
0.0
 11
7.3999999999999773
 21
-82.5
 31
0.0
  0
LINE
  5
BC
  8
1
 62
     7
 10
10.0
 20
-36.0
 30
0.0
 11
7.5
 21
-36.0
 31
0.0
  0
LINE
  5
BD
  8
1
 62
     7
 10
1.0
 20
-37.5
 30
0.0
 11
7.5
 21
-37.5
 31
0.0
  0
LINE
  5
BE
  8
1
 62
     7
 10
7.5
 20
-36.0
 30
0.0
 11
7.5
 21
-43.0
 31
0.0
  0
LINE
  5
BF
  8
1
 62
     7
 10
10.0
 20
-43.0
 30
0.0
 11
7.5
 21
-43.0
 31
0.0
  0
LINE
  5
C0
  8
1
 62
     7
 10
38.0
 20
-128.0
 30
0.0
 11
38.0
 21
-121.5
 31
0.0
  0
LINE
  5
C1
  8
1
 62
     3
 10
33.0
 20
-40.915217157336201
 30
0.0
 11
33.0
 21
-61.070896173838207
 31
0.0
  0
LINE
  5
C2
  8
1
 62
     3
 10
12.0
 20
-40.915217157336201
 30
0.0
 11
12.0
 21
-61.070896173838207
 31
0.0
  0
LINE
  5
C3
  8
1
 62
     3
 10
12.0
 20
61.070896173838122
 30
0.0
 11
12.0
 21
40.915217157336293
 31
0.0
  0
LINE
  5
C4
  8
1
 62
     3
 10
33.0
 20
61.070896173838122
 30
0.0
 11
33.0
 21
40.915217157336293
 31
0.0
  0
LINE
  5
C5
  8
1
 62
     7
 10
7.3999999999999773
 20
69.499999999999972
 30
0.0
 11
6.8000000000000123
 21
69.499999999999972
 31
0.0
  0
LINE
  5
C6
  8
1
 62
     7
 10
7.3999999999999773
 20
69.499999999999972
 30
0.0
 11
6.8000000000000123
 21
69.499999999999972
 31
0.0
  0
LINE
  5
C7
  8
1
 62
     7
 10
6.8000000000000123
 20
80.499999999999972
 30
0.0
 11
7.3999999999999773
 21
80.499999999999972
 31
0.0
  0
LINE
  5
C8
  8
1
 62
     7
 10
7.5
 20
43.0
 30
0.0
 11
10.0
 21
43.0
 31
0.0
  0
LINE
  5
C9
  8
1
 62
     7
 10
7.5
 20
43.0
 30
0.0
 11
7.5
 21
36.0
 31
0.0
  0
LINE
  5
CA
  8
1
 62
     7
 10
7.5
 20
37.5
 30
0.0
 11
1.0
 21
37.5
 31
0.0
  0
LINE
  5
CB
  8
1
 62
     7
 10
7.5
 20
36.0
 30
0.0
 11
10.0
 21
36.0
 31
0.0
  0
LINE
  5
CC
  8
1
 62
     7
 10
7.3999999999999773
 20
82.499999999999986
 30
0.0
 11
10.0
 21
82.499999999999986
 31
0.0
  0
LINE
  5
CD
  8
1
 62
     7
 10
7.3999999999999773
 20
57.499999999999972
 30
0.0
 11
10.0
 21
57.499999999999972
 31
0.0
  0
LINE
  5
CE
  8
1
 62
     7
 10
10.0
 20
117.5
 30
0.0
 11
14.0
 21
121.5
 31
0.0
  0
LINE
  5
CF
  8
1
 62
     7
 10
11.0
 20
64.999999999999972
 30
0.0
 11
11.0
 21
64.066431913239839
 31
0.0
  0
LINE
  5
D0
  8
1
 62
     7
 10
10.0
 20
152.0
 30
0.0
 11
10.0
 21
36.0
 31
0.0
  0
LINE
  5
D1
  8
1
 62
     7
 10
10.0
 20
65.999999999999972
 30
0.0
 11
11.0
 21
64.999999999999972
 31
0.0
  0
LINE
  5
D2
  8
1
 62
     7
 10
35.0
 20
64.999999999999972
 30
0.0
 11
11.0
 21
64.999999999999972
 31
0.0
  0
LINE
  5
D3
  8
1
 62
     7
 10
38.5
 20
59.999999999999972
 30
0.0
 11
35.0
 21
59.999999999999972
 31
0.0
  0
LINE
  5
D4
  8
1
 62
     7
 10
38.5
 20
69.999999999999972
 30
0.0
 11
38.5
 21
59.999999999999972
 31
0.0
  0
LINE
  5
D5
  8
1
 62
     7
 10
32.132401572550968
 20
69.999999999999972
 30
0.0
 11
38.5
 21
69.999999999999972
 31
0.0
  0
LINE
  5
D6
  8
1
 62
     7
 10
32.132401572550968
 20
80.499999999999972
 30
0.0
 11
32.132401572550968
 21
69.999999999999972
 31
0.0
  0
LINE
  5
D7
  8
1
 62
     7
 10
32.132401572550968
 20
80.499999999999972
 30
0.0
 11
50.0
 21
80.499999999999972
 31
0.0
  0
LINE
  5
D8
  8
1
 62
     7
 10
50.0
 20
80.499999999999972
 30
0.0
 11
50.0
 21
121.5
 31
0.0
  0
LINE
  5
D9
  8
1
 62
     7
 10
54.5
 20
122.55
 30
0.0
 11
38.0
 21
122.55
 31
0.0
  0
LINE
  5
DA
  8
1
 62
     7
 10
26.625
 20
44.105290418778402
 30
0.0
 11
35.0
 21
44.105290418778402
 31
0.0
  0
LINE
  5
DB
  8
1
 62
     7
 10
18.375
 20
44.105290418778402
 30
0.0
 11
10.0
 21
44.105290418778402
 31
0.0
  0
LINE
  5
DC
  8
1
 62
     7
 10
18.375
 20
58.394709581221584
 30
0.0
 11
10.0
 21
58.394709581221584
 31
0.0
  0
LINE
  5
DD
  8
1
 62
     7
 10
26.625
 20
58.394709581221584
 30
0.0
 11
35.0
 21
58.394709581221584
 31
0.0
  0
LINE
  5
DE
  8
1
 62
     7
 10
35.0
 20
45.0
 30
0.0
 11
36.0
 21
46.0
 31
0.0
  0
LINE
  5
DF
  8
1
 62
     7
 10
1.0
 20
37.5
 30
0.0
 11
0.0
 21
36.5
 31
0.0
  0
LINE
  5
E0
  8
1
 62
     7
 10
38.0
 20
128.0
 30
0.0
 11
40.0
 21
130.0
 31
0.0
  0
LINE
  5
E1
  8
1
 62
     7
 10
40.0
 20
46.0
 30
0.0
 11
36.0
 21
46.0
 31
0.0
  0
LINE
  5
E2
  8
1
 62
     7
 10
40.0
 20
73.999999999999972
 30
0.0
 11
40.0
 21
46.0
 31
0.0
  0
LINE
  5
E3
  8
1
 62
     7
 10
35.0
 20
37.5
 30
0.0
 11
10.0
 21
37.5
 31
0.0
  0
LINE
  5
E4
  8
1
 62
     7
 10
35.0
 20
73.999999999999972
 30
0.0
 11
40.0
 21
73.999999999999972
 31
0.0
  0
LINE
  5
E5
  8
1
 62
     7
 10
53.0
 20
79.449999999999974
 30
0.0
 11
35.0
 21
79.449999999999974
 31
0.0
  0
LINE
  5
E6
  8
1
 62
     7
 10
53.0
 20
95.499999999999943
 30
0.0
 11
53.0
 21
79.449999999999974
 31
0.0
  0
LINE
  5
E7
  8
1
 62
     7
 10
54.5
 20
95.499999999999943
 30
0.0
 11
53.0
 21
95.499999999999943
 31
0.0
  0
LINE
  5
E8
  8
1
 62
     7
 10
35.0
 20
79.449999999999974
 30
0.0
 11
35.0
 21
73.999999999999972
 31
0.0
  0
LINE
  5
E9
  8
1
 62
     7
 10
65.0
 20
130.0
 30
0.0
 11
40.0
 21
130.0
 31
0.0
  0
LINE
  5
EA
  8
1
 62
     7
 10
62.0
 20
48.5
 30
0.0
 11
65.0
 21
48.5
 31
0.0
  0
LINE
  5
EB
  8
1
 62
     7
 10
62.0
 20
84.999999999999986
 30
0.0
 11
65.0
 21
84.999999999999986
 31
0.0
  0
LINE
  5
EC
  8
1
 62
     7
 10
62.0
 20
84.999999999999986
 30
0.0
 11
62.0
 21
48.5
 31
0.0
  0
LINE
  5
ED
  8
1
 62
     7
 10
54.5
 20
95.499999999999943
 30
0.0
 11
54.5
 21
122.55
 31
0.0
  0
LINE
  5
EE
  8
1
 62
     7
 10
65.599999999999966
 20
130.49999999999989
 30
0.0
 11
78.599999999999966
 21
130.49999999999989
 31
0.0
  0
LINE
  5
EF
  8
1
 62
     7
 10
78.599999999999966
 20
89.999999999999957
 30
0.0
 11
76.300000000000026
 21
89.999999999999957
 31
0.0
  0
LINE
  5
F0
  8
1
 62
     7
 10
65.599999999999966
 20
84.999999999999986
 30
0.0
 11
76.300000000000026
 21
84.999999999999986
 31
0.0
  0
LINE
  5
F1
  8
1
 62
     7
 10
76.300000000000026
 20
58.499999999999972
 30
0.0
 11
79.199999999999875
 21
58.499999999999972
 31
0.0
  0
LINE
  5
F2
  8
1
 62
     7
 10
79.199999999999875
 20
88.999999999999957
 30
0.0
 11
76.300000000000026
 21
88.999999999999957
 31
0.0
  0
LINE
  5
F3
  8
1
 62
     7
 10
78.599999999999966
 20
89.999999999999957
 30
0.0
 11
78.599999999999966
 21
130.49999999999989
 31
0.0
  0
LINE
  5
F4
  8
1
 62
     7
 10
79.199999999999875
 20
57.5
 30
0.0
 11
81.199999999999875
 21
57.5
 31
0.0
  0
LINE
  5
F5
  8
1
 62
     7
 10
81.199999999999875
 20
-57.500000000000092
 30
0.0
 11
79.199999999999875
 21
-57.500000000000092
 31
0.0
  0
LINE
  5
F6
  8
1
 62
     7
 10
76.300000000000026
 20
-89.0
 30
0.0
 11
79.199999999999875
 21
-89.0
 31
0.0
  0
LINE
  5
F7
  8
1
 62
     7
 10
79.199999999999875
 20
-58.5
 30
0.0
 11
76.300000000000026
 21
-58.5
 31
0.0
  0
LINE
  5
F8
  8
1
 62
     7
 10
76.300000000000026
 20
-85.0
 30
0.0
 11
65.599999999999966
 21
-85.0
 31
0.0
  0
LINE
  5
F9
  8
1
 62
     7
 10
76.300000000000026
 20
-90.0
 30
0.0
 11
76.300000000000026
 21
89.999999999999957
 31
0.0
  0
LINE
  5
FA
  8
1
 62
     7
 10
76.300000000000026
 20
-90.0
 30
0.0
 11
78.599999999999966
 21
-90.0
 31
0.0
  0
LINE
  5
FB
  8
1
 62
     7
 10
78.599999999999966
 20
-130.49999999999989
 30
0.0
 11
65.599999999999966
 21
-130.49999999999989
 31
0.0
  0
LINE
  5
FC
  8
1
 62
     7
 10
81.199999999999875
 20
-66.0
 30
0.0
 11
81.199999999999875
 21
88.999999999999957
 31
0.0
  0
LINE
  5
FD
  8
1
 62
     7
 10
79.199999999999875
 20
-129.0
 30
0.0
 11
79.199999999999875
 21
-76.0
 31
0.0
  0
LINE
  5
FE
  8
1
 62
     7
 10
79.199999999999875
 20
-129.0
 30
0.0
 11
81.199999999999875
 21
-129.0
 31
0.0
  0
LINE
  5
FF
  8
1
 62
     7
 10
76.300000000000026
 20
-79.0
 30
0.0
 11
66.899999999999963
 21
-79.0
 31
0.0
  0
LINE
  5
100
  8
1
 62
     7
 10
66.899999999999963
 20
-79.0
 30
0.0
 11
66.300000000000011
 21
-77.960769515458693
 31
0.0
  0
LINE
  5
101
  8
1
 62
     7
 10
66.300000000000011
 20
-77.960769515458693
 30
0.0
 11
66.300000000000011
 21
-64.039230484541292
 31
0.0
  0
LINE
  5
102
  8
1
 62
     7
 10
66.300000000000011
 20
-64.039230484541292
 30
0.0
 11
66.899999999999963
 21
-63.0
 31
0.0
  0
LINE
  5
103
  8
1
 62
     7
 10
66.899999999999963
 20
-63.0
 30
0.0
 11
76.300000000000026
 21
-63.0
 31
0.0
  0
LINE
  5
104
  8
1
 62
     7
 10
66.899999999999963
 20
-79.0
 30
0.0
 11
66.899999999999963
 21
-63.0
 31
0.0
  0
LINE
  5
105
  8
1
 62
     7
 10
76.300000000000026
 20
-76.0
 30
0.0
 11
95.299999999999983
 21
-76.0
 31
0.0
  0
LINE
  5
106
  8
1
 62
     7
 10
95.299999999999983
 20
-76.0
 30
0.0
 11
96.299999999999997
 21
-75.0
 31
0.0
  0
LINE
  5
107
  8
1
 62
     7
 10
96.299999999999997
 20
-75.0
 30
0.0
 11
96.299999999999997
 21
-67.0
 31
0.0
  0
LINE
  5
108
  8
1
 62
     7
 10
96.299999999999997
 20
-67.0
 30
0.0
 11
95.299999999999983
 21
-66.0
 31
0.0
  0
LINE
  5
109
  8
1
 62
     7
 10
95.299999999999983
 20
-66.0
 30
0.0
 11
76.300000000000026
 21
-66.0
 31
0.0
  0
LINE
  5
10A
  8
1
 62
     7
 10
95.299999999999983
 20
-76.0
 30
0.0
 11
95.299999999999983
 21
-66.0
 31
0.0
  0
LINE
  5
10B
  8
1
 62
     3
 10
96.299999999999997
 20
-75.0
 30
0.0
 11
78.532050807568893
 21
-75.0
 31
0.0
  0
LINE
  5
10C
  8
1
 62
     3
 10
78.532050807568893
 20
-75.0
 30
0.0
 11
76.800000000000026
 21
-76.0
 31
0.0
  0
LINE
  5
10D
  8
1
 62
     3
 10
96.299999999999997
 20
-67.0
 30
0.0
 11
78.532050807568893
 21
-67.0
 31
0.0
  0
LINE
  5
10E
  8
1
 62
     3
 10
78.532050807568893
 20
-67.0
 30
0.0
 11
76.800000000000026
 21
-66.0
 31
0.0
  0
LINE
  5
10F
  8
1
 62
     3
 10
78.532050807568893
 20
-76.0
 30
0.0
 11
78.532050807568893
 21
-66.0
 31
0.0
  0
LINE
  5
110
  8
1
  6
DASHDOT
 62
     3
 10
62.5
 20
-71.0
 30
0.0
 11
99.299999999999983
 21
-71.0
 31
0.0
  0
LINE
  5
111
  8
1
 62
     7
 10
78.599999999999966
 20
106.25483704421219
 30
0.0
 11
80.599999999999966
 21
106.25483704421219
 31
0.0
  0
LINE
  5
112
  8
1
 62
     7
 10
79.199999999999875
 20
87.5
 30
0.0
 11
81.199999999999875
 21
87.5
 31
0.0
  0
LINE
  5
113
  8
1
 62
     7
 10
-389.26491612576501
 20
23.848480035423581
 30
0.0
 11
-389.26491612576501
 21
30.0
 31
0.0
  0
LINE
  5
114
  8
1
 62
     7
 10
-389.26491612576501
 20
30.0
 30
0.0
 11
-374.26491612576501
 21
30.0
 31
0.0
  0
LINE
  5
115
  8
1
 62
     7
 10
-374.26491612576501
 20
30.0
 30
0.0
 11
-374.26491612576501
 21
23.848480035423581
 31
0.0
  0
LINE
  5
116
  8
1
 62
     7
 10
-370.76491612576501
 20
152.0
 30
0.0
 11
-392.76491612576478
 21
152.0
 31
0.0
  0
LINE
  5
117
  8
1
 62
     7
 10
-367.76491612576478
 20
149.0
 30
0.0
 11
-367.76491612576501
 21
117.0
 31
0.0
  0
LINE
  5
118
  8
1
 62
     7
 10
-364.76491612576501
 20
114.0
 30
0.0
 11
-362.26491612576501
 21
114.0
 31
0.0
  0
LINE
  5
119
  8
1
 62
     7
 10
-359.26491612576501
 20
111.0
 30
0.0
 11
-359.26491612576501
 21
91.999999999999943
 31
0.0
  0
LINE
  5
11A
  8
1
 62
     7
 10
-359.26491612576501
 20
91.999999999999943
 30
0.0
 11
-404.26491612576478
 21
91.999999999999943
 31
0.0
  0
LINE
  5
11B
  8
1
 62
     7
 10
-404.26491612576478
 20
91.999999999999943
 30
0.0
 11
-404.26491612576478
 21
111.0
 31
0.0
  0
LINE
  5
11C
  8
1
 62
     7
 10
-401.26491612576478
 20
114.0
 30
0.0
 11
-398.76491612576478
 21
114.0
 31
0.0
  0
LINE
  5
11D
  8
1
 62
     7
 10
-395.76491612576478
 20
117.0
 30
0.0
 11
-395.76491612576478
 21
149.0
 31
0.0
  0
LINE
  5
11E
  8
1
 62
     7
 10
-381.29991612576481
 20
78.099999999999966
 30
0.0
 11
-382.22991612576482
 21
78.099999999999966
 31
0.0
  0
LINE
  5
11F
  8
1
 62
     7
 10
-384.86491612576481
 20
75.464999999999975
 30
0.0
 11
-384.86491612576481
 21
74.534999999999968
 31
0.0
  0
LINE
  5
120
  8
1
 62
     7
 10
-382.22991612576482
 20
71.899999999999963
 30
0.0
 11
-381.29991612576481
 21
71.899999999999963
 31
0.0
  0
LINE
  5
121
  8
1
 62
     7
 10
-378.66491612576482
 20
74.534999999999968
 30
0.0
 11
-378.66491612576482
 21
75.464999999999975
 31
0.0
  0
LINE
  5
122
  8
1
 62
     7
 10
-456.29991612576481
 20
3.099999999999993
 30
0.0
 11
-457.22991612576487
 21
3.099999999999993
 31
0.0
  0
LINE
  5
123
  8
1
 62
     7
 10
-453.66491612576482
 20
-0.4650000000000887
 30
0.0
 11
-453.66491612576482
 21
0.4650000000000034
 31
0.0
  0
LINE
  5
124
  8
1
 62
     7
 10
-457.22991612576487
 20
-3.100000000000108
 30
0.0
 11
-456.29991612576481
 21
-3.100000000000108
 31
0.0
  0
LINE
  5
125
  8
1
 62
     7
 10
-459.86491612576481
 20
0.4650000000000034
 30
0.0
 11
-459.86491612576481
 21
-0.4650000000000887
 31
0.0
  0
LINE
  5
126
  8
1
 62
     7
 10
-384.86491612576481
 20
-74.534999999999997
 30
0.0
 11
-384.86491612576481
 21
-75.465000000000003
 31
0.0
  0
LINE
  5
127
  8
1
 62
     7
 10
-381.29991612576481
 20
-71.90000000000002
 30
0.0
 11
-382.22991612576482
 21
-71.90000000000002
 31
0.0
  0
LINE
  5
128
  8
1
 62
     7
 10
-378.66491612576482
 20
-75.465000000000003
 30
0.0
 11
-378.66491612576482
 21
-74.534999999999997
 31
0.0
  0
LINE
  5
129
  8
1
 62
     7
 10
-382.22991612576482
 20
-78.09999999999998
 30
0.0
 11
-381.29991612576481
 21
-78.09999999999998
 31
0.0
  0
LINE
  5
12A
  8
1
 62
     7
 10
-307.22991612576482
 20
-3.100000000000108
 30
0.0
 11
-306.29991612576481
 21
-3.100000000000108
 31
0.0
  0
LINE
  5
12B
  8
1
 62
     7
 10
-309.86491612576481
 20
0.4650000000000034
 30
0.0
 11
-309.86491612576481
 21
-0.4650000000000887
 31
0.0
  0
LINE
  5
12C
  8
1
 62
     7
 10
-306.29991612576481
 20
3.099999999999993
 30
0.0
 11
-307.22991612576482
 21
3.099999999999993
 31
0.0
  0
LINE
  5
12D
  8
1
 62
     7
 10
-303.66491612576482
 20
-0.4650000000000887
 30
0.0
 11
-303.66491612576482
 21
0.4650000000000034
 31
0.0
  0
LINE
  5
12E
  8
1
 62
     7
 10
299.11572209782162
 20
152.0
 30
0.0
 11
310.11572209782139
 21
152.0
 31
0.0
  0
LINE
  5
12F
  8
1
 62
     7
 10
310.11572209782139
 20
152.0
 30
0.0
 11
321.11572209782128
 21
152.0
 31
0.0
  0
LINE
  5
130
  8
1
 62
     7
 10
296.11572209782162
 20
149.0
 30
0.0
 11
296.11572209782162
 21
129.7468689410268
 31
0.0
  0
LINE
  5
131
  8
1
 62
     7
 10
324.11572209782128
 20
149.0
 30
0.0
 11
324.11572209782128
 21
129.7468689410268
 31
0.0
  0
LINE
  5
132
  8
1
 62
     7
 10
0.0
 20
-25.0
 30
0.0
 11
65.0
 21
-25.0
 31
0.0
  0
LINE
  5
133
  8
1
 62
     7
 10
0.0
 20
30.0
 30
0.0
 11
65.0
 21
30.0
 31
0.0
  0
LINE
  5
134
  8
1
 62
     7
 10
0.0
 20
25.0
 30
0.0
 11
65.0
 21
25.0
 31
0.0
  0
LINE
  5
135
  8
1
 62
     7
 10
-369.26491612576501
 20
-37.201789096474599
 30
0.0
 11
-369.26491612576501
 21
-40.642346141747709
 31
0.0
  0
LINE
  5
136
  8
1
 62
     7
 10
-394.26491612576501
 20
-37.201789096474599
 30
0.0
 11
-394.26491612576501
 21
-40.642346141747709
 31
0.0
  0
LINE
  5
137
  8
1
 62
     7
 10
-374.26491612576501
 20
-36.742346141747703
 30
0.0
 11
-374.26491612576501
 21
-43.142346141747709
 31
0.0
  0
LINE
  5
138
  8
1
 62
     7
 10
-374.26491612576501
 20
-43.142346141747709
 30
0.0
 11
-371.76491612576501
 21
-43.142346141747709
 31
0.0
  0
LINE
  5
139
  8
1
 62
     7
 10
-389.26491612576501
 20
-36.742346141747703
 30
0.0
 11
-389.26491612576501
 21
-43.142346141747709
 31
0.0
  0
LINE
  5
13A
  8
1
 62
     7
 10
-389.26491612576501
 20
-43.142346141747709
 30
0.0
 11
-391.76491612576501
 21
-43.142346141747709
 31
0.0
  0
LINE
  5
13B
  8
1
 62
     7
 10
80.599999999999966
 20
96.208248456931571
 30
0.0
 11
80.599999999999966
 21
129.0
 31
0.0
  0
LINE
  5
13C
  8
1
 62
     7
 10
-246.68009706551589
 20
119.7641753905078
 30
0.0
 11
-243.35818358637709
 21
119.7641753905078
 31
0.0
  0
LINE
  5
13D
  8
1
 62
     7
 10
-243.35818358637709
 20
117.1416121175034
 30
0.0
 11
-243.35818358637709
 21
118.6217256157169
 31
0.0
  0
LINE
  5
13E
  8
1
 62
     7
 10
-247.20460972011711
 20
117.1416121175034
 30
0.0
 11
-242.85818358637709
 21
117.1416121175034
 31
0.0
  0
LINE
  5
13F
  8
1
 62
     7
 10
-247.20460972011711
 20
110.14811005615719
 30
0.0
 11
-242.85818358637709
 21
110.14811005615719
 31
0.0
  0
LINE
  5
140
  8
1
 62
     7
 10
-246.85818358637709
 20
118.6217256157169
 30
0.0
 11
-243.35818358637709
 21
118.6217256157169
 31
0.0
  0
LINE
  5
141
  8
1
 62
     7
 10
-246.85818358637709
 20
118.6217256157169
 30
0.0
 11
-246.85818358637709
 21
117.1416121175034
 31
0.0
  0
LINE
  5
142
  8
1
 62
     7
 10
-243.85818358637709
 20
119.7641753905078
 30
0.0
 11
-243.85818358637709
 21
118.6217256157169
 31
0.0
  0
LINE
  5
143
  8
1
 62
     7
 10
-246.35818358637709
 20
119.7641753905078
 30
0.0
 11
-246.35818358637709
 21
118.6217256157169
 31
0.0
  0
LINE
  5
144
  8
1
 62
     7
 10
-246.68009706551589
 20
119.7641753905078
 30
0.0
 11
-246.85818358637709
 21
119.7641753905078
 31
0.0
  0
LINE
  5
145
  8
1
 62
     7
 10
-246.85818358637709
 20
119.7641753905078
 30
0.0
 11
-246.85818358637709
 21
120.6217256157169
 31
0.0
  0
LINE
  5
146
  8
1
 62
     7
 10
-246.35818358637709
 20
122.92709990192159
 30
0.0
 11
-246.85818358637709
 21
120.6217256157169
 31
0.0
  0
LINE
  5
147
  8
1
 62
     7
 10
-243.85818358637709
 20
122.92709990192159
 30
0.0
 11
-243.35818358637709
 21
120.6217256157169
 31
0.0
  0
LINE
  5
148
  8
1
 62
     7
 10
-246.35818358637709
 20
122.92709990192159
 30
0.0
 11
-243.85818358637709
 21
122.92709990192159
 31
0.0
  0
LINE
  5
149
  8
1
 62
     7
 10
-243.35818358637709
 20
120.6217256157169
 30
0.0
 11
-243.35818358637709
 21
119.7641753905078
 31
0.0
  0
LINE
  5
14A
  8
1
 62
     7
 10
-242.85818358637709
 20
117.1416121175034
 30
0.0
 11
-242.85818358637709
 21
110.14811005615719
 31
0.0
  0
LINE
  5
14B
  8
1
 62
     7
 10
-247.20460972011711
 20
117.1416121175034
 30
0.0
 11
-247.35818358637709
 21
117.1416121175034
 31
0.0
  0
LINE
  5
14C
  8
1
 62
     7
 10
-247.20460972011711
 20
110.14811005615719
 30
0.0
 11
-247.35818358637709
 21
110.14811005615719
 31
0.0
  0
LINE
  5
14D
  8
1
 62
     7
 10
-247.35818358637709
 20
117.1416121175034
 30
0.0
 11
-247.35818358637709
 21
110.14811005615719
 31
0.0
  0
LINE
  5
14E
  8
1
 62
     7
 10
-236.25740291360489
 20
109.10123101764491
 30
0.0
 11
-234.3978275906893
 21
115.8429704593952
 31
0.0
  0
LINE
  5
14F
  8
1
 62
     7
 10
-236.25740291360489
 20
109.10123101764491
 30
0.0
 11
-236.40544819654141
 21
109.1420663773025
 31
0.0
  0
LINE
  5
150
  8
1
 62
     7
 10
-234.3978275906893
 20
115.8429704593952
 30
0.0
 11
-234.5458728736256
 21
115.88380581905299
 31
0.0
  0
LINE
  5
151
  8
1
 62
     7
 10
-240.5954051364908
 20
110.2977830283136
 30
0.0
 11
-238.73582981357549
 21
117.0395224700641
 31
0.0
  0
LINE
  5
152
  8
1
 62
     7
 10
-237.55648882049451
 20
119.4347245373128
 30
0.0
 11
-237.32846583244509
 21
120.26140337802239
 31
0.0
  0
LINE
  5
153
  8
1
 62
     7
 10
-236.23346553267959
 20
122.3508351053129
 30
0.0
 11
-233.8234642977429
 21
121.6860839882744
 31
0.0
  0
LINE
  5
154
  8
1
 62
     7
 10
-237.32846583244509
 20
120.26140337802239
 30
0.0
 11
-236.23346553267959
 21
122.3508351053129
 31
0.0
  0
LINE
  5
155
  8
1
 62
     7
 10
-233.95446410353361
 20
119.33075181416871
 30
0.0
 11
-233.8234642977429
 21
121.6860839882744
 31
0.0
  0
LINE
  5
156
  8
1
 62
     7
 10
-233.95446410353361
 20
119.33075181416871
 30
0.0
 11
-234.18248709158331
 21
118.5040729734591
 31
0.0
  0
LINE
  5
157
  8
1
 62
     7
 10
-234.18248709158331
 20
118.5040729734591
 30
0.0
 11
-234.3541625856638
 21
118.551426258928
 31
0.0
  0
LINE
  5
158
  8
1
 62
     7
 10
-234.9682652441515
 20
117.53570104962699
 30
0.0
 11
-234.66448733857081
 21
118.63702319686691
 31
0.0
  0
LINE
  5
159
  8
1
 62
     7
 10
-237.3782664790885
 20
118.2004521666653
 30
0.0
 11
-237.07448857350749
 21
119.3017743139052
 31
0.0
  0
LINE
  5
15A
  8
1
 62
     7
 10
-234.87982783767649
 20
115.97592068280289
 30
0.0
 11
-234.4862649971644
 21
117.4027508262192
 31
0.0
  0
LINE
  5
15B
  8
1
 62
     7
 10
-237.86026672607579
 20
118.33340239007291
 30
0.0
 11
-234.4862649971644
 21
117.4027508262192
 31
0.0
  0
LINE
  5
15C
  8
1
 62
     7
 10
-240.5954051364908
 20
110.2977830283136
 30
0.0
 11
-236.40544819654141
 21
109.1420663773025
 31
0.0
  0
LINE
  5
15D
  8
1
 62
     7
 10
-238.73582981357549
 20
117.0395224700641
 30
0.0
 11
-234.5458728736256
 21
115.88380581905299
 31
0.0
  0
LINE
  5
15E
  8
1
 62
     7
 10
-237.86026672607579
 20
118.33340239007291
 30
0.0
 11
-238.25382956658811
 21
116.90657224665649
 31
0.0
  0
LINE
  5
15F
  8
1
 62
     7
 10
-237.55648882049451
 20
119.4347245373128
 30
0.0
 11
-234.3541625856638
 21
118.551426258928
 31
0.0
  0
LINE
  5
160
  8
1
 62
     7
 10
-311.53835265216247
 20
77.297631285468086
 30
0.0
 11
-299.51753737199101
 21
89.318446565639306
 31
0.0
  0
LINE
  5
161
  8
1
 62
     7
 10
-299.51753737199101
 20
89.318446565639306
 30
0.0
 11
-292.44646956012542
 21
82.247378753773745
 31
0.0
  0
LINE
  5
162
  8
1
 62
     7
 10
-304.46728484029688
 20
70.226563473602567
 30
0.0
 11
-292.44646956012542
 21
82.247378753773745
 31
0.0
  0
LINE
  5
163
  8
1
 62
     7
 10
-311.53835265216247
 20
77.297631285468086
 30
0.0
 11
-304.46728484029688
 21
70.226563473602567
 31
0.0
  0
LINE
  5
164
  8
1
 62
     7
 10
-303.2477791428106
 20
75.12302443325872
 30
0.0
 11
-302.73866226035631
 21
75.632141315712985
 31
0.0
  0
LINE
  5
165
  8
1
 62
     7
 10
-306.64189169250608
 20
75.632141315712914
 30
0.0
 11
-306.13277481005213
 21
75.123024433258749
 31
0.0
  0
LINE
  5
166
  8
1
 62
     7
 10
-306.13277481005213
 20
79.026253865408449
 30
0.0
 11
-306.64189169250631
 21
78.51713698295417
 31
0.0
  0
LINE
  5
167
  8
1
 62
     7
 10
-302.73866226035659
 20
78.517136982954185
 30
0.0
 11
-303.2477791428106
 21
79.02625386540835
 31
0.0
  0
LINE
  5
168
  8
1
 62
     7
 10
6.8000000000000123
 20
97.999999999999972
 30
0.0
 11
1.1999999999998741
 21
97.999999999999972
 31
0.0
  0
LINE
  5
169
  8
1
 62
     7
 10
1.1999999999998741
 20
97.999999999999972
 30
0.0
 11
0.8000000000000113
 21
98.692820323027519
 31
0.0
  0
LINE
  5
16A
  8
1
 62
     7
 10
0.8000000000000113
 20
98.692820323027519
 30
0.0
 11
0.8000000000000113
 21
107.3071796769724
 31
0.0
  0
LINE
  5
16B
  8
1
 62
     7
 10
0.8000000000000113
 20
107.3071796769724
 30
0.0
 11
1.1999999999998741
 21
108.0
 31
0.0
  0
LINE
  5
16C
  8
1
 62
     7
 10
1.1999999999998741
 20
108.0
 30
0.0
 11
6.8000000000000123
 21
108.0
 31
0.0
  0
LINE
  5
16D
  8
1
 62
     7
 10
1.1999999999998741
 20
97.999999999999972
 30
0.0
 11
1.1999999999998741
 21
108.0
 31
0.0
  0
LINE
  5
16E
  8
1
 62
     7
 10
-396.76491612576501
 20
105.886751345948
 30
0.0
 11
-399.26491612576501
 21
104.4433756729739
 31
0.0
  0
LINE
  5
16F
  8
1
 62
     7
 10
-399.26491612576501
 20
104.4433756729739
 30
0.0
 11
-399.26491612576501
 21
101.5566243270259
 31
0.0
  0
LINE
  5
170
  8
1
 62
     7
 10
-399.26491612576501
 20
101.5566243270259
 30
0.0
 11
-396.76491612576501
 21
100.1132486540518
 31
0.0
  0
LINE
  5
171
  8
1
 62
     7
 10
-396.76491612576501
 20
100.1132486540518
 30
0.0
 11
-394.26491612576501
 21
101.5566243270259
 31
0.0
  0
LINE
  5
172
  8
1
 62
     7
 10
-394.26491612576501
 20
101.5566243270259
 30
0.0
 11
-394.26491612576501
 21
104.4433756729739
 31
0.0
  0
LINE
  5
173
  8
1
 62
     7
 10
-394.26491612576501
 20
104.4433756729739
 30
0.0
 11
-396.76491612576501
 21
105.886751345948
 31
0.0
  0
LINE
  5
174
  8
1
 62
     7
 10
-366.76491612576501
 20
105.886751345948
 30
0.0
 11
-369.26491612576501
 21
104.4433756729739
 31
0.0
  0
LINE
  5
175
  8
1
 62
     7
 10
-369.26491612576501
 20
104.4433756729739
 30
0.0
 11
-369.26491612576501
 21
101.5566243270259
 31
0.0
  0
LINE
  5
176
  8
1
 62
     7
 10
-369.26491612576501
 20
101.5566243270259
 30
0.0
 11
-366.76491612576501
 21
100.1132486540518
 31
0.0
  0
LINE
  5
177
  8
1
 62
     7
 10
-366.76491612576501
 20
100.1132486540518
 30
0.0
 11
-364.26491612576501
 21
101.5566243270259
 31
0.0
  0
LINE
  5
178
  8
1
 62
     7
 10
-364.26491612576501
 20
101.5566243270259
 30
0.0
 11
-364.26491612576501
 21
104.4433756729739
 31
0.0
  0
LINE
  5
179
  8
1
 62
     7
 10
-364.26491612576501
 20
104.4433756729739
 30
0.0
 11
-366.76491612576501
 21
105.886751345948
 31
0.0
  0
LINE
  5
17A
  8
1
  6
DASHDOT
 62
     3
 10
-369.26491612576501
 20
0.0
 30
0.0
 11
-394.26491612576501
 21
0.0
 31
0.0
  0
LINE
  5
17B
  8
1
  6
DASHDOT
 62
     3
 10
-381.76491612576501
 20
12.5
 30
0.0
 11
-381.76491612576501
 21
-12.5
 31
0.0
  0
LINE
  5
17C
  8
1
 62
     7
 10
6.8000000000000123
 20
80.499999999999972
 30
0.0
 11
6.8000000000000123
 21
69.499999999999972
 31
0.0
  0
LINE
  5
17D
  8
1
 62
     7
 10
5.2729840457664627
 20
80.249999999999957
 30
0.0
 11
6.5
 21
80.249999999999957
 31
0.0
  0
LINE
  5
17E
  8
1
 62
     7
 10
6.5
 20
69.749999999999972
 30
0.0
 11
5.2729840457664627
 21
69.749999999999972
 31
0.0
  0
LINE
  5
17F
  8
1
 62
     7
 10
7.3999999999999773
 20
-80.5
 30
0.0
 11
6.8000000000000123
 21
-80.5
 31
0.0
  0
LINE
  5
180
  8
1
 62
     7
 10
7.3999999999999773
 20
-80.5
 30
0.0
 11
6.8000000000000123
 21
-80.5
 31
0.0
  0
LINE
  5
181
  8
1
 62
     7
 10
6.8000000000000123
 20
-69.5
 30
0.0
 11
7.3999999999999773
 21
-69.5
 31
0.0
  0
LINE
  5
182
  8
1
 62
     7
 10
6.8000000000000123
 20
-69.5
 30
0.0
 11
6.8000000000000123
 21
-80.5
 31
0.0
  0
LINE
  5
183
  8
1
 62
     7
 10
5.2729840457664627
 20
-69.75
 30
0.0
 11
6.5
 21
-69.75
 31
0.0
  0
LINE
  5
184
  8
1
 62
     7
 10
6.5
 20
-80.25
 30
0.0
 11
5.2729840457664627
 21
-80.25
 31
0.0
  0
LINE
  5
185
  8
1
 62
     7
 10
35.0
 20
37.5
 30
0.0
 11
35.0
 21
64.999999999999972
 31
0.0
  0
LINE
  5
186
  8
1
 62
     7
 10
35.0
 20
-37.5
 30
0.0
 11
35.0
 21
-65.0
 31
0.0
  0
LINE
  5
187
  8
1
 62
     7
 10
79.199999999999875
 20
-66.0
 30
0.0
 11
79.199999999999875
 21
88.999999999999957
 31
0.0
  0
LINE
  5
188
  8
1
 62
     7
 10
81.199999999999875
 20
-76.0
 30
0.0
 11
81.199999999999875
 21
-129.0
 31
0.0
  0
LINE
  5
189
  8
1
 62
     7
 10
78.599999999999966
 20
-130.49999999999989
 30
0.0
 11
78.599999999999966
 21
-90.0
 31
0.0
  0
LINE
  5
18A
  8
1
 62
     7
 10
36.0
 20
-46.0
 30
0.0
 11
35.0
 21
-45.0
 31
0.0
  0
LINE
  5
18B
  8
1
 62
     7
 10
65.599999999999966
 20
130.49999999999989
 30
0.0
 11
65.599999999999966
 21
-130.49999999999989
 31
0.0
  0
LINE
  5
18C
  8
1
 62
     7
 10
65.0
 20
-130.0
 30
0.0
 11
65.0
 21
130.0
 31
0.0
  0
LINE
  5
18D
  8
1
  6
DASHDOT
 62
     3
 10
389.1157220978215
 20
0.0
 30
0.0
 11
373.11572209782139
 21
0.0
 31
0.0
  0
LINE
  5
18E
  8
1
  6
DASHDOT
 62
     3
 10
365.97715781155881
 20
55.861435713737251
 30
0.0
 11
354.66344931257402
 21
44.54772721475247
 31
0.0
  0
LINE
  5
18F
  8
1
  6
DASHDOT
 62
     3
 10
310.1157220978215
 20
79.0
 30
0.0
 11
310.1157220978215
 21
63.0
 31
0.0
  0
LINE
  5
190
  8
1
  6
DASHDOT
 62
     3
 10
254.2542863840842
 20
55.861435713737251
 30
0.0
 11
265.56799488306899
 21
44.547727214752499
 31
0.0
  0
LINE
  5
191
  8
1
  6
DASHDOT
 62
     3
 10
231.11572209782139
 20
0.0
 30
0.0
 11
247.1157220978215
 21
0.0
 31
0.0
  0
LINE
  5
192
  8
1
  6
DASHDOT
 62
     3
 10
254.2542863840842
 20
-55.861435713737251
 30
0.0
 11
265.56799488306899
 21
-44.54772721475247
 31
0.0
  0
LINE
  5
193
  8
1
  6
DASHDOT
 62
     3
 10
310.1157220978215
 20
-79.0
 30
0.0
 11
310.1157220978215
 21
-63.0
 31
0.0
  0
LINE
  5
194
  8
1
  6
DASHDOT
 62
     3
 10
365.97715781155881
 20
-55.861435713737279
 30
0.0
 11
354.66344931257379
 21
-44.547727214752513
 31
0.0
  0
LINE
  5
195
  8
1
  6
DASHDOT
 62
     3
 10
322.6157220978215
 20
0.0
 30
0.0
 11
297.6157220978215
 21
0.0
 31
0.0
  0
LINE
  5
196
  8
1
  6
DASHDOT
 62
     3
 10
310.1157220978215
 20
12.49999999999997
 30
0.0
 11
310.1157220978215
 21
-12.49999999999997
 31
0.0
  0
LINE
  5
197
  8
1
 62
     3
 10
0.0
 20
0.0
 30
0.0
 11
-7.0
 21
0.0
 31
0.0
  0
LINE
  5
198
  8
1
  6
DASHDOT
 62
     3
 10
-373.51491612576501
 20
140.0
 30
0.0
 11
-390.01491612576501
 21
140.0
 31
0.0
  0
LINE
  5
199
  8
1
  6
DASHDOT
 62
     3
 10
-381.76491612576501
 20
148.24999999999989
 30
0.0
 11
-381.76491612576501
 21
131.75
 31
0.0
  0
LINE
  5
19A
  8
1
 62
     7
 10
-78.237914328957231
 20
88.999999999999957
 30
0.0
 11
-78.837914328957211
 21
95.858031381656403
 31
0.0
  0
LINE
  5
19B
  8
1
 62
     7
 10
-76.860914677730193
 20
96.208248456931571
 30
0.0
 11
-76.237914328957231
 21
88.999999999999957
 31
0.0
  0
LINE
  5
19C
  8
1
 62
     7
 10
-78.837914328957211
 20
129.0
 30
0.0
 11
-76.860914677730193
 21
129.0
 31
0.0
  0
LINE
  5
19D
  8
1
 62
     3
 10
-69.237914328957217
 20
0.0
 30
0.0
 11
-76.237914328957231
 21
0.0
 31
0.0
  0
LINE
  5
19E
  8
1
 62
     7
 10
-143.43791432895731
 20
121.5
 30
0.0
 11
-119.43791432895721
 21
121.5
 31
0.0
  0
LINE
  5
19F
  8
1
 62
     7
 10
-147.43791432895719
 20
116.9939654257124
 30
0.0
 11
-147.43791432895719
 21
117.5
 31
0.0
  0
LINE
  5
1A0
  8
1
 62
     7
 10
-150.63791432895721
 20
152.0
 30
0.0
 11
-147.43791432895719
 21
152.0
 31
0.0
  0
LINE
  5
1A1
  8
1
 62
     7
 10
-117.43791432895721
 20
-130.0
 30
0.0
 11
-92.43791432895722
 21
-130.0
 31
0.0
  0
LINE
  5
1A2
  8
1
 62
     7
 10
-157.43791432895731
 20
-36.5
 30
0.0
 11
-157.43791432895731
 21
36.5
 31
0.0
  0
LINE
  5
1A3
  8
1
 62
     7
 10
-117.43791432895721
 20
-130.0
 30
0.0
 11
-119.43791432895721
 21
-128.0
 31
0.0
  0
LINE
  5
1A4
  8
1
 62
     7
 10
-157.43791432895731
 20
-36.5
 30
0.0
 11
-156.43791432895731
 21
-37.5
 31
0.0
  0
LINE
  5
1A5
  8
1
 62
     7
 10
-143.43791432895731
 20
-121.5
 30
0.0
 11
-119.43791432895721
 21
-121.5
 31
0.0
  0
LINE
  5
1A6
  8
1
 62
     7
 10
-147.43791432895719
 20
-117.5
 30
0.0
 11
-147.43791432895719
 21
126.3028479456905
 31
0.0
  0
LINE
  5
1A7
  8
1
 62
     7
 10
-143.43791432895731
 20
-121.5
 30
0.0
 11
-147.43791432895719
 21
-117.5
 31
0.0
  0
LINE
  5
1A8
  8
1
 62
     7
 10
-147.43791432895719
 20
-82.5
 30
0.0
 11
-150.0379143289571
 21
-82.5
 31
0.0
  0
LINE
  5
1A9
  8
1
 62
     7
 10
-156.43791432895731
 20
-37.5
 30
0.0
 11
-150.0379143289571
 21
-37.5
 31
0.0
  0
LINE
  5
1AA
  8
1
 62
     7
 10
-119.43791432895721
 20
-128.0
 30
0.0
 11
-119.43791432895721
 21
128.0
 31
0.0
  0
LINE
  5
1AB
  8
1
 62
     7
 10
-150.0379143289571
 20
-82.5
 30
0.0
 11
-150.0379143289571
 21
72.824639149333606
 31
0.0
  0
LINE
  5
1AC
  8
1
 62
     7
 10
-150.0379143289571
 20
69.499999999999972
 30
0.0
 11
-150.63791432895721
 21
69.499999999999972
 31
0.0
  0
LINE
  5
1AD
  8
1
 62
     7
 10
-150.0379143289571
 20
69.499999999999972
 30
0.0
 11
-150.63791432895721
 21
69.499999999999972
 31
0.0
  0
LINE
  5
1AE
  8
1
 62
     7
 10
-150.0379143289571
 20
37.5
 30
0.0
 11
-156.43791432895731
 21
37.5
 31
0.0
  0
LINE
  5
1AF
  8
1
 62
     7
 10
-147.43791432895719
 20
117.5
 30
0.0
 11
-143.43791432895731
 21
121.5
 31
0.0
  0
LINE
  5
1B0
  8
1
 62
     7
 10
-156.43791432895731
 20
37.5
 30
0.0
 11
-157.43791432895731
 21
36.5
 31
0.0
  0
LINE
  5
1B1
  8
1
 62
     7
 10
-119.43791432895721
 20
128.0
 30
0.0
 11
-117.43791432895721
 21
130.0
 31
0.0
  0
LINE
  5
1B2
  8
1
 62
     7
 10
-92.43791432895722
 20
130.0
 30
0.0
 11
-117.43791432895721
 21
130.0
 31
0.0
  0
LINE
  5
1B3
  8
1
 62
     7
 10
-91.837914328957197
 20
130.49999999999989
 30
0.0
 11
-78.837914328957211
 21
130.49999999999989
 31
0.0
  0
LINE
  5
1B4
  8
1
 62
     7
 10
-78.237914328957231
 20
88.999999999999957
 30
0.0
 11
-78.837914328957211
 21
88.999999999999957
 31
0.0
  0
LINE
  5
1B5
  8
1
 62
     7
 10
-78.837914328957211
 20
-130.49999999999989
 30
0.0
 11
-91.837914328957197
 21
-130.49999999999989
 31
0.0
  0
LINE
  5
1B6
  8
1
 62
     7
 10
-78.237914328957231
 20
-129.0
 30
0.0
 11
-78.237914328957231
 21
88.999999999999957
 31
0.0
  0
LINE
  5
1B7
  8
1
 62
     7
 10
-78.237914328957231
 20
-129.0
 30
0.0
 11
-76.237914328957231
 21
-129.0
 31
0.0
  0
LINE
  5
1B8
  8
1
 62
     7
 10
-62.137914328957208
 20
-76.0
 30
0.0
 11
-61.137914328957208
 21
-75.0
 31
0.0
  0
LINE
  5
1B9
  8
1
 62
     7
 10
-61.137914328957208
 20
-75.0
 30
0.0
 11
-61.137914328957208
 21
-67.0
 31
0.0
  0
LINE
  5
1BA
  8
1
 62
     7
 10
-61.137914328957208
 20
-67.0
 30
0.0
 11
-62.137914328957208
 21
-66.0
 31
0.0
  0
LINE
  5
1BB
  8
1
 62
     7
 10
-62.137914328957208
 20
-66.0
 30
0.0
 11
-76.237914328957231
 21
-66.0
 31
0.0
  0
LINE
  5
1BC
  8
1
 62
     7
 10
-62.137914328957208
 20
-76.0
 30
0.0
 11
-62.137914328957208
 21
-66.0
 31
0.0
  0
LINE
  5
1BD
  8
1
 62
     3
 10
-61.137914328957208
 20
-75.0
 30
0.0
 11
-76.237914328957231
 21
-75.0
 31
0.0
  0
LINE
  5
1BE
  8
1
 62
     3
 10
-61.137914328957208
 20
-67.0
 30
0.0
 11
-76.237914328957231
 21
-67.0
 31
0.0
  0
LINE
  5
1BF
  8
1
 62
     7
 10
-76.860914677730193
 20
96.208248456931571
 30
0.0
 11
-76.860914677730193
 21
129.0
 31
0.0
  0
LINE
  5
1C0
  8
1
 62
     7
 10
-156.63791432895721
 20
98.692820323027519
 30
0.0
 11
-156.63791432895721
 21
107.3071796769724
 31
0.0
  0
LINE
  5
1C1
  8
1
 62
     7
 10
-156.63791432895721
 20
107.3071796769724
 30
0.0
 11
-156.2379143289572
 21
108.0
 31
0.0
  0
LINE
  5
1C2
  8
1
 62
     7
 10
-156.2379143289572
 20
108.0
 30
0.0
 11
-155.43791432895731
 21
108.0
 31
0.0
  0
LINE
  5
1C3
  8
1
 62
     7
 10
-150.93791432895731
 20
69.749999999999972
 30
0.0
 11
-151.8721571579411
 21
69.749999999999972
 31
0.0
  0
LINE
  5
1C4
  8
1
 62
     7
 10
-150.0379143289571
 20
-80.5
 30
0.0
 11
-150.63791432895721
 21
-80.5
 31
0.0
  0
LINE
  5
1C5
  8
1
 62
     7
 10
-150.0379143289571
 20
-80.5
 30
0.0
 11
-150.63791432895721
 21
-80.5
 31
0.0
  0
LINE
  5
1C6
  8
1
 62
     7
 10
-150.63791432895721
 20
-69.5
 30
0.0
 11
-150.0379143289571
 21
-69.5
 31
0.0
  0
LINE
  5
1C7
  8
1
 62
     7
 10
-150.63791432895721
 20
-69.5
 30
0.0
 11
-150.63791432895721
 21
-80.5
 31
0.0
  0
LINE
  5
1C8
  8
1
 62
     7
 10
-152.1649302831905
 20
-69.75
 30
0.0
 11
-150.93791432895731
 21
-69.75
 31
0.0
  0
LINE
  5
1C9
  8
1
 62
     7
 10
-150.93791432895731
 20
-80.25
 30
0.0
 11
-152.1649302831905
 21
-80.25
 31
0.0
  0
LINE
  5
1CA
  8
1
 62
     7
 10
-91.837914328957197
 20
130.49999999999989
 30
0.0
 11
-91.837914328957197
 21
-130.49999999999989
 31
0.0
  0
LINE
  5
1CB
  8
1
 62
     7
 10
-92.43791432895722
 20
-130.0
 30
0.0
 11
-92.43791432895722
 21
130.0
 31
0.0
  0
LINE
  5
1CC
  8
1
 62
     3
 10
-157.43791432895731
 20
0.0
 30
0.0
 11
-164.43791432895731
 21
0.0
 31
0.0
  0
LINE
  5
1CD
  8
1
 62
     7
 10
7.3999999999999773
 20
37.5
 30
0.0
 11
7.3999999999999773
 21
82.499999999999986
 31
0.0
  0
LINE
  5
1CE
  8
1
 62
     7
 10
7.3999999999999773
 20
-37.5
 30
0.0
 11
7.3999999999999773
 21
-82.5
 31
0.0
  0
LINE
  5
1CF
  8
1
 62
     7
 10
-78.837914328957211
 20
-130.49999999999989
 30
0.0
 11
-78.837914328957211
 21
130.49999999999989
 31
0.0
  0
LINE
  5
1D0
  8
1
 62
     7
 10
-76.237914328957231
 20
-129.0
 30
0.0
 11
-76.237914328957231
 21
88.999999999999957
 31
0.0
  0
LINE
  5
1D1
  8
1
 62
     7
 10
-76.237914328957231
 20
-76.0
 30
0.0
 11
-62.137914328957208
 21
-76.0
 31
0.0
  0
LINE
  5
1D2
  8
1
 62
     7
 10
-78.837914328957211
 20
-89.0
 30
0.0
 11
-78.237914328957231
 21
-89.0
 31
0.0
  0
LINE
  5
1D3
  8
1
  6
DASHDOT
 62
     3
 10
-81.837914328957226
 20
-71.0
 30
0.0
 11
-58.137914328957223
 21
-71.0
 31
0.0
  0
LINE
  5
1D4
  8
1
 62
     7
 10
-154.1685471911741
 20
86.96191599886663
 30
0.0
 11
-150.9996519478434
 21
88.945911017735995
 31
0.0
  0
LINE
  5
1D5
  8
1
 62
     7
 10
-154.63788763602409
 20
86.114330937337058
 30
0.0
 11
-154.63788763602409
 21
79.242174933730951
 31
0.0
  0
LINE
  5
1D6
  8
1
 62
     7
 10
-153.43791432895731
 20
120.8585178512089
 30
0.0
 11
-153.43791432895731
 21
101.26233483049501
 31
0.0
  0
LINE
  5
1D7
  8
1
 62
     7
 10
-155.43791432895731
 20
120.8585178512089
 30
0.0
 11
-155.43791432895731
 21
101.26233483049501
 31
0.0
  0
LINE
  5
1D8
  8
1
 62
     7
 10
-148.8582473747858
 20
91.999999999999943
 30
0.0
 11
-147.43791432895719
 21
91.999999999999943
 31
0.0
  0
LINE
  5
1D9
  8
1
 62
     7
 10
-156.46691353418939
 20
98.396638258355011
 30
0.0
 11
-156.63791432895721
 21
98.692820323027519
 31
0.0
  0
LINE
  5
1DA
  8
1
 62
     7
 10
-156.2379143289572
 20
98.806057456758197
 30
0.0
 11
-156.2379143289572
 21
108.0
 31
0.0
  0
LINE
  5
1DB
  8
1
 62
     7
 10
-150.63791432895721
 20
97.949133691112195
 30
0.0
 11
-150.63791432895721
 21
125.34850671533771
 31
0.0
  0
LINE
  5
1DC
  8
1
 62
     7
 10
-153.43791432895731
 20
108.0
 30
0.0
 11
-150.63791432895721
 21
108.0
 31
0.0
  0
LINE
  5
1DD
  8
1
 62
     7
 10
-130.43791432895719
 20
124.5
 30
0.0
 11
-130.43791432895719
 21
121.5
 31
0.0
  0
LINE
  5
1DE
  8
1
 62
     7
 10
-132.43791432895719
 20
124.5
 30
0.0
 11
-132.43791432895719
 21
121.5
 31
0.0
  0
LINE
  5
1DF
  8
1
 62
     7
 10
-138.57925548731461
 20
130.74707078915151
 30
0.0
 11
-150.24964764467489
 21
127.61999863523241
 31
0.0
  0
LINE
  5
1E0
  8
1
 62
     7
 10
-138.06161739710959
 20
128.8152191365734
 30
0.0
 11
-149.7320095544699
 21
125.6881469826543
 31
0.0
  0
LINE
  5
1E1
  8
1
 62
     7
 10
-150.63791432895721
 20
127.5159628907309
 30
0.0
 11
-150.63791432895721
 21
152.0
 31
0.0
  0
LINE
  5
1E2
  8
1
 62
     7
 10
-147.43791432895719
 20
128.3734003065106
 30
0.0
 11
-147.43791432895719
 21
152.0
 31
0.0
  0
LINE
  5
1E3
  8
1
 62
     7
 10
-171.43791432895731
 20
118.6217256157169
 30
0.0
 11
-171.43791432895731
 21
117.1416121175034
 31
0.0
  0
LINE
  5
1E4
  8
1
 62
     7
 10
-171.93791432895731
 20
117.1416121175034
 30
0.0
 11
-167.43791432895731
 21
117.1416121175034
 31
0.0
  0
LINE
  5
1E5
  8
1
 62
     7
 10
-171.93791432895731
 20
110.14811005615719
 30
0.0
 11
-167.43791432895731
 21
110.14811005615719
 31
0.0
  0
LINE
  5
1E6
  8
1
 62
     7
 10
-171.43791432895731
 20
118.6217256157169
 30
0.0
 11
-167.93791432895731
 21
118.6217256157169
 31
0.0
  0
LINE
  5
1E7
  8
1
 62
     7
 10
-167.93791432895731
 20
117.1416121175034
 30
0.0
 11
-167.93791432895731
 21
118.6217256157169
 31
0.0
  0
LINE
  5
1E8
  8
1
 62
     7
 10
-170.93791432895731
 20
118.6217256157169
 30
0.0
 11
-170.93791432895731
 21
119.7641753905078
 31
0.0
  0
LINE
  5
1E9
  8
1
 62
     7
 10
-168.43791432895731
 20
118.6217256157169
 30
0.0
 11
-168.43791432895731
 21
119.7641753905078
 31
0.0
  0
LINE
  5
1EA
  8
1
 62
     7
 10
-167.93791432895731
 20
119.7641753905078
 30
0.0
 11
-171.43791432895731
 21
119.7641753905078
 31
0.0
  0
LINE
  5
1EB
  8
1
 62
     7
 10
-167.93791432895731
 20
120.6217256157169
 30
0.0
 11
-167.93791432895731
 21
119.7641753905078
 31
0.0
  0
LINE
  5
1EC
  8
1
 62
     7
 10
-167.93791432895731
 20
120.6217256157169
 30
0.0
 11
-168.43791432895731
 21
122.92709990192159
 31
0.0
  0
LINE
  5
1ED
  8
1
 62
     7
 10
-171.43791432895731
 20
120.6217256157169
 30
0.0
 11
-170.93791432895731
 21
122.92709990192159
 31
0.0
  0
LINE
  5
1EE
  8
1
 62
     7
 10
-170.93791432895731
 20
122.92709990192159
 30
0.0
 11
-168.43791432895731
 21
122.92709990192159
 31
0.0
  0
LINE
  5
1EF
  8
1
 62
     7
 10
-171.43791432895731
 20
119.7641753905078
 30
0.0
 11
-171.43791432895731
 21
120.6217256157169
 31
0.0
  0
LINE
  5
1F0
  8
1
 62
     7
 10
-171.93791432895731
 20
110.14811005615719
 30
0.0
 11
-171.93791432895731
 21
117.1416121175034
 31
0.0
  0
LINE
  5
1F1
  8
1
 62
     7
 10
-167.43791432895731
 20
110.14811005615719
 30
0.0
 11
-167.43791432895731
 21
117.1416121175034
 31
0.0
  0
LINE
  5
1F2
  8
1
 62
     7
 10
-180.3982703246451
 20
115.8429704593952
 30
0.0
 11
-178.53869500172951
 21
109.10123101764491
 31
0.0
  0
LINE
  5
1F3
  8
1
 62
     7
 10
-176.06026810175891
 20
117.0395224700641
 30
0.0
 11
-174.2006927788436
 21
110.2977830283136
 31
0.0
  0
LINE
  5
1F4
  8
1
 62
     7
 10
-177.46763208288939
 20
120.26140337802239
 30
0.0
 11
-177.23960909483981
 21
119.4347245373128
 31
0.0
  0
LINE
  5
1F5
  8
1
 62
     7
 10
-180.9726336175915
 20
121.6860839882744
 30
0.0
 11
-178.5626323826549
 21
122.3508351053129
 31
0.0
  0
LINE
  5
1F6
  8
1
 62
     7
 10
-178.5626323826549
 20
122.3508351053129
 30
0.0
 11
-177.46763208288939
 21
120.26140337802239
 31
0.0
  0
LINE
  5
1F7
  8
1
 62
     7
 10
-180.9726336175915
 20
121.6860839882744
 30
0.0
 11
-180.8416338118007
 21
119.33075181416871
 31
0.0
  0
LINE
  5
1F8
  8
1
 62
     7
 10
-180.61361082375109
 20
118.5040729734591
 30
0.0
 11
-180.8416338118007
 21
119.33075181416871
 31
0.0
  0
LINE
  5
1F9
  8
1
 62
     7
 10
-180.13161057676359
 20
118.63702319686691
 30
0.0
 11
-179.82783267118279
 21
117.53570104962699
 31
0.0
  0
LINE
  5
1FA
  8
1
 62
     7
 10
-177.72160934182679
 20
119.3017743139052
 30
0.0
 11
-177.4178314362459
 21
118.2004521666653
 31
0.0
  0
LINE
  5
1FB
  8
1
 62
     7
 10
-180.30983291817
 20
117.4027508262192
 30
0.0
 11
-179.91627007765791
 21
115.97592068280289
 31
0.0
  0
LINE
  5
1FC
  8
1
 62
     7
 10
-180.30983291817
 20
117.4027508262192
 30
0.0
 11
-176.93583118925861
 21
118.33340239007291
 31
0.0
  0
LINE
  5
1FD
  8
1
 62
     7
 10
-174.2006927788436
 20
110.2977830283136
 30
0.0
 11
-178.53869500172951
 21
109.10123101764491
 31
0.0
  0
LINE
  5
1FE
  8
1
 62
     7
 10
-176.06026810175891
 20
117.0395224700641
 30
0.0
 11
-180.3982703246451
 21
115.8429704593952
 31
0.0
  0
LINE
  5
1FF
  8
1
 62
     7
 10
-176.54226834874621
 20
116.90657224665649
 30
0.0
 11
-176.93583118925861
 21
118.33340239007291
 31
0.0
  0
LINE
  5
200
  8
1
 62
     7
 10
-177.23960909483981
 20
119.4347245373128
 30
0.0
 11
-180.61361082375109
 21
118.5040729734591
 31
0.0
  0
LINE
  5
201
  8
1
 62
     7
 10
-150.03791096627251
 20
81.270885221130598
 30
0.0
 11
-150.03791096627199
 21
75.110784178938829
 31
0.0
  0
LINE
  5
202
  8
1
 62
     7
 10
-152.03791096627251
 20
80.018716962779465
 30
0.0
 11
-152.0379109662716
 21
75.110784178938829
 31
0.0
  0
LINE
  5
203
  8
1
 62
     7
 10
-150.63791432895729
 20
71.926276721123969
 30
0.0
 11
-150.63791432895721
 21
69.499999999999972
 31
0.0
  0
LINE
  5
204
  8
1
 62
     7
 10
-150.33791432895731
 20
72.839094653315513
 30
0.0
 11
-150.33791432895731
 21
72.824639149333592
 31
0.0
  0
LINE
  5
205
  8
1
 62
     7
 10
-150.03791096627211
 20
76.074642512018698
 30
0.0
 11
-149.03791432895721
 21
77.074639149333592
 31
0.0
  0
LINE
  5
206
  8
1
 62
     7
 10
-150.03791096627231
 20
77.37464251201861
 30
0.0
 11
-149.6315372166965
 21
77.781016261594388
 31
0.0
  0
LINE
  5
207
  8
1
 62
     7
 10
-150.03791096627239
 20
78.496934290242379
 30
0.0
 11
-149.30581784857461
 21
78.337511635059329
 31
0.0
  0
LINE
  5
208
  8
1
 62
     7
 10
-168.68791432895731
 20
110.14811005615719
 30
0.0
 11
-168.68791432895731
 21
92.380002503080121
 31
0.0
  0
LINE
  5
209
  8
1
 62
     7
 10
-165.29660486530679
 20
73.31572728218336
 30
0.0
 11
-175.4056933963119
 21
109.9654074697945
 31
0.0
  0
LINE
  5
20A
  8
1
 62
     7
 10
-167.22460585325601
 20
72.783926388552814
 30
0.0
 11
-177.33369438426129
 21
109.4336065761639
 31
0.0
  0
LINE
  5
20B
  8
1
 62
     7
 10
-170.68791432895731
 20
92.861482275743214
 30
0.0
 11
-170.68791432895731
 21
110.14811005615719
 31
0.0
  0
LINE
  5
20C
  8
1
 62
     7
 10
27.0
 20
136.49999999999989
 30
0.0
 11
27.0
 21
121.5
 31
0.0
  0
LINE
  5
20D
  8
1
 62
     7
 10
25.00000000000011
 20
136.49999999999989
 30
0.0
 11
25.0
 21
121.5
 31
0.0
  0
LINE
  5
20E
  8
1
 62
     7
 10
25.00000000000011
 20
136.49999999999989
 30
0.0
 11
27.0
 21
136.49999999999989
 31
0.0
  0
LINE
  5
20F
  8
1
 62
     7
 10
274.41195186770909
 20
125.5208779102319
 30
0.0
 11
270.52569938282647
 21
140.0245696348544
 31
0.0
  0
LINE
  5
210
  8
1
 62
     7
 10
270.52569938282647
 20
140.0245696348544
 30
0.0
 11
274.38940268798302
 21
141.0598458152644
 31
0.0
  0
LINE
  5
211
  8
1
 62
     7
 10
274.38940268798302
 20
141.0598458152644
 30
0.0
 11
278.27565517286541
 21
126.556154090642
 31
0.0
  0
LINE
  5
212
  8
1
 62
     7
 10
276.3398367119425
 20
126.05332033072339
 30
0.0
 11
272.45755103540478
 21
140.5422077250594
 31
0.0
  0
LINE
  5
213
  8
1
  6
DASHDOT
 62
     3
 10
310.1157220978215
 20
148.24999999999989
 30
0.0
 11
310.1157220978215
 21
131.75
 31
0.0
  0
LINE
  5
214
  8
1
  6
DASHDOT
 62
     3
 10
318.3657220978215
 20
140.0
 30
0.0
 11
301.86572209782139
 21
140.0
 31
0.0
  0
LINE
  5
215
  8
1
  6
DASHDOT
 62
     3
 10
13.0
 20
140.0
 30
0.0
 11
3.8000000000000109
 21
140.0
 31
0.0
  0
LINE
  5
216
  8
1
  6
DASHDOT
 62
     3
 10
-144.43791432895731
 20
140.0
 30
0.0
 11
-153.63791432895729
 21
140.0
 31
0.0
  0
ARC
  5
217
  8
1
 62
     7
 10
-149.9182599857435
 20
76.433590778348801
 30
0.0
 40
1.9999999999993381
 50
41.44952638981173
 51
72.168358597970752
  0
ARC
  5
218
  8
1
 62
     7
 10
-149.76634350953191
 20
77.181094757343459
 30
0.0
 40
0.6148809216838177
 50
47.592457709302387
 51
84.327596462768028
  0
ARC
  5
219
  8
1
 62
     7
 10
13.300000000000001
 20
-40.799999999999997
 30
0.0
 40
3.3000000000000109
 50
90.0
 51
180.0
  0
ARC
  5
21A
  8
1
 62
     7
 10
31.699999999999871
 20
-61.699999999999989
 30
0.0
 40
3.3000000000000109
 50
270.0
 51
0.0
  0
ARC
  5
21B
  8
1
 62
     7
 10
31.699999999999871
 20
-40.799999999999997
 30
0.0
 40
3.3000000000001282
 50
0.0
 51
90.0
  0
ARC
  5
21C
  8
1
 62
     7
 10
13.300000000000001
 20
-61.699999999999989
 30
0.0
 40
3.3000000000000091
 50
180.0
 51
270.0
  0
ARC
  5
21D
  8
1
 62
     7
 10
31.699999999999871
 20
40.799999999999898
 30
0.0
 40
3.2999999999998981
 50
270.0
 51
0.0
  0
ARC
  5
21E
  8
1
 62
     7
 10
13.300000000000001
 20
61.69999999999996
 30
0.0
 40
3.3000000000000109
 50
90.0
 51
180.0
  0
ARC
  5
21F
  8
1
 62
     7
 10
31.699999999999871
 20
61.69999999999996
 30
0.0
 40
3.3000000000001282
 50
0.0
 51
90.0
  0
ARC
  5
220
  8
1
 62
     7
 10
13.300000000000001
 20
40.799999999999898
 30
0.0
 40
3.3000000000000091
 50
180.0
 51
270.0
  0
ARC
  5
221
  8
1
 62
     7
 10
-371.76491612576501
 20
-40.642346141747709
 30
0.0
 40
2.5
 50
270.0
 51
0.0
  0
ARC
  5
222
  8
1
 62
     7
 10
-391.76491612576501
 20
-40.642346141747709
 30
0.0
 40
2.5
 50
180.0
 51
270.0
  0
ARC
  5
223
  8
1
 62
     7
 10
5.2729840457664627
 20
78.349999999999966
 30
0.0
 40
1.900000000000005
 50
90.0
 51
163.9271408311777
  0
ARC
  5
224
  8
1
 62
     7
 10
5.2729840457664627
 20
71.649999999999977
 30
0.0
 40
1.8999999999999579
 50
196.0728591688223
 51
270.0
  0
ARC
  5
225
  8
1
 62
     7
 10
6.5
 20
79.949999999999974
 30
0.0
 40
0.3000000000000114
 50
0.0
 51
90.0
  0
ARC
  5
226
  8
1
 62
     7
 10
6.5
 20
70.049999999999969
 30
0.0
 40
0.2999999999999972
 50
270.0
 51
0.0
  0
ARC
  5
227
  8
1
 62
     7
 10
5.2729840457664627
 20
-71.65000000000002
 30
0.0
 40
1.900000000000005
 50
90.0
 51
163.9271408311777
  0
ARC
  5
228
  8
1
 62
     7
 10
5.2729840457664627
 20
-78.34999999999998
 30
0.0
 40
1.8999999999999579
 50
196.0728591688223
 51
270.0
  0
ARC
  5
229
  8
1
 62
     7
 10
6.5
 20
-70.049999999999983
 30
0.0
 40
0.3000000000000114
 50
0.0
 51
90.0
  0
ARC
  5
22A
  8
1
 62
     7
 10
6.5
 20
-79.950000000000017
 30
0.0
 40
0.299999999999983
 50
270.0
 51
0.0
  0
ARC
  5
22B
  8
1
 62
     7
 10
-150.93791432895731
 20
70.049999999999969
 30
0.0
 40
0.2999999999999972
 50
270.0
 51
0.0
  0
ARC
  5
22C
  8
1
 62
     7
 10
-152.1649302831905
 20
-71.65000000000002
 30
0.0
 40
1.900000000000005
 50
90.0
 51
163.92714083117849
  0
ARC
  5
22D
  8
1
 62
     7
 10
-152.1649302831905
 20
-78.34999999999998
 30
0.0
 40
1.9000000000001001
 50
196.0728591688214
 51
270.0
  0
ARC
  5
22E
  8
1
 62
     7
 10
-150.93791432895731
 20
-70.049999999999983
 30
0.0
 40
0.3000000000000966
 50
0.0
 51
90.0
  0
ARC
  5
22F
  8
1
 62
     7
 10
-150.93791432895731
 20
-79.950000000000017
 30
0.0
 40
0.299999999999983
 50
270.0
 51
0.0
  0
ARC
  5
230
  8
1
 62
     7
 10
-148.43791432895719
 20
120.8585178512089
 30
0.0
 40
5.0000000000000551
 50
104.9999999999996
 51
180.0
  0
ARC
  5
231
  8
1
 62
     7
 10
-148.43791432895719
 20
120.8585178512089
 30
0.0
 40
7.0000000000000133
 50
104.9999999999995
 51
180.0
  0
ARC
  5
232
  8
1
 62
     7
 10
-152.1649302831905
 20
71.649999999999977
 30
0.0
 40
1.9000000000001001
 50
196.0728591688214
 51
213.1368365508165
  0
ARC
  5
233
  8
1
 62
     7
 10
-151.62540650667631
 20
74.174639149333586
 30
0.0
 40
1.5999999999999741
 50
196.19135163861759
 51
239.16824074109709
  0
ARC
  5
234
  8
1
 62
     7
 10
-150.63791432895729
 20
72.874639149333589
 30
0.0
 40
0.3000000000000226
 50
339.50824758259353
 51
349.80906739484391
  0
ARC
  5
235
  8
1
 62
     7
 10
-118.68791432895721
 20
92.380002503080121
 30
0.0
 40
50.0
 50
180.0
 51
195.42046435251731
  0
ARC
  5
236
  8
1
 62
     7
 10
-381.76491612576501
 20
0.0
 30
0.0
 40
121.4999999999998
 50
96.616680013707992
 51
33.82849051461681
  0
ARC
  5
237
  8
1
 62
     7
 10
-381.76491612576501
 20
0.0
 30
0.0
 40
130.0
 50
96.182304236393392
 51
30.70528830249312
  0
ARC
  5
238
  8
1
 62
     7
 10
-273.52179242923881
 20
96.837692466342133
 30
0.0
 40
29.413608842861649
 50
339.12521725214509
 51
0.0000000000892462
  0
ARC
  5
239
  8
1
 62
     7
 10
-273.52179242923881
 20
96.837692466342133
 30
0.0
 40
31.412009520407889
 50
339.12521725214509
 51
344.57953564748152
  0
ARC
  5
23A
  8
1
 62
     7
 10
-273.13860475522318
 20
96.691560532382425
 30
0.0
 40
31.001903027359742
 50
305.22501070597087
 51
339.12521725233711
  0
ARC
  5
23B
  8
1
 62
     7
 10
-271.02262962623593
 20
93.694752678460631
 30
0.0
 40
27.333359984158509
 50
271.00112090907737
 51
305.22501070597087
  0
ARC
  5
23C
  8
1
 62
     7
 10
-271.1908052336031
 20
103.318736965689
 30
0.0
 40
36.958813562859788
 50
230.3899513338219
 51
271.00112090907731
  0
ARC
  5
23D
  8
1
 62
     7
 10
-261.96387651025537
 20
114.4681958899737
 30
0.0
 40
51.431085256344907
 50
226.36939600829569
 51
230.3899513338219
  0
ARC
  5
23E
  8
1
 62
     7
 10
-261.96387651025537
 20
114.4681958899737
 30
0.0
 40
49.432684578798501
 50
226.42476737189659
 51
230.3899513338219
  0
ARC
  5
23F
  8
1
 62
     7
 10
-271.1908052336031
 20
103.318736965689
 30
0.0
 40
34.960412885313353
 50
230.3899513338221
 51
271.00112090907731
  0
ARC
  5
240
  8
1
 62
     7
 10
-271.02262962623593
 20
93.694752678460631
 30
0.0
 40
25.334959306612209
 50
271.00112090907731
 51
305.22501070597087
  0
ARC
  5
241
  8
1
 62
     7
 10
-273.13860475522318
 20
96.691560532382425
 30
0.0
 40
29.003502349813481
 50
305.22501070597087
 51
339.12521725233711
  0
ARC
  5
242
  8
1
 62
     7
 10
-273.52179242923881
 20
96.837692466342133
 30
0.0
 40
27.413608842861731
 50
339.12521725214509
 51
0.0000000000892526
  0
ARC
  5
243
  8
1
 62
     7
 10
-273.13860475522318
 20
96.691560532382425
 30
0.0
 40
27.00350234981347
 50
305.22501070597082
 51
339.12521725233711
  0
ARC
  5
244
  8
1
 62
     7
 10
-271.02262962623593
 20
93.694752678460631
 30
0.0
 40
23.334959306612209
 50
271.00112090907731
 51
305.22501070597082
  0
ARC
  5
245
  8
1
 62
     7
 10
-271.1908052336031
 20
103.318736965689
 30
0.0
 40
32.960412885313389
 50
230.3899513338221
 51
271.00112090907731
  0
ARC
  5
246
  8
1
 62
     7
 10
-261.96387651025537
 20
114.4681958899737
 30
0.0
 40
47.432684578798543
 50
226.4848558943354
 51
230.3899513338219
  0
ARC
  5
247
  8
1
 62
     7
 10
-271.54706902144221
 20
107.9202013079757
 30
0.0
 40
39.826056655394581
 50
206.6480538434171
 51
215.42489197299801
  0
ARC
  5
248
  8
1
 62
     7
 10
-271.54706902144221
 20
107.9202013079757
 30
0.0
 40
37.826056655394609
 50
206.64805384341699
 51
214.9134633389443
  0
ARC
  5
249
  8
1
 62
     7
 10
-271.54706902144221
 20
107.9202013079757
 30
0.0
 40
35.826056655394709
 50
206.6480538434171
 51
214.34397677396231
  0
ARC
  5
24A
  8
1
 62
     7
 10
-381.76491612576331
 20
-0.0000000000011511
 30
0.0
 40
121.4999999999998
 50
55.852225328217799
 51
58.517282018516823
  0
ARC
  5
24B
  8
1
 62
     7
 10
-301.49919891934201
 20
116.210533620856
 30
0.0
 40
21.0080826384788
 50
187.69266702672661
 51
223.91095631575621
  0
ARC
  5
24C
  8
1
 62
     7
 10
-301.49919891934201
 20
116.210533620856
 30
0.0
 40
23.00808263847885
 50
187.69266702672661
 51
223.91095631575621
  0
ARC
  5
24D
  8
1
 62
     7
 10
-352.68919713046893
 20
109.2960454951707
 30
0.0
 40
30.646791893315591
 50
7.6926670267266672
 51
26.584190085853539
  0
ARC
  5
24E
  8
1
 62
     7
 10
-352.68919713046893
 20
109.2960454951707
 30
0.0
 40
28.646791893315552
 50
7.6926670267266024
 51
26.584190085853599
  0
ARC
  5
24F
  8
1
 62
     7
 10
-338.16127979037361
 20
116.5660712556824
 30
0.0
 40
14.4013723296618
 50
26.584190085853479
 51
92.723859973725865
  0
ARC
  5
250
  8
1
 62
     7
 10
-338.16127979037361
 20
116.5660712556824
 30
0.0
 40
12.40137232966168
 50
26.584190085853631
 51
92.723859973725936
  0
ARC
  5
251
  8
1
 62
     7
 10
-301.49919891934201
 20
116.210533620856
 30
0.0
 40
25.008082638478768
 50
187.69266702672661
 51
223.9109563157561
  0
ARC
  5
252
  8
1
 62
     7
 10
-352.68919713046893
 20
109.2960454951707
 30
0.0
 40
26.64679189331563
 50
7.6926670267267321
 51
26.58419008585361
  0
ARC
  5
253
  8
1
 62
     7
 10
-338.16127979037361
 20
116.5660712556824
 30
0.0
 40
10.401372329661809
 50
26.584190085853692
 51
92.723859973725638
  0
ARC
  5
254
  8
1
 62
     7
 10
-305.27075472037228
 20
89.615130328365467
 30
0.0
 40
1.808200801068391
 50
216.06188861198501
 51
245.72631442553481
  0
ARC
  5
255
  8
1
 62
     7
 10
-305.27075472037228
 20
89.615130328365467
 30
0.0
 40
3.8082008010684212
 50
216.06188861198561
 51
278.64018844694709
  0
ARC
  5
256
  8
1
 62
     7
 10
-308.71914150132483
 20
109.25996796960889
 30
0.0
 40
14.98620987140449
 50
223.9109563157561
 51
247.7797190435989
  0
ARC
  5
257
  8
1
 62
     7
 10
-308.71914150132483
 20
109.25996796960889
 30
0.0
 40
12.986209871404441
 50
223.9109563157561
 51
243.0696057258919
  0
ARC
  5
258
  8
1
 62
     7
 10
-308.71914150132483
 20
109.25996796960889
 30
0.0
 40
10.98620987140443
 50
223.9109563157561
 51
239.94248940770939
  0
ARC
  5
259
  8
1
 62
     7
 10
-234.11918167624421
 20
126.70196996934951
 30
0.0
 40
81.702083032955699
 50
203.52478637073031
 51
206.64805384341699
  0
ARC
  5
25A
  8
1
 62
     7
 10
-311.63270886775439
 20
98.295109278225155
 30
0.0
 40
2.9704231391484099
 50
45.272408365218183
 51
182.69860776632589
  0
ARC
  5
25B
  8
1
 62
     7
 10
-299.94747125788763
 20
97.892056647107736
 30
0.0
 40
14.65473031865227
 50
178.97091371509131
 51
205.4938931590579
  0
ARC
  5
25C
  8
1
 62
     7
 10
-234.11918167624421
 20
126.70196996934951
 30
0.0
 40
79.702083032955699
 50
204.20061957541611
 51
206.64805384341699
  0
ARC
  5
25D
  8
1
 62
     7
 10
-234.1191816762433
 20
126.7019699693477
 30
0.0
 40
77.702083032955841
 50
205.65524554811691
 51
206.6480538434154
  0
ARC
  5
25E
  8
1
 62
     7
 10
-312.88638162171611
 20
94.392994912507135
 30
0.0
 40
7.4339355283653648
 50
29.29066447733053
 51
42.98236880101328
  0
ARC
  5
25F
  8
1
 62
     7
 10
-309.62103872772963
 20
97.436098366776235
 30
0.0
 40
2.9704231391484308
 50
42.982368801012598
 51
182.69860776632621
  0
ARC
  5
260
  8
1
 62
     7
 10
-299.94747125788763
 20
97.892056647107736
 30
0.0
 40
12.65473031865214
 50
182.6986077663264
 51
205.4938931590581
  0
ARC
  5
261
  8
1
 62
     7
 10
-282.43980507091771
 20
106.2404945879382
 30
0.0
 40
32.05098746703694
 50
205.49389315905779
 51
216.06188861198629
  0
ARC
  5
262
  8
1
 62
     7
 10
-309.62103872772963
 20
97.436098366776235
 30
0.0
 40
0.9704231391485464
 50
42.982368801009208
 51
182.69860776632609
  0
ARC
  5
263
  8
1
 62
     7
 10
-299.94747125788763
 20
97.892056647107736
 30
0.0
 40
10.65473031865227
 50
182.6986077663264
 51
205.4938931590581
  0
ARC
  5
264
  8
1
 62
     7
 10
-282.43980507091771
 20
106.2404945879382
 30
0.0
 40
30.050987467036919
 50
205.49389315905779
 51
216.06188861198621
  0
ARC
  5
265
  8
1
 62
     7
 10
-306.5583188352702
 20
90.604515025064643
 30
0.0
 40
3.4319937152157869
 50
7.578590887971572
 51
92.232578847077491
  0
ARC
  5
266
  8
1
 62
     7
 10
-306.5583188352702
 20
90.604515025064643
 30
0.0
 40
5.4319937152157856
 50
336.11541938968031
 51
92.232578847078088
  0
ARC
  5
267
  8
1
 62
     7
 10
-307.41187514008561
 20
112.4986666603108
 30
0.0
 40
18.478789798676281
 50
262.13751241128199
 51
272.2325788470767
  0
ARC
  5
268
  8
1
 62
     7
 10
-307.41187514008561
 20
112.4986666603108
 30
0.0
 40
16.478789798676338
 50
259.25587536293011
 51
272.23257884707641
  0
ARC
  5
269
  8
1
 62
     7
 10
-306.63623081904518
 20
92.602996879569346
 30
0.0
 40
5.4319937152157856
 50
351.62423627811432
 51
92.232578847076823
  0
ARC
  5
26A
  8
1
 62
     7
 10
-307.41187514008561
 20
112.4986666603108
 30
0.0
 40
14.478789798676191
 50
259.25578242273042
 51
272.23257884707681
  0
ARC
  5
26B
  8
1
 62
     7
 10
-381.76491612576501
 20
0.0
 30
0.0
 40
121.4999999999998
 50
62.08929619852664
 51
83.383319986291809
  0
ARC
  5
26C
  8
1
 62
     7
 10
-381.76491612576501
 20
0.0
 30
0.0
 40
129.99999999999989
 50
65.357110917882963
 51
73.384788102699503
  0
ARC
  5
26D
  8
1
 62
     7
 10
-338.19223033780361
 20
117.216618492116
 30
0.0
 40
13.750089255094601
 50
92.723859973726178
 51
165.0
  0
ARC
  5
26E
  8
1
 62
     7
 10
-338.19223033780361
 20
117.216618492116
 30
0.0
 40
11.75008925509448
 50
92.723859973726277
 51
165.0000000000002
  0
ARC
  5
26F
  8
1
 62
     7
 10
-338.19223033780361
 20
117.216618492116
 30
0.0
 40
9.7500892550945526
 50
92.723859973726064
 51
165.00000000000031
  0
ARC
  5
270
  8
1
 62
     7
 10
-141.63791432895729
 20
77.074639149333592
 30
0.0
 40
12.000000000000011
 50
173.87169304445189
 51
196.19135163861679
  0
ARC
  5
271
  8
1
 62
     7
 10
310.1157220978215
 20
0.0
 30
0.0
 40
24.999999999999961
 50
107.45760312372209
 51
72.542396876277877
  0
ARC
  5
272
  8
1
 62
     7
 10
310.1157220978215
 20
0.0
 30
0.0
 40
88.999999999999986
 50
56.384690766045431
 51
123.61530923395451
  0
ARC
  5
273
  8
1
 62
     7
 10
310.1157220978215
 20
0.0
 30
0.0
 40
89.000000000000114
 50
326.38469076604531
 51
33.615309233954477
  0
ARC
  5
274
  8
1
 62
     7
 10
310.1157220978215
 20
0.0
 30
0.0
 40
89.000000000000014
 50
236.3846907660454
 51
303.61530923395458
  0
ARC
  5
275
  8
1
 62
     7
 10
310.1157220978215
 20
0.0
 30
0.0
 40
88.999999999999943
 50
146.38469076604531
 51
213.61530923395449
  0
ARC
  5
276
  8
1
 62
     7
 10
394.97993231831111
 20
-49.50887116116229
 30
0.0
 40
10.75000000000011
 50
149.74117088654481
 51
314.99999999999949
  0
ARC
  5
277
  8
1
 62
     7
 10
260.60685093665933
 20
-84.86421022048961
 30
0.0
 40
10.75000000000003
 50
59.741170886544971
 51
225.0
  0
ARC
  5
278
  8
1
 62
     7
 10
225.25151187733201
 20
49.508871161162112
 30
0.0
 40
10.749999999999989
 50
329.74117088654469
 51
135.0000000000002
  0
ARC
  5
279
  8
1
 62
     7
 10
394.97993231831111
 20
49.508871161162112
 30
0.0
 40
10.750000000000091
 50
21.048428104311402
 51
210.25882911345511
  0
ARC
  5
27A
  8
1
 62
     7
 10
359.62459325898362
 20
-84.86421022048961
 30
0.0
 40
10.749999999999989
 50
291.0484281043108
 51
120.25882911345499
  0
ARC
  5
27B
  8
1
 62
     7
 10
225.25151187733201
 20
-49.508871161162197
 30
0.0
 40
10.750000000000069
 50
201.048428104311
 51
30.258829113455821
  0
ARC
  5
27C
  8
1
 62
     7
 10
310.1157220978215
 20
0.0
 30
0.0
 40
108.875
 50
328.83563668697968
 51
29.353294913890551
  0
ARC
  5
27D
  8
1
 62
     7
 10
310.1157220978215
 20
0.0
 30
0.0
 40
108.875
 50
238.83563668697971
 51
299.35329491389052
  0
ARC
  5
27E
  8
1
 62
     7
 10
310.1157220978215
 20
0.0
 30
0.0
 40
108.875
 50
148.8356366869798
 51
209.35329491389061
  0
ARC
  5
27F
  8
1
 62
     7
 10
310.1157220978215
 20
0.0
 30
0.0
 40
87.499999999999986
 50
329.74117088654458
 51
30.258829113455359
  0
ARC
  5
280
  8
1
 62
     7
 10
310.1157220978215
 20
0.0
 30
0.0
 40
87.499999999999986
 50
239.74117088654461
 51
300.25882911345531
  0
ARC
  5
281
  8
1
 62
     7
 10
310.1157220978215
 20
0.0
 30
0.0
 40
87.499999999999943
 50
149.7411708865445
 51
210.25882911345539
  0
ARC
  5
282
  8
1
 62
     7
 10
260.60685093665933
 20
84.864210220489511
 30
0.0
 40
10.75000000000011
 50
111.0484281043105
 51
300.25882911345508
  0
ARC
  5
283
  8
1
 62
     7
 10
310.1157220978215
 20
0.0
 30
0.0
 40
87.499999999999943
 50
59.741170886544623
 51
120.25882911345541
  0
ARC
  5
284
  8
1
 62
     7
 10
359.62459325898368
 20
84.864210220489511
 30
0.0
 40
10.75000000000002
 50
239.74117088654461
 51
45.000000000000469
  0
ARC
  5
285
  8
1
 62
     7
 10
310.1157220978215
 20
0.0
 30
0.0
 40
108.875
 50
58.83563668697979
 51
119.35329491389039
  0
ARC
  5
286
  8
1
 62
     7
 10
-381.76491612576501
 20
0.0
 30
0.0
 40
24.999999999999961
 50
107.45760312372209
 51
72.542396876277877
  0
ARC
  5
287
  8
1
 62
     7
 10
-362.26491612576501
 20
111.0
 30
0.0
 40
3.0
 50
0.0
 51
90.0
  0
ARC
  5
288
  8
1
 62
     7
 10
-370.76491612576478
 20
149.0
 30
0.0
 40
3.0
 50
0.0
 51
90.0
  0
ARC
  5
289
  8
1
 62
     7
 10
-364.76491612576501
 20
117.0
 30
0.0
 40
3.0
 50
180.0
 51
270.0
  0
ARC
  5
28A
  8
1
 62
     7
 10
-398.76491612576478
 20
117.0
 30
0.0
 40
3.0
 50
270.0
 51
0.0
  0
ARC
  5
28B
  8
1
 62
     7
 10
-392.76491612576478
 20
149.0
 30
0.0
 40
3.0
 50
90.0
 51
180.0
  0
ARC
  5
28C
  8
1
 62
     7
 10
-401.26491612576478
 20
111.0
 30
0.0
 40
3.0
 50
90.0
 51
180.0
  0
ARC
  5
28D
  8
1
 62
     7
 10
-378.66491612576482
 20
78.099999999999966
 30
0.0
 40
2.6350000000000482
 50
180.0
 51
270.0
  0
ARC
  5
28E
  8
1
 62
     7
 10
-384.86491612576481
 20
78.099999999999966
 30
0.0
 40
2.63499999999999
 50
270.0
 51
0.0
  0
ARC
  5
28F
  8
1
 62
     7
 10
-384.86491612576481
 20
71.899999999999963
 30
0.0
 40
2.6350000000000482
 50
0.0
 51
90.0
  0
ARC
  5
290
  8
1
 62
     7
 10
-378.66491612576482
 20
71.899999999999963
 30
0.0
 40
2.63499999999999
 50
90.0
 51
180.0
  0
ARC
  5
291
  8
1
 62
     7
 10
-453.66491612576482
 20
3.099999999999993
 30
0.0
 40
2.6350000000000482
 50
180.0
 51
270.0
  0
ARC
  5
292
  8
1
 62
     7
 10
-453.66491612576482
 20
-3.100000000000108
 30
0.0
 40
2.635000000000018
 50
90.0
 51
180.0
  0
ARC
  5
293
  8
1
 62
     7
 10
-459.86491612576481
 20
-3.100000000000108
 30
0.0
 40
2.6350000000000482
 50
0.0
 51
90.0
  0
ARC
  5
294
  8
1
 62
     7
 10
-459.86491612576481
 20
3.099999999999993
 30
0.0
 40
2.63499999999999
 50
270.0
 51
0.0
  0
ARC
  5
295
  8
1
 62
     7
 10
-384.86491612576481
 20
-71.90000000000002
 30
0.0
 40
2.63499999999999
 50
270.0
 51
0.0
  0
ARC
  5
296
  8
1
 62
     7
 10
-378.66491612576482
 20
-71.90000000000002
 30
0.0
 40
2.6350000000000482
 50
180.0
 51
270.0
  0
ARC
  5
297
  8
1
 62
     7
 10
-378.66491612576482
 20
-78.09999999999998
 30
0.0
 40
2.63499999999999
 50
90.0
 51
180.0
  0
ARC
  5
298
  8
1
 62
     7
 10
-384.86491612576481
 20
-78.09999999999998
 30
0.0
 40
2.6350000000000482
 50
0.0
 51
90.0
  0
ARC
  5
299
  8
1
 62
     7
 10
-309.86491612576481
 20
-3.100000000000108
 30
0.0
 40
2.6350000000000482
 50
0.0
 51
90.0
  0
ARC
  5
29A
  8
1
 62
     7
 10
-309.86491612576481
 20
3.099999999999993
 30
0.0
 40
2.63499999999999
 50
270.0
 51
0.0
  0
ARC
  5
29B
  8
1
 62
     7
 10
-303.66491612576482
 20
3.099999999999993
 30
0.0
 40
2.6350000000000482
 50
180.0
 51
270.0
  0
ARC
  5
29C
  8
1
 62
     7
 10
-303.66491612576482
 20
-3.100000000000108
 30
0.0
 40
2.635000000000018
 50
90.0
 51
180.0
  0
ARC
  5
29D
  8
1
 62
     7
 10
299.11572209782162
 20
149.0
 30
0.0
 40
3.0
 50
90.0
 51
180.0
  0
ARC
  5
29E
  8
1
 62
     7
 10
321.11572209782128
 20
149.0
 30
0.0
 40
3.0
 50
0.0
 51
90.0
  0
ARC
  5
29F
  8
1
 62
     7
 10
310.1157220978215
 20
140.0
 30
0.0
 40
5.2500000000001128
 50
180.0
 51
0.0
  0
ARC
  5
2A0
  8
1
 62
     7
 10
310.1157220978215
 20
140.0
 30
0.0
 40
5.2500000000001128
 50
0.0
 51
180.0
  0
ARC
  5
2A1
  8
1
 62
     7
 10
-381.76491612576501
 20
0.0
 30
0.0
 40
121.5
 50
37.132439944532273
 51
48.422645397789388
  0
ARC
  5
2A2
  8
1
 62
     7
 10
-381.76491612576501
 20
0.0
 30
0.0
 40
130.0
 50
75.376089193992087
 51
83.817695763606437
  0
ARC
  5
2A3
  8
1
 62
     7
 10
-381.76491612576501
 20
1.9250000000000109
 30
0.0
 40
41.075000000000067
 50
287.71734016861802
 51
252.28265983138189
  0
ARC
  5
2A4
  8
1
 62
     7
 10
-381.76491612576501
 20
0.0
 30
0.0
 40
129.99999999999989
 50
32.779520548848488
 51
63.000592871542032
  0
ARC
  5
2A5
  8
1
 62
     7
 10
-304.69027697643128
 20
73.680526599638199
 30
0.0
 40
2.0399999999999801
 50
44.999999999999147
 51
135.00000000000591
  0
ARC
  5
2A6
  8
1
 62
     7
 10
-308.08438952612681
 20
77.074639149333663
 30
0.0
 40
2.0400000000003411
 50
315.00000000000188
 51
44.999999999998032
  0
ARC
  5
2A7
  8
1
 62
     7
 10
-304.69027697643151
 20
80.468751699029085
 30
0.0
 40
2.0400000000000991
 50
225.00000000000031
 51
315.00000000000063
  0
ARC
  5
2A8
  8
1
 62
     7
 10
-301.2961644267358
 20
77.074639149333635
 30
0.0
 40
2.0400000000001599
 50
135.00000000000469
 51
225.00000000000469
  0
ARC
  5
2A9
  8
1
 62
     7
 10
16.899999999999981
 20
74.999999999999972
 30
0.0
 40
13.999999999999989
 50
163.92714083117761
 51
196.07285916882239
  0
ARC
  5
2AA
  8
1
 62
     7
 10
16.899999999999981
 20
-75.0
 30
0.0
 40
13.999999999999989
 50
163.92714083117761
 51
196.07285916882239
  0
ARC
  5
2AB
  8
1
  6
DASHDOT
 62
     3
 10
310.1157220978215
 20
0.0
 30
0.0
 40
70.999999999999972
 50
306.90325023020438
 51
323.09674976979522
  0
ARC
  5
2AC
  8
1
  6
DASHDOT
 62
     3
 10
310.1157220978215
 20
0.0
 30
0.0
 40
70.999999999999986
 50
261.90325023020449
 51
278.09674976979528
  0
ARC
  5
2AD
  8
1
  6
DASHDOT
 62
     3
 10
310.1157220978215
 20
0.0
 30
0.0
 40
71.000000000000071
 50
216.90325023020461
 51
233.09674976979551
  0
ARC
  5
2AE
  8
1
  6
DASHDOT
 62
     3
 10
310.1157220978215
 20
0.0
 30
0.0
 40
70.999999999999901
 50
171.90325023020449
 51
188.09674976979539
  0
ARC
  5
2AF
  8
1
  6
DASHDOT
 62
     3
 10
310.1157220978215
 20
0.0
 30
0.0
 40
70.999999999999929
 50
126.90325023020451
 51
143.09674976979531
  0
ARC
  5
2B0
  8
1
  6
DASHDOT
 62
     3
 10
310.1157220978215
 20
0.0
 30
0.0
 40
71.000000000000014
 50
81.903250230204591
 51
98.09674976979538
  0
ARC
  5
2B1
  8
1
  6
DASHDOT
 62
     3
 10
310.1157220978215
 20
0.0
 30
0.0
 40
70.999999999999957
 50
36.903250230204627
 51
53.096749769795501
  0
ARC
  5
2B2
  8
1
  6
DASHDOT
 62
     3
 10
310.1157220978215
 20
0.0
 30
0.0
 40
71.000000000000014
 50
351.90325023020461
 51
8.0967497697954087
  0
ARC
  5
2B3
  8
1
 62
     7
 10
-140.5379143289571
 20
74.999999999999972
 30
0.0
 40
14.000000000000041
 50
165.31751395724791
 51
196.07285916882239
  0
ARC
  5
2B4
  8
1
 62
     7
 10
-140.5379143289571
 20
-75.0
 30
0.0
 40
14.00000000000002
 50
163.92714083117761
 51
196.07285916882239
  0
ARC
  5
2B5
  8
1
 62
     7
 10
-307.20339861936361
 20
94.432106095529292
 30
0.0
 40
6.6160899053494369
 50
205.49389315905779
 51
242.24470239653559
  0
ARC
  5
2B6
  8
1
 62
     7
 10
-308.01993602476631
 20
92.880471942799417
 30
0.0
 40
4.8627211824792278
 50
242.2447023965363
 51
260.09565530296447
  0
ARC
  5
2B7
  8
1
 62
     7
 10
-136.92783852861911
 20
101.26233483049501
 30
0.0
 40
18.510075800338122
 50
197.52369508549819
 51
212.45689583909791
  0
ARC
  5
2B8
  8
1
 62
     7
 10
-136.92783852861911
 20
101.26233483049501
 30
0.0
 40
16.5100758003381
 50
206.16430090532799
 51
212.4568958390978
  0
ARC
  5
2B9
  8
1
 62
     7
 10
-140.47813221038729
 20
99.004301445938935
 30
0.0
 40
12.30254683518857
 50
212.45689583909791
 51
233.24709128646961
  0
ARC
  5
2BA
  8
1
 62
     7
 10
-148.43791432895719
 20
88.345989153306604
 30
0.0
 40
1.0
 50
0.0
 51
53.247091286465569
  0
ARC
  5
2BB
  8
1
 62
     7
 10
-127.1431776663219
 20
101.26233483049501
 30
0.0
 40
28.29473666263543
 50
192.96240094955749
 51
203.6552085448354
  0
ARC
  5
2BC
  8
1
 62
     7
 10
-162.65081392428741
 20
87.512346185666658
 30
0.0
 40
12.679548361565059
 50
25.599357694733211
 51
41.090517617748127
  0
ARC
  5
2BD
  8
1
 62
     7
 10
-153.74624894024359
 20
95.277698513565724
 30
0.0
 40
0.8646436081839451
 50
41.09051761775028
 51
92.497835593477845
  0
ARC
  5
2BE
  8
1
 62
     7
 10
-153.74025505721781
 20
95.140296913925766
 30
0.0
 40
1.002175881550426
 50
92.497835593471777
 51
192.962400949558
  0
ARC
  5
2BF
  8
1
 62
     7
 10
-152.68928184586829
 20
90.894513546811197
 30
0.0
 40
3.867850709893303
 50
347.39074312849431
 51
352.89831554267869
  0
ARC
  5
2C0
  8
1
 62
     7
 10
-154.98487730041001
 20
91.180513611973296
 30
0.0
 40
6.1811934273015607
 50
352.89831554267869
 51
25.571216651863249
  0
ARC
  5
2C1
  8
1
 62
     7
 10
-162.65081392428741
 20
87.512346185666658
 30
0.0
 40
14.679548361565059
 50
25.571216651863331
 51
41.090517617748127
  0
ARC
  5
2C2
  8
1
 62
     7
 10
-153.74624894024359
 20
95.277698513565724
 30
0.0
 40
2.8646436081839379
 50
41.090517617748809
 51
92.49783559347587
  0
ARC
  5
2C3
  8
1
 62
     7
 10
-153.74025505721781
 20
95.140296913925766
 30
0.0
 40
3.002175881550464
 50
92.497835593473923
 51
192.96240094955709
  0
ARC
  5
2C4
  8
1
 62
     7
 10
-146.1764381161754
 20
96.881314298147814
 30
0.0
 40
10.7637780518348
 50
192.96240094955701
 51
214.14177525587181
  0
ARC
  5
2C5
  8
1
 62
     7
 10
-154.98487730041001
 20
93.180513611973282
 30
0.0
 40
6.1811934273015607
 50
352.89831554267869
 51
25.571216651863249
  0
ARC
  5
2C6
  8
1
 62
     7
 10
-152.68928184586829
 20
92.894513546811197
 30
0.0
 40
3.8678507098933679
 50
349.48207125224758
 51
352.89831554267869
  0
ARC
  5
2C7
  8
1
 62
     7
 10
-162.65081392428741
 20
89.512346185666644
 30
0.0
 40
14.679548361565059
 50
25.571216651863331
 51
41.090517617748127
  0
ARC
  5
2C8
  8
1
 62
     7
 10
-153.74624894024359
 20
97.27769851356571
 30
0.0
 40
2.8646436081839379
 50
41.090517617748809
 51
92.497835593475841
  0
ARC
  5
2C9
  8
1
 62
     7
 10
-153.74025505721781
 20
97.140296913925766
 30
0.0
 40
3.0021758815505071
 50
92.49783559347388
 51
192.96240094955709
  0
ARC
  5
2CA
  8
1
 62
     7
 10
-136.92783852861911
 20
101.26233483049501
 30
0.0
 40
16.510075800338111
 50
180.0
 51
183.9634817935804
  0
ARC
  5
2CB
  8
1
 62
     7
 10
-136.92783852861911
 20
101.26233483049501
 30
0.0
 40
18.510075800338122
 50
180.0
 51
184.9583526991749
  0
ARC
  5
2CC
  8
1
 62
     7
 10
-127.1431776663219
 20
101.26233483049501
 30
0.0
 40
28.294736662635401
 50
180.0
 51
183.27198938716651
  0
ARC
  5
2CD
  8
1
 62
     7
 10
-146.1764381161756
 20
98.881314298148808
 30
0.0
 40
10.76377805183475
 50
192.96240094956261
 51
194.88204367504929
  0
ARC
  5
2CE
  8
1
 62
     7
 10
-139.82176697978491
 20
101.1905106286528
 30
0.0
 40
18.441734698398541
 50
214.14177525587189
 51
222.0445825535636
  0
ARC
  5
2CF
  8
1
 62
     7
 10
-149.20533456684851
 20
86.888895559347361
 30
0.0
 40
4.7325797621090784
 50
142.9796549151184
 51
177.3278420787631
  0
ARC
  5
2D0
  8
1
 62
     7
 10
-149.20533456686951
 20
84.888858876025509
 30
0.0
 40
4.7325797620868109
 50
130.96625686797881
 51
143.9562157561891
  0
ARC
  5
2D1
  8
1
 62
     7
 10
-141.83439512964
 20
94.827034613394588
 30
0.0
 40
12.255878865438129
 50
203.6552085448354
 51
212.61627641761919
  0
ARC
  5
2D2
  8
1
 62
     7
 10
-140.47813221038729
 20
99.004301445938935
 30
0.0
 40
14.302546835188529
 50
212.45689583909791
 51
224.0001033188249
  0
ARC
  5
2D3
  8
1
 62
     7
 10
-136.9053579143015
 20
124.5
 30
0.0
 40
4.4674435853441992
 50
0.0
 51
105.0000000000002
  0
ARC
  5
2D4
  8
1
 62
     7
 10
-136.9053579143015
 20
124.5
 30
0.0
 40
6.4674435853441992
 50
0.0
 51
104.9999999999996
  0
ARC
  5
2D5
  8
1
 62
     7
 10
-158.7887717423821
 20
75.110784178938829
 30
0.0
 40
8.7508607761102812
 50
195.4204643525174
 51
0.0
  0
ARC
  5
2D6
  8
1
 62
     7
 10
-158.7887717423821
 20
75.110784178938829
 30
0.0
 40
6.7508607761103443
 50
195.42046435251731
 51
0.0
  0
CIRCLE
  5
2D7
  8
1
 62
     7
 10
-381.76491612576501
 20
0.0
 30
0.0
 40
37.5
  0
CIRCLE
  5
2D8
  8
1
 62
     7
 10
-381.76491612576501
 20
0.0
 30
0.0
 40
57.5
  0
CIRCLE
  5
2D9
  8
1
 62
     7
 10
310.1157220978215
 20
0.0
 30
0.0
 40
48.500000000000107
  0
CIRCLE
  5
2DA
  8
1
 62
     7
 10
428.69480963015161
 20
9.9999999999999165
 30
0.0
 40
7.7499999999998863
  0
CIRCLE
  5
2DB
  8
1
 62
     7
 10
428.69480963015161
 20
9.9999999999999165
 30
0.0
 40
6.5
  0
CIRCLE
  5
2DC
  8
1
 62
     7
 10
428.69480963015161
 20
-10.00000000000008
 30
0.0
 40
6.5
  0
CIRCLE
  5
2DD
  8
1
 62
     7
 10
428.69480963015161
 20
-10.00000000000008
 30
0.0
 40
7.7499999999998863
  0
CIRCLE
  5
2DE
  8
1
 62
     7
 10
320.11572209782128
 20
-118.57908753233021
 30
0.0
 40
7.75
  0
CIRCLE
  5
2DF
  8
1
 62
     7
 10
320.11572209782128
 20
-118.57908753233021
 30
0.0
 40
6.4999999999998863
  0
CIRCLE
  5
2E0
  8
1
 62
     7
 10
300.11572209782139
 20
-118.57908753233021
 30
0.0
 40
6.5
  0
CIRCLE
  5
2E1
  8
1
 62
     7
 10
300.11572209782139
 20
-118.57908753233021
 30
0.0
 40
7.75
  0
CIRCLE
  5
2E2
  8
1
 62
     7
 10
191.5366345654912
 20
-10.0
 30
0.0
 40
7.7499999999998863
  0
CIRCLE
  5
2E3
  8
1
 62
     7
 10
191.5366345654912
 20
-10.0
 30
0.0
 40
6.4999999999998863
  0
CIRCLE
  5
2E4
  8
1
 62
     7
 10
191.5366345654912
 20
9.9999999999999165
 30
0.0
 40
6.5
  0
CIRCLE
  5
2E5
  8
1
 62
     7
 10
191.5366345654912
 20
9.9999999999999165
 30
0.0
 40
7.7499999999998863
  0
CIRCLE
  5
2E6
  8
1
 62
     7
 10
320.1157220978215
 20
118.57908753233001
 30
0.0
 40
7.7499999999998863
  0
CIRCLE
  5
2E7
  8
1
 62
     7
 10
320.1157220978215
 20
118.57908753233001
 30
0.0
 40
6.5
  0
CIRCLE
  5
2E8
  8
1
 62
     7
 10
300.11572209782139
 20
118.57908753232989
 30
0.0
 40
6.5000000000001128
  0
CIRCLE
  5
2E9
  8
1
 62
     7
 10
300.11572209782139
 20
118.57908753232989
 30
0.0
 40
7.7500000000001128
  0
CIRCLE
  5
2EA
  8
1
 62
     7
 10
310.1157220978215
 20
0.0
 30
0.0
 40
57.500000000000099
  0
CIRCLE
  5
2EB
  8
1
 62
     7
 10
-381.76491612576501
 20
140.0
 30
0.0
 40
5.25
  0
CIRCLE
  5
2EC
  8
1
 62
     7
 10
-381.76491612576501
 20
74.999999999999972
 30
0.0
 40
5.25
  0
CIRCLE
  5
2ED
  8
1
 62
     7
 10
-456.76491612576501
 20
0.0
 30
0.0
 40
5.2500000000001128
  0
CIRCLE
  5
2EE
  8
1
 62
     7
 10
-381.76491612576501
 20
-75.0
 30
0.0
 40
5.25
  0
CIRCLE
  5
2EF
  8
1
 62
     7
 10
-306.76491612576501
 20
0.0
 30
0.0
 40
5.25
  0
CIRCLE
  5
2F0
  8
1
 62
     7
 10
-371.76491612576501
 20
-39.942346141747691
 30
0.0
 40
1.25
  0
CIRCLE
  5
2F1
  8
1
 62
     7
 10
-391.76491612576501
 20
-39.942346141747691
 30
0.0
 40
1.25
  0
CIRCLE
  5
2F2
  8
1
 62
     7
 10
-304.69027697643128
 20
77.074639149333592
 30
0.0
 40
4.500000000000056
  0
CIRCLE
  5
2F3
  8
1
 62
     7
 10
-396.76491612576501
 20
103.0
 30
0.0
 40
5.0
  0
CIRCLE
  5
2F4
  8
1
 62
     7
 10
-366.76491612576501
 20
103.0
 30
0.0
 40
5.0
  0
CIRCLE
  5
2F5
  8
1
 62
     7
 10
22.5
 20
51.25
 30
0.0
 40
8.2499999999999787
  0
CIRCLE
  5
2F6
  8
1
 62
     7
 10
22.5
 20
-51.25
 30
0.0
 40
8.2499999999999787
  0
CIRCLE
  5
2F7
  8
1
 62
     3
 10
381.11572209782139
 20
0.0
 30
0.0
 40
4.0
  0
CIRCLE
  5
2F8
  8
1
 62
     7
 10
381.11572209782139
 20
0.0
 30
0.0
 40
5.0
  0
CIRCLE
  5
2F9
  8
1
 62
     3
 10
360.32030356206627
 20
50.204581464244882
 30
0.0
 40
4.0
  0
CIRCLE
  5
2FA
  8
1
 62
     7
 10
360.32030356206627
 20
50.204581464244882
 30
0.0
 40
5.0
  0
CIRCLE
  5
2FB
  8
1
 62
     3
 10
310.1157220978215
 20
71.0
 30
0.0
 40
4.0
  0
CIRCLE
  5
2FC
  8
1
 62
     7
 10
310.1157220978215
 20
71.0
 30
0.0
 40
5.0
  0
CIRCLE
  5
2FD
  8
1
 62
     3
 10
259.91114063357662
 20
50.204581464244882
 30
0.0
 40
4.0
  0
CIRCLE
  5
2FE
  8
1
 62
     7
 10
259.91114063357662
 20
50.204581464244882
 30
0.0
 40
5.0
  0
CIRCLE
  5
2FF
  8
1
 62
     3
 10
239.1157220978215
 20
0.0
 30
0.0
 40
4.0
  0
CIRCLE
  5
300
  8
1
 62
     7
 10
239.1157220978215
 20
0.0
 30
0.0
 40
5.0
  0
CIRCLE
  5
301
  8
1
 62
     3
 10
259.91114063357651
 20
-50.204581464244853
 30
0.0
 40
4.000000000000056
  0
CIRCLE
  5
302
  8
1
 62
     7
 10
259.91114063357651
 20
-50.204581464244853
 30
0.0
 40
5.000000000000056
  0
CIRCLE
  5
303
  8
1
 62
     3
 10
310.1157220978215
 20
-71.000000000000099
 30
0.0
 40
4.0
  0
CIRCLE
  5
304
  8
1
 62
     7
 10
310.1157220978215
 20
-71.000000000000099
 30
0.0
 40
5.0
  0
CIRCLE
  5
305
  8
1
 62
     3
 10
360.32030356206627
 20
-50.20458146424491
 30
0.0
 40
4.0
  0
CIRCLE
  5
306
  8
1
 62
     7
 10
360.32030356206627
 20
-50.20458146424491
 30
0.0
 40
5.0
  0
CIRCLE
  5
307
  8
1
 62
     7
 10
310.1157220978215
 20
0.0
 30
0.0
 40
130.49999999999989
  0
CIRCLE
  5
308
  8
1
 62
     7
 10
310.1157220978215
 20
0.0
 30
0.0
 40
129.0
  0
CIRCLE
  5
309
  8
1
 62
     7
 10
-381.76491612576501
 20
0.0
 30
0.0
 40
82.499999999999915
  0
POLYLINE
  5
30A
  8
1
 62
     7
 66
     1
 10
0.0
 20
0.0
 30
0.0
  0
VERTEX
  5
35F
  8
1
 62
     7
 10
-149.82834873367881
 20
81.402088809032193
 30
0.0
 42
-0.0244541970911244
  0
VERTEX
  5
360
  8
1
 62
     7
 10
-149.7172463990596
 20
81.442934923752745
 30
0.0
 42
-0.0260084270921901
  0
VERTEX
  5
361
  8
1
 62
     7
 10
-149.5973757988416
 20
81.47394881946974
 30
0.0
 42
-0.0296537933309097
  0
VERTEX
  5
362
  8
1
 62
     7
 10
-149.4725978493519
 20
81.491909248499596
 30
0.0
 42
-0.0353903338637098
  0
VERTEX
  5
363
  8
1
 62
     7
 10
-149.3467734669174
 20
81.493594963158955
 30
0.0
 42
-0.0431703373564262
  0
VERTEX
  5
364
  8
1
 62
     7
 10
-149.22376356786501
 20
81.475784715764277
 30
0.0
 42
-0.0522349415355104
  0
VERTEX
  5
365
  8
1
 62
     7
 10
-149.10742906852141
 20
81.435257258632106
 30
0.0
 42
-0.0292203214443333
  0
VERTEX
  5
366
  8
1
 62
     7
 10
-149.02833060623979
 20
81.388934919889962
 30
0.0
 42
-0.0497829314225294
  0
VERTEX
  5
367
  8
1
 62
     7
 10
-148.9842015763779
 20
81.350397164967106
 30
0.0
 42
-0.0770927947226691
  0
VERTEX
  5
368
  8
1
 62
     7
 10
-148.95202865148099
 20
81.303185061779985
 30
0.0
 42
-0.0993531405263007
  0
VERTEX
  5
369
  8
1
 62
     7
 10
-148.93791432895731
 20
81.245644147092804
 30
0.0
  0
SEQEND
  5
36A
  8
1
 62
     7
  0
POLYLINE
  5
317
  8
1
 62
     7
 66
     1
 10
0.0
 20
0.0
 30
0.0
  0
VERTEX
  5
36B
  8
1
 62
     7
 10
-150.9996519478434
 20
81.871422794850275
 30
0.0
 42
-0.0532164049708323
  0
VERTEX
  5
36C
  8
1
 62
     7
 10
-150.58305010690631
 20
82.075320762214659
 30
0.0
 42
-0.0435969010499441
  0
VERTEX
  5
36D
  8
1
 62
     7
 10
-150.13852533454209
 20
82.193468973742696
 30
0.0
 42
-0.0328775467708222
  0
VERTEX
  5
36E
  8
1
 62
     7
 10
-149.67784204394761
 20
82.242961000431791
 30
0.0
 42
-0.024250606533924
  0
VERTEX
  5
36F
  8
1
 62
     7
 10
-149.21470693517449
 20
82.240365554209447
 30
0.0
 42
-0.0305308494185831
  0
VERTEX
  5
370
  8
1
 62
     7
 10
-148.75908078777491
 20
82.188217515241575
 30
0.0
 42
-0.041789672185481
  0
VERTEX
  5
371
  8
1
 62
     7
 10
-148.3015830055019
 20
82.068565587532831
 30
0.0
 42
-0.0519736827423727
  0
VERTEX
  5
372
  8
1
 62
     7
 10
-147.8552691429488
 20
81.858103533638797
 30
0.0
 42
-0.038411192378428
  0
VERTEX
  5
373
  8
1
 62
     7
 10
-147.67192180855801
 20
81.728735112800592
 30
0.0
 42
-0.0709262603040178
  0
VERTEX
  5
374
  8
1
 62
     7
 10
-147.52554656564701
 20
81.567912637282987
 30
0.0
 42
-0.1056323833335221
  0
VERTEX
  5
375
  8
1
 62
     7
 10
-147.444764194171
 20
81.36555225593635
 30
0.0
  0
VERTEX
  5
376
  8
1
 62
     7
 10
-147.43791432895719
 20
81.245644147092804
 30
0.0
  0
SEQEND
  5
377
  8
1
 62
     7
  0
POLYLINE
  5
325
  8
1
 62
     7
 66
     1
 10
0.0
 20
0.0
 30
0.0
  0
VERTEX
  5
378
  8
1
 62
     7
 10
-152.7934373579385
 20
79.004164083694263
 30
0.0
 42
0.0132938885404158
  0
VERTEX
  5
379
  8
1
 62
     7
 10
-152.85404934411
 20
79.021098658674617
 30
0.0
 42
-0.006710907715425
  0
VERTEX
  5
37A
  8
1
 62
     7
 10
-152.91317766959861
 20
79.036727114624398
 30
0.0
 42
-0.0274272351826302
  0
VERTEX
  5
37B
  8
1
 62
     7
 10
-152.97092445302599
 20
79.05631523558452
 30
0.0
 42
-0.0445386641357801
  0
VERTEX
  5
37C
  8
1
 62
     7
 10
-153.02739181301479
 20
79.085128805595843
 30
0.0
 42
-0.0339574710613946
  0
VERTEX
  5
37D
  8
1
 62
     7
 10
-153.0642624267015
 20
79.111966127160699
 30
0.0
 42
-0.0397362432914097
  0
VERTEX
  5
37E
  8
1
 62
     7
 10
-153.09704629188411
 20
79.144028846454674
 30
0.0
 42
-0.0532751256792598
  0
VERTEX
  5
37F
  8
1
 62
     7
 10
-153.12219375636141
 20
79.179931339481882
 30
0.0
 42
-0.0765962946309773
  0
VERTEX
  5
380
  8
1
 62
     7
 10
-153.13615516793249
 20
79.218287982246437
 30
0.0
 42
-0.0945165246183922
  0
VERTEX
  5
381
  8
1
 62
     7
 10
-153.13577639968369
 20
79.256591362427955
 30
0.0
 42
-0.069347950061637
  0
VERTEX
  5
382
  8
1
 62
     7
 10
-153.1224951886422
 20
79.293403192725606
 30
0.0
 42
-0.045508606118448
  0
VERTEX
  5
383
  8
1
 62
     7
 10
-153.1000742482841
 20
79.328405896163204
 30
0.0
 42
-0.0312216114992112
  0
VERTEX
  5
384
  8
1
 62
     7
 10
-153.07221843987409
 20
79.360170424500879
 30
0.0
 42
-0.0236548683714975
  0
VERTEX
  5
385
  8
1
 62
     7
 10
-153.04263262467711
 20
79.387267729498774
 30
0.0
  0
VERTEX
  5
386
  8
1
 62
     7
 10
-153.0283487336788
 20
79.398619595670326
 30
0.0
  0
SEQEND
  5
387
  8
1
 62
     7
  0
POLYLINE
  5
336
  8
1
 62
     7
 66
     1
 10
0.0
 20
0.0
 30
0.0
  0
VERTEX
  5
388
  8
1
 62
     7
 10
-153.25901690719331
 20
78.289969467124308
 30
0.0
 42
-0.0085273674243285
  0
VERTEX
  5
389
  8
1
 62
     7
 10
-153.5414322306527
 20
78.349042744588687
 30
0.0
 42
-0.028310573395206
  0
VERTEX
  5
38A
  8
1
 62
     7
 10
-153.81204362158741
 20
78.427045262800235
 30
0.0
 42
-0.0428191642399472
  0
VERTEX
  5
38B
  8
1
 62
     7
 10
-154.0807481839127
 20
78.548471667784952
 30
0.0
 42
-0.0259278294499336
  0
VERTEX
  5
38C
  8
1
 62
     7
 10
-154.23238914909231
 20
78.643615150846173
 30
0.0
 42
-0.0298301439401343
  0
VERTEX
  5
38D
  8
1
 62
     7
 10
-154.375061643685
 20
78.75665994205832
 30
0.0
 42
-0.0385784405558425
  0
VERTEX
  5
38E
  8
1
 62
     7
 10
-154.4972746870595
 20
78.884065637663269
 30
0.0
 42
-0.0540876913955308
  0
VERTEX
  5
38F
  8
1
 62
     7
 10
-154.58753729858481
 20
79.022291833902813
 30
0.0
 42
-0.0776928960025986
  0
VERTEX
  5
390
  8
1
 62
     7
 10
-154.63435849762939
 20
79.16779812701877
 30
0.0
 42
-0.1033304659361185
  0
VERTEX
  5
391
  8
1
 62
     7
 10
-154.6256566538421
 20
79.321723726571449
 30
0.0
 42
-0.0707531669021308
  0
VERTEX
  5
392
  8
1
 62
     7
 10
-154.55938604739899
 20
79.478817948054299
 30
0.0
 42
-0.0438326267052583
  0
VERTEX
  5
393
  8
1
 62
     7
 10
-154.45343973822159
 20
79.627118784177583
 30
0.0
 42
-0.0290528850352744
  0
VERTEX
  5
394
  8
1
 62
     7
 10
-154.32710071035481
 20
79.759279555227096
 30
0.0
 42
-0.0217917818290786
  0
VERTEX
  5
395
  8
1
 62
     7
 10
-154.19965194784331
 20
79.867953581488408
 30
0.0
  0
SEQEND
  5
396
  8
1
 62
     7
  0
POLYLINE
  5
346
  8
1
 62
     7
 66
     1
 10
0.0
 20
0.0
 30
0.0
  0
VERTEX
  5
397
  8
1
 62
     7
 10
-150.9996519478434
 20
88.945911017735995
 30
0.0
 42
-0.054313538805668
  0
VERTEX
  5
398
  8
1
 62
     7
 10
-150.5968157711616
 20
89.136990532635636
 30
0.0
 42
-0.0401745375963302
  0
VERTEX
  5
399
  8
1
 62
     7
 10
-150.1700030860714
 20
89.246473947644176
 30
0.0
 42
-0.0234311910965986
  0
VERTEX
  5
39A
  8
1
 62
     7
 10
-149.7265372024286
 20
89.301810118312261
 30
0.0
 42
-0.0092614773097964
  0
VERTEX
  5
39B
  8
1
 62
     7
 10
-149.3096494123775
 20
89.327377267751899
 30
0.0
 42
-0.0315757571641622
  0
VERTEX
  5
39C
  8
1
 62
     7
 10
-148.93050549939059
 20
89.320313070596285
 30
0.0
 42
-0.0597183246644062
  0
VERTEX
  5
39D
  8
1
 62
     7
 10
-148.56615425230191
 20
89.245819028217099
 30
0.0
 42
-0.015089709112649
  0
VERTEX
  5
39E
  8
1
 62
     7
 10
-148.36351249264149
 20
89.165050186258341
 30
0.0
 42
-0.0082500935331557
  0
VERTEX
  5
39F
  8
1
 62
     7
 10
-148.04983648665129
 20
89.036192395779196
 30
0.0
 42
-0.0394320055379632
  0
VERTEX
  5
3A0
  8
1
 62
     7
 10
-147.79863028825591
 20
88.896355979548687
 30
0.0
 42
-0.055960999769793
  0
VERTEX
  5
3A1
  8
1
 62
     7
 10
-147.6218701810823
 20
88.74217604608944
 30
0.0
 42
-0.0767255764913459
  0
VERTEX
  5
3A2
  8
1
 62
     7
 10
-147.49396497284209
 20
88.550247839114007
 30
0.0
 42
-0.0961295142649477
  0
VERTEX
  5
3A3
  8
1
 62
     7
 10
-147.43791432895719
 20
88.320132369978538
 30
0.0
  0
SEQEND
  5
3A4
  8
1
 62
     7
  0
ARC
  5
355
  8
1
 62
     7
 10
-153.6378876360242
 20
86.114330937337058
 30
0.0
 40
1.0000000000000211
 50
122.0500291495915
 51
180.0
  0
TEXT
  5
357
  8
1
 62
     7
 10
-414.16491612576499
 20
228.97534956262689
 30
0.0
 40
12.0
  1
MMC 40
 41
0.9
  7
SIMPLEX
  0
ENDSEC
  0
EOF
