  0
SECTION
  2
HEADER
  9
$ACADVER
  1
AC1009
  9
$INSBASE
 10
0.0
 20
0.0
 30
0.0
  9
$EXTMIN
 10
-197.23503461258011
 20
38.758029029198489
 30
0.0
  9
$EXTMAX
 10
69.664988973487851
 20
254.21784782647171
 30
0.0
  9
$LIMMIN
 10
-197.23503461258011
 20
38.758029029198489
  9
$LIMMAX
 10
69.664988973487851
 20
253.182313920539
  9
$ORTHOMODE
 70
     0
  9
$REGENMODE
 70
     1
  9
$FILLMODE
 70
     1
  9
$QTEXTMODE
 70
     0
  9
$MIRRTEXT
 70
     1
  9
$DRAGMODE
 70
     2
  9
$LTSCALE
 40
1.0
  9
$OSMODE
 70
    37
  9
$ATTMODE
 70
     1
  9
$TEXTSIZE
 40
3.5
  9
$TRACEWID
 40
0.5
  9
$TEXTSTYLE
  7
STANDARD
  9
$CLAYER
  8
0
  9
$CELTYPE
  6
BYLAYER
  9
$CECOLOR
 62
   256
  9
$DIMSCALE
 40
1.0
  9
$DIMASZ
 40
0.18
  9
$DIMEXO
 40
0.0625
  9
$DIMDLI
 40
0.38
  9
$DIMRND
 40
0.0
  9
$DIMDLE
 40
0.0
  9
$DIMEXE
 40
0.18
  9
$DIMTP
 40
0.0
  9
$DIMTM
 40
0.0
  9
$DIMTXT
 40
0.18
  9
$DIMCEN
 40
0.09
  9
$DIMTSZ
 40
0.0
  9
$DIMTOL
 70
     0
  9
$DIMLIM
 70
     0
  9
$DIMTIH
 70
     1
  9
$DIMTOH
 70
     1
  9
$DIMSE1
 70
     0
  9
$DIMSE2
 70
     0
  9
$DIMTAD
 70
     0
  9
$DIMZIN
 70
     0
  9
$DIMBLK
  1

  9
$DIMASO
 70
     1
  9
$DIMSHO
 70
     1
  9
$DIMPOST
  1

  9
$DIMAPOST
  1

  9
$DIMALT
 70
     0
  9
$DIMALTD
 70
     2
  9
$DIMALTF
 40
25.399999999999999
  9
$DIMLFAC
 40
1.0
  9
$DIMTOFL
 70
     0
  9
$DIMTVP
 40
0.0
  9
$DIMTIX
 70
     0
  9
$DIMSOXD
 70
     0
  9
$DIMSAH
 70
     0
  9
$DIMBLK1
  1

  9
$DIMBLK2
  1

  9
$DIMSTYLE
  2
STANDARD
  9
$DIMCLRD
 70
     0
  9
$DIMCLRE
 70
     0
  9
$DIMCLRT
 70
     0
  9
$DIMTFAC
 40
1.0
  9
$DIMGAP
 40
0.09
  9
$LUNITS
 70
     2
  9
$LUPREC
 70
     4
  9
$SKETCHINC
 40
0.1
  9
$FILLETRAD
 40
2.0
  9
$AUNITS
 70
     0
  9
$AUPREC
 70
     0
  9
$MENU
  1
ACAD
  9
$ELEVATION
 40
0.0
  9
$PELEVATION
 40
0.0
  9
$THICKNESS
 40
0.0
  9
$LIMCHECK
 70
     0
  9
$BLIPMODE
 70
     0
  9
$CHAMFERA
 40
0.0
  9
$CHAMFERB
 40
0.0
  9
$SKPOLY
 70
     0
  9
$TDCREATE
 40
2452094.911256481
  9
$TDUPDATE
 40
2452094.9119964121
  9
$TDINDWG
 40
0.0008525463
  9
$TDUSRTIMER
 40
0.0008525463
  9
$USRTIMER
 70
     1
  9
$ANGBASE
 50
0.0
  9
$ANGDIR
 70
     0
  9
$PDMODE
 70
     0
  9
$PDSIZE
 40
0.0
  9
$PLINEWID
 40
0.0
  9
$COORDS
 70
     1
  9
$SPLFRAME
 70
     0
  9
$SPLINETYPE
 70
     6
  9
$SPLINESEGS
 70
     8
  9
$ATTDIA
 70
     0
  9
$ATTREQ
 70
     1
  9
$HANDLING
 70
 10241
  9
$HANDSEED
  5
238
  9
$SURFTAB1
 70
     6
  9
$SURFTAB2
 70
     6
  9
$SURFTYPE
 70
     6
  9
$SURFU
 70
     6
  9
$SURFV
 70
     6
  9
$UCSNAME
  2

  9
$UCSORG
 10
0.0
 20
0.0
 30
0.0
  9
$UCSXDIR
 10
1.0
 20
0.0
 30
0.0
  9
$UCSYDIR
 10
0.0
 20
1.0
 30
0.0
  9
$PUCSNAME
  2

  9
$PUCSORG
 10
0.0
 20
0.0
 30
0.0
  9
$PUCSXDIR
 10
1.0
 20
0.0
 30
0.0
  9
$PUCSYDIR
 10
0.0
 20
1.0
 30
0.0
  9
$USERI1
 70
     0
  9
$USERI2
 70
     0
  9
$USERI3
 70
     0
  9
$USERI4
 70
     0
  9
$USERI5
 70
     0
  9
$USERR1
 40
0.0
  9
$USERR2
 40
0.0
  9
$USERR3
 40
0.0
  9
$USERR4
 40
0.0
  9
$USERR5
 40
0.0
  9
$WORLDVIEW
 70
     1
  9
$SHADEDGE
 70
     3
  9
$SHADEDIF
 70
    70
  9
$TILEMODE
 70
     1
  9
$MAXACTVP
 70
    64
  9
$PLIMCHECK
 70
     0
  9
$PEXTMIN
 10
1.0000000000000000E+020
 20
1.0000000000000000E+020
 30
1.0000000000000000E+020
  9
$PEXTMAX
 10
-1.0000000000000000E+020
 20
-1.0000000000000000E+020
 30
-1.0000000000000000E+020
  9
$PLIMMIN
 10
0.0
 20
0.0
  9
$PLIMMAX
 10
12.0
 20
9.0
  9
$UNITMODE
 70
     0
  9
$VISRETAIN
 70
     1
  9
$PLINEGEN
 70
     0
  9
$PSLTSCALE
 70
     1
  0
ENDSEC
  0
SECTION
  2
TABLES
  0
TABLE
  2
VPORT
 70
     2
  0
VPORT
  2
*ACTIVE
 70
     0
 10
0.0
 20
0.0
 11
1.0
 21
1.0
 12
-134.79334152682389
 22
135.2555977318535
 13
0.0
 23
0.0
 14
1.0
 24
1.0
 15
0.0
 25
0.0
 16
0.0
 26
0.0
 36
1.0
 17
0.0
 27
0.0
 37
0.0
 40
9.0000000836089828
 41
2.4144144144144142
 42
50.0
 43
0.0
 44
0.0
 50
0.0
 51
0.0
 71
     0
 72
   100
 73
     1
 74
     1
 75
     0
 76
     0
 77
     0
 78
     0
  0
ENDTAB
  0
TABLE
  2
LTYPE
 70
     9
  0
LTYPE
  2
CONTINUOUS
 70
     0
  3
Solid line
 72
    65
 73
     0
 40
0.0
  0
LTYPE
  2
BORDER
 70
     0
  3
__ __ . __ __ .
 72
    65
 73
     6
 40
12.29144845462155
 49
3.5118424156061558
 49
-1.755921207803079
 49
3.5118424156061558
 49
-1.755921207803079
 49
0.0
 49
-1.755921207803079
  0
LTYPE
  2
CENTER
 70
     0
  3
____ _ ____ _
 72
    65
 73
     4
 40
14.04736966242463
 49
8.7796060390153912
 49
-1.755921207803079
 49
1.755921207803079
 49
-1.755921207803079
  0
LTYPE
  2
DASHDOT
 70
     0
  3
__ . __ . __ .
 72
    65
 73
     4
 40
7.0236848312123126
 49
3.5118424156061558
 49
-1.755921207803079
 49
0.0
 49
-1.755921207803079
  0
LTYPE
  2
DASHED
 70
     0
  3
__ __ __ __ __
 72
    65
 73
     2
 40
5.2677636234092349
 49
3.5118424156061558
 49
-1.755921207803079
  0
LTYPE
  2
DIVIDE
 70
     0
  3
__ . . __ . . 
 72
    65
 73
     6
 40
8.7796060390153912
 49
3.5118424156061558
 49
-1.755921207803079
 49
0.0
 49
-1.755921207803079
 49
0.0
 49
-1.755921207803079
  0
LTYPE
  2
DOT
 70
     0
  3
..............
 72
    65
 73
     4
 40
3.5118424156061558
 49
0.0
 49
-1.755921207803079
 49
0.0
 49
-1.755921207803079
  0
LTYPE
  2
HIDDEN
 70
     0
  3
_ _ _ _ _ _ _
 72
    65
 73
     2
 40
2.633881811704617
 49
1.755921207803079
 49
-0.8779606039015392
  0
LTYPE
  2
PHANTOM
 70
     0
  3
_____ _ _ _____ _ _ 
 72
    65
 73
     6
 40
17.559212078030789
 49
8.7796060390153912
 49
-1.755921207803079
 49
1.755921207803079
 49
-1.755921207803079
 49
1.755921207803079
 49
-1.755921207803079
  0
ENDTAB
  0
TABLE
  2
LAYER
 70
     2
  0
LAYER
  2
0
 70
     0
 62
     7
  6
CONTINUOUS
  0
LAYER
  2
1
 70
     0
 62
     7
  6
CONTINUOUS
  0
ENDTAB
  0
TABLE
  2
STYLE
 70
     4
  0
STYLE
  2
STANDARD
 70
     0
 40
0.0
 41
1.0
 50
0.0
 71
     0
 42
3.5
  3
txt
  4

  0
STYLE
  2
SIMPLEX
 70
     0
 40
0.0
 41
1.0
 50
0.0
 71
     0
 42
3.5
  3
simplex
  4

  0
STYLE
  2
COMPLEX
 70
     0
 40
0.0
 41
1.0
 50
0.0
 71
     0
 42
3.5
  3
complex
  4

  0
STYLE
  2
ITALIC
 70
     0
 40
0.0
 41
1.0
 50
0.0
 71
     0
 42
3.5
  3
italic
  4

  0
ENDTAB
  0
TABLE
  2
VIEW
 70
     0
  0
ENDTAB
  0
TABLE
  2
UCS
 70
     0
  0
ENDTAB
  0
TABLE
  2
APPID
 70
     1
  0
APPID
  2
ACAD
 70
     0
  0
ENDTAB
  0
TABLE
  2
DIMSTYLE
 70
     1
  0
DIMSTYLE
  2
STANDARD
 70
     0
  3

  4

  5

  6

  7

 40
1.0
 41
0.18
 42
0.0625
 43
0.38
 44
0.18
 45
0.0
 46
0.0
 47
0.0
 48
0.0
140
0.18
141
0.09
142
0.0
143
25.399999999999999
144
1.0
145
0.0
146
1.0
147
0.09
 71
     0
 72
     0
 73
     1
 74
     1
 75
     0
 76
     0
 77
     0
 78
     0
170
     0
171
     2
172
     0
173
     0
174
     0
175
     0
176
     0
177
     0
178
     0
  0
ENDTAB
  0
ENDSEC
  0
SECTION
  2
BLOCKS
  0
BLOCK
  8
0
  2
$MODEL_SPACE
 70
     0
 10
0.0
 20
0.0
 30
0.0
  3
$MODEL_SPACE
  1

  0
ENDBLK
  5
20
  8
0
  0
BLOCK
 67
     1
  8
0
  2
$PAPER_SPACE
 70
     0
 10
0.0
 20
0.0
 30
0.0
  3
$PAPER_SPACE
  1

  0
ENDBLK
  5
1C
 67
     1
  8
0
  0
ENDSEC
  0
SECTION
  2
ENTITIES
  0
LINE
  5
33
  8
1
 62
     7
 10
3.6649889734878411
 20
45.755395683453209
 30
0.0
 11
18.664988973487841
 21
45.755395683453209
 31
0.0
  0
LINE
  5
34
  8
1
  6
CENTER
 62
     3
 10
51.664988973487851
 20
45.755395683453209
 30
0.0
 11
69.664988973487851
 21
45.755395683453209
 31
0.0
  0
LINE
  5
35
  8
1
  6
CENTER
 62
     3
 10
18.664988973487841
 20
45.755395683453209
 30
0.0
 11
36.664988973487837
 21
45.755395683453209
 31
0.0
  0
LINE
  5
36
  8
1
 62
     7
 10
36.664988973487837
 20
45.755395683453209
 30
0.0
 11
51.664988973487851
 21
45.755395683453209
 31
0.0
  0
LINE
  5
37
  8
1
 62
     7
 10
-99.235034612580066
 20
45.755395683453209
 30
0.0
 11
-99.235034612580066
 21
50.755395683453209
 31
0.0
  0
LINE
  5
38
  8
1
 62
     7
 10
-161.23503461257999
 20
45.755395683453209
 30
0.0
 11
-161.23503461257999
 21
50.755395683453209
 31
0.0
  0
LINE
  5
39
  8
1
 62
     7
 10
-98.235034612580066
 20
183.182313920539
 30
0.0
 11
-95.035034612580134
 21
183.182313920539
 31
0.0
  0
LINE
  5
3A
  8
1
  6
DASHDOT
 62
     3
 10
-107.73503461257999
 20
171.41974602167679
 30
0.0
 11
-107.73503461257999
 21
180.94488181940099
 31
0.0
  0
LINE
  5
3B
  8
1
  6
DASHDOT
 62
     3
 10
-102.97246671371801
 20
176.1823139205388
 30
0.0
 11
-112.4976025114422
 21
176.1823139205388
 31
0.0
  0
LINE
  5
3C
  8
1
  6
CENTER
 62
     3
 10
-111.23503461257999
 20
169.1823139205388
 30
0.0
 11
-104.23503461258009
 21
169.1823139205388
 31
0.0
  0
LINE
  5
3D
  8
1
  6
CENTER
 62
     3
 10
-99.235034612580137
 20
174.1823139205388
 30
0.0
 11
-99.235034612580137
 21
182.1823139205388
 31
0.0
  0
LINE
  5
3E
  8
1
 62
     7
 10
-114.73503461258009
 20
175.1823139205388
 30
0.0
 11
-114.73503461258009
 21
181.1823139205388
 31
0.0
  0
LINE
  5
3F
  8
1
 62
     3
 10
-93.106728798846319
 20
166.18453293158069
 30
0.0
 11
-95.739733718707143
 21
167.6223385832559
 31
0.0
  0
LINE
  5
40
  8
1
 62
     3
 10
-95.308392023204618
 20
168.4122400592141
 30
0.0
 11
-92.675387103343809
 21
166.97443440753901
 31
0.0
  0
LINE
  5
41
  8
1
 62
     3
 10
-99.226085294410353
 20
163.80923770918551
 30
0.0
 11
-100.7260852944103
 21
166.40731392053871
 31
0.0
  0
LINE
  5
42
  8
1
 62
     3
 10
-101.50550815781619
 20
165.95731392053881
 30
0.0
 11
-100.0055081578161
 21
163.35923770918541
 31
0.0
  0
LINE
  5
43
  8
1
 62
     7
 10
-107.73503461257999
 20
181.1823139205388
 30
0.0
 11
-100.73503461257999
 21
181.1823139205388
 31
0.0
  0
LINE
  5
44
  8
1
 62
     7
 10
-95.09272117545332
 20
168.80719079719319
 30
0.0
 11
-95.955404566458441
 21
167.22738784527681
 31
0.0
  0
LINE
  5
45
  8
1
 62
     7
 10
-101.8952195895192
 20
165.73231392053879
 30
0.0
 11
-100.33637386270721
 21
166.63231392053879
 31
0.0
  0
LINE
  5
46
  8
1
 62
     7
 10
-100.73503461257999
 20
182.1823139205388
 30
0.0
 11
-100.73503461257999
 21
181.1823139205388
 31
0.0
  0
LINE
  5
47
  8
1
 62
     7
 10
-107.73503461257999
 20
181.1823139205388
 30
0.0
 11
-107.73503461257999
 21
182.1823139205388
 31
0.0
  0
LINE
  5
48
  8
1
 62
     7
 10
-95.035034612580148
 20
239.18231392053889
 30
0.0
 11
-98.235034612580151
 21
239.18231392053889
 31
0.0
  0
LINE
  5
49
  8
1
  6
DASHDOT
 62
     3
 10
-107.73503461257999
 20
241.41974602167679
 30
0.0
 11
-107.73503461257999
 21
250.94488181940099
 31
0.0
  0
LINE
  5
4A
  8
1
  6
DASHDOT
 62
     3
 10
-112.4976025114422
 20
246.1823139205388
 30
0.0
 11
-102.97246671371801
 21
246.1823139205388
 31
0.0
  0
LINE
  5
4B
  8
1
  6
CENTER
 62
     3
 10
-104.23503461258009
 20
253.182313920539
 30
0.0
 11
-111.23503461257999
 21
253.182313920539
 31
0.0
  0
LINE
  5
4C
  8
1
  6
CENTER
 62
     3
 10
-99.235034612580066
 20
240.1823139205388
 30
0.0
 11
-99.235034612580137
 21
248.1823139205388
 31
0.0
  0
LINE
  5
4D
  8
1
 62
     7
 10
-114.73503461258009
 20
241.18231392053889
 30
0.0
 11
-114.73503461258009
 21
247.18231392053889
 31
0.0
  0
LINE
  5
4E
  8
1
 62
     7
 10
-161.23503461257999
 20
46.755395683453202
 30
0.0
 11
-162.23503461257999
 21
46.755395683453202
 31
0.0
  0
LINE
  5
4F
  8
1
 62
     7
 10
-162.23503461257999
 20
46.755395683453202
 30
0.0
 11
-162.23503461257999
 21
50.755395683453209
 31
0.0
  0
LINE
  5
50
  8
1
 62
     7
 10
-162.23503461257999
 20
50.755395683453209
 30
0.0
 11
-161.23503461257999
 21
50.755395683453209
 31
0.0
  0
LINE
  5
51
  8
1
 62
     7
 10
-98.235034612580066
 20
46.755395683453202
 30
0.0
 11
-99.235034612580066
 21
46.755395683453202
 31
0.0
  0
LINE
  5
52
  8
1
 62
     7
 10
-98.235034612580066
 20
50.755395683453209
 30
0.0
 11
-98.235034612580066
 21
46.755395683453202
 31
0.0
  0
LINE
  5
53
  8
1
 62
     7
 10
-99.235034612580066
 20
50.755395683453209
 30
0.0
 11
-98.235034612580066
 21
50.755395683453209
 31
0.0
  0
LINE
  5
54
  8
1
  6
DASHDOT
 62
     3
 10
-197.23503461258011
 20
211.1823139205388
 30
0.0
 11
-192.23503461258011
 21
211.1823139205388
 31
0.0
  0
LINE
  5
55
  8
1
  6
DASHDOT
 62
     3
 10
-68.235034612580151
 20
211.1823139205388
 30
0.0
 11
-63.235034612580137
 21
211.1823139205388
 31
0.0
  0
LINE
  5
56
  8
1
  6
DASHDOT
 62
     3
 10
-197.23503461258011
 20
80.755395683453202
 30
0.0
 11
-192.23503461258011
 21
80.755395683453202
 31
0.0
  0
LINE
  5
57
  8
1
  6
DASHDOT
 62
     3
 10
-68.235034612580151
 20
80.755395683453202
 30
0.0
 11
-63.235034612580137
 21
80.755395683453202
 31
0.0
  0
LINE
  5
58
  8
1
  6
DASHDOT
 62
     3
 10
29.640039721300859
 20
80.755395683453202
 30
0.0
 11
25.68993822567483
 21
80.755395683453202
 31
0.0
  0
LINE
  5
59
  8
1
  6
DASHDOT
 62
     3
 10
27.664988973487841
 20
82.730446431266245
 30
0.0
 11
27.664988973487841
 21
78.780344935640215
 31
0.0
  0
LINE
  5
5A
  8
1
 62
     7
 10
-157.4350346125801
 20
81.955395683453261
 30
0.0
 11
-155.03503461258001
 21
81.955395683453261
 31
0.0
  0
LINE
  5
5B
  8
1
 62
     7
 10
-155.03503461258001
 20
79.555395683453213
 30
0.0
 11
-157.4350346125801
 21
79.555395683453213
 31
0.0
  0
LINE
  5
5C
  8
1
 62
     7
 10
-105.43503461258
 20
81.955395683453261
 30
0.0
 11
-103.03503461258011
 21
81.955395683453261
 31
0.0
  0
LINE
  5
5D
  8
1
 62
     7
 10
-103.03503461258011
 20
79.555395683453213
 30
0.0
 11
-105.43503461258
 21
79.555395683453213
 31
0.0
  0
LINE
  5
5E
  8
1
 62
     7
 10
-98.235034612580066
 20
77.755395683453202
 30
0.0
 11
-102.432258974848
 21
77.755395683453202
 31
0.0
  0
LINE
  5
5F
  8
1
 62
     7
 10
-100.03503461258001
 20
83.755395683453202
 30
0.0
 11
-100.03503461258001
 21
77.755395683453202
 31
0.0
  0
LINE
  5
60
  8
1
 62
     7
 10
-102.432258974848
 20
83.755395683453202
 30
0.0
 11
-98.235034612580137
 21
83.755395683453202
 31
0.0
  0
LINE
  5
61
  8
1
 62
     7
 10
-158.03781025031211
 20
77.755395683453202
 30
0.0
 11
-162.23503461257999
 21
77.755395683453202
 31
0.0
  0
LINE
  5
62
  8
1
 62
     3
 10
-20.158087237865459
 20
85.884922138217121
 30
0.0
 11
-17.560011026512171
 21
84.384922138217064
 31
0.0
  0
LINE
  5
63
  8
1
 62
     3
 10
-17.110011026512151
 20
85.164345001623076
 30
0.0
 11
-19.70808723786547
 21
86.664345001623076
 31
0.0
  0
LINE
  5
64
  8
1
 62
     3
 10
-16.542890539512051
 20
91.415043192689495
 30
0.0
 11
-15.105084887836851
 21
88.782038272828714
 31
0.0
  0
LINE
  5
65
  8
1
 62
     3
 10
-15.894986363795169
 20
88.350696577326246
 30
0.0
 11
-17.33279201547025
 21
90.983701497186999
 31
0.0
  0
LINE
  5
66
  8
1
 62
     7
 10
-16.289937101774239
 20
88.135025729574991
 30
0.0
 11
-14.71013414985776
 21
88.997709120580069
 31
0.0
  0
LINE
  5
67
  8
1
 62
     7
 10
-16.88501102651216
 20
85.554056433326082
 30
0.0
 11
-17.785011026512151
 21
83.995210706514129
 31
0.0
  0
LINE
  5
68
  8
1
 62
     7
 10
-1.335011026512144
 20
77.25539568345323
 30
0.0
 11
-2.3350110265121451
 21
77.25539568345323
 31
0.0
  0
LINE
  5
69
  8
1
 62
     7
 10
-2.3350110265121451
 20
77.25539568345323
 30
0.0
 11
-2.3350110265121451
 21
84.25539568345323
 31
0.0
  0
LINE
  5
6A
  8
1
 62
     7
 10
-2.3350110265121451
 20
84.25539568345323
 30
0.0
 11
-1.335011026512144
 21
84.25539568345323
 31
0.0
  0
LINE
  5
6B
  8
1
 62
     7
 10
-2.3350110265121451
 20
78.684327421773602
 30
0.0
 11
-8.4059004930305665
 21
78.25287986053911
 31
0.0
  0
LINE
  5
6C
  8
1
 62
     7
 10
-191.73503461257999
 20
207.1823139205388
 30
0.0
 11
-191.73503461257999
 21
209.93231392053889
 31
0.0
  0
LINE
  5
6D
  8
1
 62
     7
 10
-192.23503461258011
 20
209.93231392053889
 30
0.0
 11
-175.48503461258011
 21
209.93231392053889
 31
0.0
  0
LINE
  5
6E
  8
1
 62
     7
 10
-175.48503461258011
 20
212.4323139205388
 30
0.0
 11
-192.23503461258011
 21
212.4323139205388
 31
0.0
  0
LINE
  5
6F
  8
1
 62
     7
 10
-191.73503461257999
 20
212.4323139205388
 30
0.0
 11
-191.73503461257999
 21
215.1823139205388
 31
0.0
  0
LINE
  5
70
  8
1
 62
     7
 10
-192.23503461258011
 20
207.68231392053889
 30
0.0
 11
-191.73503461257999
 21
207.1823139205388
 31
0.0
  0
LINE
  5
71
  8
1
 62
     7
 10
-191.73503461257999
 20
215.1823139205388
 30
0.0
 11
-192.23503461258011
 21
214.6823139205388
 31
0.0
  0
LINE
  5
72
  8
1
 62
     7
 10
-172.4350346125801
 20
207.1823139205388
 30
0.0
 11
-191.73503461257999
 21
207.1823139205388
 31
0.0
  0
LINE
  5
73
  8
1
 62
     7
 10
-192.23503461258011
 20
207.68231392053889
 30
0.0
 11
-192.23503461258011
 21
214.6823139205388
 31
0.0
  0
LINE
  5
74
  8
1
 62
     7
 10
-191.73503461257999
 20
215.1823139205388
 30
0.0
 11
-172.4350346125801
 21
215.1823139205388
 31
0.0
  0
LINE
  5
75
  8
1
 62
     7
 10
-68.735034612580151
 20
209.93231392053889
 30
0.0
 11
-68.735034612580151
 21
207.1823139205388
 31
0.0
  0
LINE
  5
76
  8
1
 62
     7
 10
-84.985034612580165
 20
209.93231392053889
 30
0.0
 11
-68.235034612580151
 21
209.93231392053889
 31
0.0
  0
LINE
  5
77
  8
1
 62
     7
 10
-68.235034612580151
 20
212.4323139205388
 30
0.0
 11
-84.985034612580165
 21
212.4323139205388
 31
0.0
  0
LINE
  5
78
  8
1
 62
     7
 10
-68.735034612580151
 20
215.1823139205388
 30
0.0
 11
-68.735034612580151
 21
212.4323139205388
 31
0.0
  0
LINE
  5
79
  8
1
 62
     7
 10
-68.735034612580151
 20
207.1823139205388
 30
0.0
 11
-68.235034612580151
 21
207.68231392053889
 31
0.0
  0
LINE
  5
7A
  8
1
 62
     7
 10
-68.235034612580151
 20
214.6823139205388
 30
0.0
 11
-68.735034612580151
 21
215.1823139205388
 31
0.0
  0
LINE
  5
7B
  8
1
 62
     7
 10
-68.735034612580151
 20
207.1823139205388
 30
0.0
 11
-88.035034612580148
 21
207.1823139205388
 31
0.0
  0
LINE
  5
7C
  8
1
 62
     7
 10
-68.235034612580151
 20
214.6823139205388
 30
0.0
 11
-68.235034612580151
 21
207.68231392053889
 31
0.0
  0
LINE
  5
7D
  8
1
 62
     7
 10
-88.035034612580148
 20
215.1823139205388
 30
0.0
 11
-68.735034612580151
 21
215.1823139205388
 31
0.0
  0
LINE
  5
7E
  8
1
 62
     7
 10
-192.23503461258011
 20
85.655395683453193
 30
0.0
 11
-174.23503461258011
 21
85.655395683453193
 31
0.0
  0
LINE
  5
7F
  8
1
 62
     7
 10
-174.23503461258011
 20
85.655395683453193
 30
0.0
 11
-174.23503461258011
 21
84.755395683453202
 31
0.0
  0
LINE
  5
80
  8
1
 62
     7
 10
-191.73503461257999
 20
76.755395683453202
 30
0.0
 11
-191.73503461257999
 21
84.755395683453202
 31
0.0
  0
LINE
  5
81
  8
1
 62
     7
 10
-192.23503461258011
 20
77.255395683453202
 30
0.0
 11
-191.73503461257999
 21
76.755395683453202
 31
0.0
  0
LINE
  5
82
  8
1
 62
     7
 10
-191.73503461257999
 20
84.755395683453202
 30
0.0
 11
-192.23503461258011
 21
84.255395683453187
 31
0.0
  0
LINE
  5
83
  8
1
 62
     7
 10
-172.4350346125801
 20
76.755395683453202
 30
0.0
 11
-191.73503461257999
 21
76.755395683453202
 31
0.0
  0
LINE
  5
84
  8
1
 62
     7
 10
-192.23503461258011
 20
85.655395683453193
 30
0.0
 11
-192.23503461258011
 21
77.255395683453202
 31
0.0
  0
LINE
  5
85
  8
1
 62
     7
 10
-191.73503461257999
 20
84.755395683453202
 30
0.0
 11
-172.4350346125801
 21
84.755395683453202
 31
0.0
  0
LINE
  5
86
  8
1
 62
     7
 10
25.06498897348785
 20
75.075445935026721
 30
0.0
 11
25.06498897348785
 21
75.883118088526047
 31
0.0
  0
LINE
  5
87
  8
1
 62
     7
 10
26.06498897348785
 20
74.075445935026721
 30
0.0
 11
27.26498897348786
 21
74.075445935026721
 31
0.0
  0
LINE
  5
88
  8
1
 62
     7
 10
27.26498897348786
 20
74.975445935026727
 30
0.0
 11
27.26498897348786
 21
74.075445935026721
 31
0.0
  0
LINE
  5
89
  8
1
 62
     7
 10
26.414988973487841
 20
74.975445935026727
 30
0.0
 11
27.26498897348786
 21
74.975445935026727
 31
0.0
  0
LINE
  5
8A
  8
1
 62
     7
 10
27.26498897348786
 20
76.075445935026721
 30
0.0
 11
26.414988973487841
 21
76.075445935026721
 31
0.0
  0
LINE
  5
8B
  8
1
 62
     7
 10
27.26498897348786
 20
76.775445935026724
 30
0.0
 11
27.26498897348786
 21
76.075445935026721
 31
0.0
  0
LINE
  5
8C
  8
1
 62
     7
 10
28.064988973487839
 20
76.075445935026721
 30
0.0
 11
28.064988973487839
 21
76.775445935026724
 31
0.0
  0
LINE
  5
8D
  8
1
 62
     7
 10
28.914988973487841
 20
76.075445935026721
 30
0.0
 11
28.064988973487839
 21
76.075445935026721
 31
0.0
  0
LINE
  5
8E
  8
1
 62
     7
 10
28.064988973487839
 20
74.975445935026727
 30
0.0
 11
28.914988973487841
 21
74.975445935026727
 31
0.0
  0
LINE
  5
8F
  8
1
 62
     7
 10
28.064988973487839
 20
74.075445935026721
 30
0.0
 11
28.064988973487839
 21
74.975445935026727
 31
0.0
  0
LINE
  5
90
  8
1
 62
     7
 10
28.064988973487839
 20
74.075445935026721
 30
0.0
 11
29.264988973487839
 21
74.075445935026721
 31
0.0
  0
LINE
  5
91
  8
1
 62
     7
 10
30.264988973487831
 20
75.883118088526047
 30
0.0
 11
30.264988973487831
 21
75.075445935026721
 31
0.0
  0
LINE
  5
92
  8
1
 62
     7
 10
28.91498897348783
 20
83.655395683453207
 30
0.0
 11
26.41498897348783
 21
83.655395683453207
 31
0.0
  0
LINE
  5
93
  8
1
 62
     7
 10
28.91498897348783
 20
85.655395683453193
 30
0.0
 11
28.91498897348783
 21
83.655395683453207
 31
0.0
  0
LINE
  5
94
  8
1
 62
     7
 10
26.41498897348783
 20
85.655395683453193
 30
0.0
 11
28.91498897348783
 21
85.655395683453193
 31
0.0
  0
LINE
  5
95
  8
1
 62
     7
 10
26.41498897348783
 20
83.655395683453207
 30
0.0
 11
26.41498897348783
 21
85.655395683453193
 31
0.0
  0
LINE
  5
96
  8
1
 62
     7
 10
-86.235034612580165
 20
85.655395683453193
 30
0.0
 11
-68.235034612580151
 21
85.655395683453193
 31
0.0
  0
LINE
  5
97
  8
1
 62
     7
 10
-86.235034612580165
 20
84.755395683453202
 30
0.0
 11
-86.235034612580165
 21
85.655395683453193
 31
0.0
  0
LINE
  5
98
  8
1
 62
     7
 10
-68.735034612580151
 20
84.755395683453202
 30
0.0
 11
-68.735034612580151
 21
76.755395683453202
 31
0.0
  0
LINE
  5
99
  8
1
 62
     7
 10
-68.735034612580151
 20
76.755395683453202
 30
0.0
 11
-68.235034612580151
 21
77.255395683453202
 31
0.0
  0
LINE
  5
9A
  8
1
 62
     7
 10
-68.235034612580151
 20
84.255395683453187
 30
0.0
 11
-68.735034612580151
 21
84.755395683453202
 31
0.0
  0
LINE
  5
9B
  8
1
 62
     7
 10
-68.735034612580151
 20
76.755395683453202
 30
0.0
 11
-88.035034612580148
 21
76.755395683453202
 31
0.0
  0
LINE
  5
9C
  8
1
 62
     7
 10
-68.235034612580151
 20
77.255395683453202
 30
0.0
 11
-68.235034612580151
 21
85.655395683453193
 31
0.0
  0
LINE
  5
9D
  8
1
 62
     7
 10
-88.035034612580148
 20
84.755395683453202
 30
0.0
 11
-68.735034612580151
 21
84.755395683453202
 31
0.0
  0
LINE
  5
9E
  8
1
 62
     7
 10
-160.4350346125801
 20
77.755395683453202
 30
0.0
 11
-160.4350346125801
 21
83.755395683453202
 31
0.0
  0
LINE
  5
9F
  8
1
 62
     7
 10
-171.59943359988549
 20
197.04304708508971
 30
0.0
 11
-167.27063562527479
 21
196.32158075598821
 31
0.0
  0
LINE
  5
A0
  8
1
 62
     7
 10
-166.43503461258001
 20
184.182313920539
 30
0.0
 11
-166.43503461258001
 21
227.02944100892179
 31
0.0
  0
LINE
  5
A1
  8
1
 62
     7
 10
-165.43503461258001
 20
183.182313920539
 30
0.0
 11
-162.23503461257999
 21
183.182313920539
 31
0.0
  0
LINE
  5
A2
  8
1
 62
     7
 10
-172.4350346125801
 20
224.33518683215601
 30
0.0
 11
-172.4350346125801
 21
198.02944100892179
 31
0.0
  0
LINE
  5
A3
  8
1
 62
     7
 10
-167.27063562527479
 20
226.0430470850898
 30
0.0
 11
-171.59943359988549
 21
225.32158075598809
 31
0.0
  0
LINE
  5
A4
  8
1
 62
     7
 10
-166.43503461258001
 20
238.1823139205388
 30
0.0
 11
-166.43503461258001
 21
227.02944100892179
 31
0.0
  0
LINE
  5
A5
  8
1
 62
     7
 10
-162.23503461257999
 20
239.18231392053889
 30
0.0
 11
-165.43503461258001
 21
239.18231392053889
 31
0.0
  0
LINE
  5
A6
  8
1
 62
     7
 10
-93.199433599885424
 20
196.32158075598821
 30
0.0
 11
-88.870635625274787
 21
197.04304708508971
 31
0.0
  0
LINE
  5
A7
  8
1
 62
     7
 10
-94.035034612580148
 20
227.02944100892179
 30
0.0
 11
-94.035034612580148
 21
184.182313920539
 31
0.0
  0
LINE
  5
A8
  8
1
 62
     7
 10
-88.035034612580148
 20
198.02944100892179
 30
0.0
 11
-88.035034612580148
 21
224.33518683215601
 31
0.0
  0
LINE
  5
A9
  8
1
 62
     7
 10
-88.870635625274787
 20
225.32158075598809
 30
0.0
 11
-93.199433599885424
 21
226.0430470850898
 31
0.0
  0
LINE
  5
AA
  8
1
 62
     7
 10
-94.035034612580148
 20
227.02944100892179
 30
0.0
 11
-94.035034612580148
 21
238.1823139205388
 31
0.0
  0
LINE
  5
AB
  8
1
 62
     7
 10
-171.59943359988549
 20
66.616128848004081
 30
0.0
 11
-167.27063562527479
 21
65.894662518902379
 31
0.0
  0
LINE
  5
AC
  8
1
 62
     7
 10
-166.43503461258001
 20
53.755395683453322
 30
0.0
 11
-166.43503461258001
 21
96.602522771836206
 31
0.0
  0
LINE
  5
AD
  8
1
 62
     7
 10
-165.43503461258001
 20
52.755395683453322
 30
0.0
 11
-162.23503461257999
 21
52.755395683453322
 31
0.0
  0
LINE
  5
AE
  8
1
 62
     7
 10
-172.4350346125801
 20
93.908268595070197
 30
0.0
 11
-172.4350346125801
 21
67.602522771836192
 31
0.0
  0
LINE
  5
AF
  8
1
 62
     7
 10
-167.27063562527479
 20
95.616128848004095
 30
0.0
 11
-171.59943359988549
 21
94.894662518902337
 31
0.0
  0
LINE
  5
B0
  8
1
 62
     7
 10
-166.43503461258001
 20
107.7553956834532
 30
0.0
 11
-166.43503461258001
 21
96.602522771836206
 31
0.0
  0
LINE
  5
B1
  8
1
 62
     7
 10
-162.23503461257999
 20
108.7553956834532
 30
0.0
 11
-165.43503461258001
 21
108.7553956834532
 31
0.0
  0
LINE
  5
B2
  8
1
 62
     7
 10
-93.199433599885424
 20
65.894662518902379
 30
0.0
 11
-88.870635625274787
 21
66.616128848004081
 31
0.0
  0
LINE
  5
B3
  8
1
 62
     7
 10
-94.035034612580148
 20
96.602522771836206
 30
0.0
 11
-94.035034612580148
 21
53.755395683453322
 31
0.0
  0
LINE
  5
B4
  8
1
 62
     7
 10
-98.235034612580151
 20
52.755395683453322
 30
0.0
 11
-95.035034612580148
 21
52.755395683453322
 31
0.0
  0
LINE
  5
B5
  8
1
 62
     7
 10
-88.035034612580148
 20
67.602522771836192
 30
0.0
 11
-88.035034612580148
 21
93.908268595070197
 31
0.0
  0
LINE
  5
B6
  8
1
 62
     7
 10
-88.870635625274787
 20
94.894662518902337
 30
0.0
 11
-93.199433599885424
 21
95.616128848004095
 31
0.0
  0
LINE
  5
B7
  8
1
 62
     7
 10
-94.035034612580148
 20
96.602522771836206
 30
0.0
 11
-94.035034612580148
 21
107.7553956834532
 31
0.0
  0
LINE
  5
B8
  8
1
 62
     7
 10
-95.035034612580148
 20
108.7553956834532
 30
0.0
 11
-98.235034612580151
 21
108.7553956834532
 31
0.0
  0
LINE
  5
B9
  8
1
  6
DASHDOT
 62
     3
 10
-152.73503461257999
 20
250.94488181940099
 30
0.0
 11
-152.73503461257999
 21
241.41974602167679
 31
0.0
  0
LINE
  5
BA
  8
1
  6
DASHDOT
 62
     3
 10
-157.4976025114421
 20
246.1823139205388
 30
0.0
 11
-147.97246671371801
 21
246.1823139205388
 31
0.0
  0
LINE
  5
BB
  8
1
  6
CENTER
 62
     3
 10
-149.23503461257999
 20
253.182313920539
 30
0.0
 11
-156.23503461257999
 21
253.182313920539
 31
0.0
  0
LINE
  5
BC
  8
1
  6
CENTER
 62
     3
 10
-161.23503461257999
 20
248.1823139205388
 30
0.0
 11
-161.23503461257999
 21
240.1823139205388
 31
0.0
  0
LINE
  5
BD
  8
1
 62
     7
 10
-162.23503461257999
 20
240.1823139205388
 30
0.0
 11
-98.235034612580066
 21
240.1823139205388
 31
0.0
  0
LINE
  5
BE
  8
1
 62
     7
 10
-145.73503461257999
 20
247.18231392053889
 30
0.0
 11
-145.73503461257999
 21
241.18231392053889
 31
0.0
  0
LINE
  5
BF
  8
1
 62
     7
 10
-115.73503461258009
 20
248.1823139205388
 30
0.0
 11
-144.73503461257999
 21
248.1823139205388
 31
0.0
  0
LINE
  5
C0
  8
1
  6
DASHDOT
 62
     3
 10
-152.73503461257999
 20
180.94488181940099
 30
0.0
 11
-152.73503461257999
 21
171.41974602167679
 31
0.0
  0
LINE
  5
C1
  8
1
  6
DASHDOT
 62
     3
 10
-147.97246671371801
 20
176.1823139205388
 30
0.0
 11
-157.4976025114421
 21
176.1823139205388
 31
0.0
  0
LINE
  5
C2
  8
1
  6
CENTER
 62
     3
 10
-156.23503461257999
 20
169.1823139205388
 30
0.0
 11
-149.23503461257999
 21
169.1823139205388
 31
0.0
  0
LINE
  5
C3
  8
1
  6
CENTER
 62
     3
 10
-161.23503461257999
 20
182.1823139205388
 30
0.0
 11
-161.23503461257999
 21
174.1823139205388
 31
0.0
  0
LINE
  5
C4
  8
1
 62
     7
 10
-1.3350110265121591
 20
56.755395683453209
 30
0.0
 11
-1.3350110265121591
 21
104.7553956834532
 31
0.0
  0
LINE
  5
C5
  8
1
 62
     7
 10
3.6649889734878411
 20
109.7553956834532
 30
0.0
 11
51.664988973487851
 21
109.7553956834532
 31
0.0
  0
LINE
  5
C6
  8
1
 62
     7
 10
56.664988973487851
 20
104.7553956834532
 30
0.0
 11
56.664988973487851
 21
56.755395683453209
 31
0.0
  0
LINE
  5
C7
  8
1
 62
     7
 10
51.664988973487851
 20
51.755395683453209
 30
0.0
 11
3.6649889734878331
 21
51.755395683453209
 31
0.0
  0
LINE
  5
C8
  8
1
 62
     7
 10
3.6649889734878411
 20
49.339197196357539
 30
0.0
 11
3.6649889734878411
 21
45.755395683453209
 31
0.0
  0
LINE
  5
C9
  8
1
 62
     7
 10
51.664988973487851
 20
45.755395683453209
 30
0.0
 11
51.664988973487809
 21
49.339197196357539
 31
0.0
  0
LINE
  5
CA
  8
1
 62
     7
 10
20.664988973487841
 20
47.755395683453209
 30
0.0
 11
34.66498897348783
 21
47.755395683453209
 31
0.0
  0
LINE
  5
CB
  8
1
 62
     7
 10
-8.4059004930305665
 20
97.257911506367279
 30
0.0
 11
-1.7995662932529539
 21
96.788410818714596
 31
0.0
  0
LINE
  5
CC
  8
1
 62
     7
 10
-1.7995662932529539
 20
99.722380548191808
 30
0.0
 11
-8.4059004930305665
 21
99.252879860539124
 31
0.0
  0
LINE
  5
CD
  8
1
 62
     7
 10
-8.4059004930305665
 20
90.257911506367265
 30
0.0
 11
-1.7995662932529539
 21
89.788410818714581
 31
0.0
  0
LINE
  5
CE
  8
1
 62
     7
 10
-1.7995662932529539
 20
92.722380548191808
 30
0.0
 11
-8.4059004930305665
 21
92.252879860539124
 31
0.0
  0
LINE
  5
CF
  8
1
 62
     7
 10
-8.4059004930305665
 20
83.257911506367293
 30
0.0
 11
-2.3350110265121451
 21
82.826463945132815
 31
0.0
  0
LINE
  5
D0
  8
1
 62
     7
 10
-1.7995662932529539
 20
85.722380548191794
 30
0.0
 11
-8.4059004930305665
 21
85.25287986053911
 31
0.0
  0
LINE
  5
D1
  8
1
 62
     7
 10
-8.4059004930305665
 20
76.257911506367293
 30
0.0
 11
-1.7995662932529539
 21
75.788410818714581
 31
0.0
  0
LINE
  5
D2
  8
1
 62
     7
 10
-8.4059004930305665
 20
69.257911506367293
 30
0.0
 11
-1.7995662932529539
 21
68.788410818714581
 31
0.0
  0
LINE
  5
D3
  8
1
 62
     7
 10
-1.7995662932529539
 20
71.722380548191808
 30
0.0
 11
-8.4059004930305665
 21
71.25287986053911
 31
0.0
  0
LINE
  5
D4
  8
1
 62
     7
 10
-8.4059004930305665
 20
62.257911506367293
 30
0.0
 11
-1.7995662932529539
 21
61.788410818714581
 31
0.0
  0
LINE
  5
D5
  8
1
 62
     7
 10
-1.7995662932529539
 20
64.722380548191822
 30
0.0
 11
-8.4059004930305665
 21
64.25287986053911
 31
0.0
  0
LINE
  5
D6
  8
1
 62
     7
 10
-8.4059004930305665
 20
104.25791150636729
 30
0.0
 11
-1.7995662932529539
 21
103.7884108187145
 31
0.0
  0
LINE
  5
D7
  8
1
 62
     7
 10
-1.194066198370531
 20
106.7654123873819
 30
0.0
 11
-8.4059004930305665
 21
106.2528798605391
 31
0.0
  0
LINE
  5
D8
  8
1
 62
     7
 10
-1.7995662932529539
 20
57.722380548191808
 30
0.0
 11
-8.4059004930305665
 21
57.252879860539103
 31
0.0
  0
LINE
  5
D9
  8
1
 62
     7
 10
-8.4059004930305665
 20
55.257911506367279
 30
0.0
 11
-1.194066198370531
 21
54.745378979524432
 31
0.0
  0
LINE
  5
DA
  8
1
 62
     7
 10
56.664988973487851
 20
104.7553956834532
 30
0.0
 11
56.664988973487851
 21
56.755395683453209
 31
0.0
  0
LINE
  5
DB
  8
1
 62
     7
 10
57.129544240228633
 20
96.788410818714596
 30
0.0
 11
63.735878440006239
 21
97.257911506367279
 31
0.0
  0
LINE
  5
DC
  8
1
 62
     7
 10
63.735878440006239
 20
99.252879860539124
 30
0.0
 11
57.129544240228633
 21
99.722380548191808
 31
0.0
  0
LINE
  5
DD
  8
1
 62
     7
 10
57.129544240228633
 20
89.788410818714581
 30
0.0
 11
63.735878440006239
 21
90.257911506367265
 31
0.0
  0
LINE
  5
DE
  8
1
 62
     7
 10
63.735878440006239
 20
92.252879860539124
 30
0.0
 11
57.129544240228633
 21
92.722380548191808
 31
0.0
  0
LINE
  5
DF
  8
1
 62
     7
 10
57.129544240228633
 20
82.788410818714581
 30
0.0
 11
63.735878440006239
 21
83.257911506367293
 31
0.0
  0
LINE
  5
E0
  8
1
 62
     7
 10
63.735878440006239
 20
85.25287986053911
 30
0.0
 11
57.129544240228633
 21
85.722380548191794
 31
0.0
  0
LINE
  5
E1
  8
1
 62
     7
 10
57.129544240228633
 20
75.788410818714581
 30
0.0
 11
63.735878440006239
 21
76.257911506367293
 31
0.0
  0
LINE
  5
E2
  8
1
 62
     7
 10
63.735878440006239
 20
78.25287986053911
 30
0.0
 11
57.129544240228633
 21
78.722380548191808
 31
0.0
  0
LINE
  5
E3
  8
1
 62
     7
 10
57.129544240228633
 20
68.788410818714581
 30
0.0
 11
63.735878440006239
 21
69.257911506367293
 31
0.0
  0
LINE
  5
E4
  8
1
 62
     7
 10
63.735878440006239
 20
71.25287986053911
 30
0.0
 11
57.129544240228633
 21
71.722380548191808
 31
0.0
  0
LINE
  5
E5
  8
1
 62
     7
 10
57.129544240228633
 20
61.788410818714581
 30
0.0
 11
63.735878440006239
 21
62.257911506367293
 31
0.0
  0
LINE
  5
E6
  8
1
 62
     7
 10
63.735878440006239
 20
64.25287986053911
 30
0.0
 11
57.129544240228633
 21
64.722380548191822
 31
0.0
  0
LINE
  5
E7
  8
1
 62
     7
 10
57.129544240228633
 20
103.7884108187145
 30
0.0
 11
63.735878440006239
 21
104.25791150636729
 31
0.0
  0
LINE
  5
E8
  8
1
 62
     7
 10
63.735878440006239
 20
106.2528798605391
 30
0.0
 11
56.52404414534621
 21
106.7654123873819
 31
0.0
  0
LINE
  5
E9
  8
1
 62
     7
 10
63.735878440006239
 20
57.252879860539103
 30
0.0
 11
57.129544240228633
 21
57.722380548191808
 31
0.0
  0
LINE
  5
EA
  8
1
 62
     7
 10
56.52404414534621
 20
54.745378979524432
 30
0.0
 11
63.735878440006239
 21
55.257911506367279
 31
0.0
  0
LINE
  5
EB
  8
1
 62
     7
 10
-162.23503461257999
 20
109.7553956834532
 30
0.0
 11
-98.235034612580066
 21
109.7553956834532
 31
0.0
  0
LINE
  5
EC
  8
1
 62
     7
 10
-98.235034612580066
 20
109.7553956834532
 30
0.0
 11
-98.235034612580066
 21
51.755395683453209
 31
0.0
  0
LINE
  5
ED
  8
1
 62
     7
 10
-98.235034612580066
 20
51.755395683453209
 30
0.0
 11
-162.23503461257999
 21
51.755395683453209
 31
0.0
  0
LINE
  5
EE
  8
1
 62
     7
 10
-162.23503461257999
 20
51.755395683453209
 30
0.0
 11
-162.23503461257999
 21
109.7553956834532
 31
0.0
  0
LINE
  5
EF
  8
1
 62
     7
 10
-161.23503461257999
 20
45.755395683453209
 30
0.0
 11
-99.235034612580066
 21
45.755395683453209
 31
0.0
  0
LINE
  5
F0
  8
1
 62
     7
 10
-144.23503461257999
 20
103.7553956834531
 30
0.0
 11
-116.23503461257999
 21
103.7553956834531
 31
0.0
  0
LINE
  5
F1
  8
1
 62
     7
 10
-116.23503461257999
 20
106.7553956834532
 30
0.0
 11
-144.23503461257999
 21
106.7553956834532
 31
0.0
  0
LINE
  5
F2
  8
1
 62
     7
 10
-144.23503461257999
 20
96.755395683453216
 30
0.0
 11
-116.23503461257999
 21
96.755395683453216
 31
0.0
  0
LINE
  5
F3
  8
1
 62
     7
 10
-116.23503461257999
 20
99.755395683453202
 30
0.0
 11
-144.23503461257999
 21
99.755395683453202
 31
0.0
  0
LINE
  5
F4
  8
1
 62
     7
 10
-144.23503461257999
 20
89.755395683453202
 30
0.0
 11
-116.23503461257999
 21
89.755395683453202
 31
0.0
  0
LINE
  5
F5
  8
1
 62
     7
 10
-116.23503461257999
 20
92.755395683453216
 30
0.0
 11
-144.23503461257999
 21
92.755395683453216
 31
0.0
  0
LINE
  5
F6
  8
1
 62
     7
 10
-144.23503461257999
 20
82.755395683453216
 30
0.0
 11
-116.23503461257999
 21
82.755395683453216
 31
0.0
  0
LINE
  5
F7
  8
1
 62
     7
 10
-116.23503461257999
 20
85.755395683453202
 30
0.0
 11
-144.23503461257999
 21
85.755395683453202
 31
0.0
  0
LINE
  5
F8
  8
1
 62
     7
 10
-144.23503461257999
 20
75.755395683453202
 30
0.0
 11
-116.23503461257999
 21
75.755395683453202
 31
0.0
  0
LINE
  5
F9
  8
1
 62
     7
 10
-116.23503461257999
 20
78.755395683453202
 30
0.0
 11
-144.23503461257999
 21
78.755395683453202
 31
0.0
  0
LINE
  5
FA
  8
1
 62
     7
 10
-144.23503461257999
 20
68.755395683453202
 30
0.0
 11
-116.23503461257999
 21
68.755395683453202
 31
0.0
  0
LINE
  5
FB
  8
1
 62
     7
 10
-116.23503461257999
 20
71.755395683453202
 30
0.0
 11
-144.23503461257999
 21
71.755395683453202
 31
0.0
  0
LINE
  5
FC
  8
1
 62
     7
 10
-144.23503461257999
 20
61.755395683453209
 30
0.0
 11
-116.23503461257999
 21
61.755395683453209
 31
0.0
  0
LINE
  5
FD
  8
1
 62
     7
 10
-116.23503461257999
 20
64.755395683453202
 30
0.0
 11
-144.23503461257999
 21
64.755395683453202
 31
0.0
  0
LINE
  5
FE
  8
1
 62
     7
 10
-144.23503461257999
 20
54.755395683453209
 30
0.0
 11
-116.23503461257999
 21
54.755395683453209
 31
0.0
  0
LINE
  5
FF
  8
1
 62
     7
 10
-116.23503461257999
 20
57.755395683453209
 30
0.0
 11
-144.23503461257999
 21
57.755395683453209
 31
0.0
  0
LINE
  5
100
  8
1
 62
     7
 10
-140.23503461257999
 20
102.7553956834531
 30
0.0
 11
-140.23503461257999
 21
100.7553956834531
 31
0.0
  0
LINE
  5
101
  8
1
 62
     7
 10
-120.23503461257999
 20
100.7553956834531
 30
0.0
 11
-120.23503461257999
 21
102.7553956834531
 31
0.0
  0
LINE
  5
102
  8
1
 62
     7
 10
-140.23503461257999
 20
95.755395683453202
 30
0.0
 11
-140.23503461257999
 21
93.755395683453202
 31
0.0
  0
LINE
  5
103
  8
1
 62
     7
 10
-120.23503461257999
 20
93.755395683453202
 30
0.0
 11
-120.23503461257999
 21
95.755395683453202
 31
0.0
  0
LINE
  5
104
  8
1
 62
     7
 10
-162.23503461257999
 20
83.755395683453202
 30
0.0
 11
-158.03781025031211
 21
83.755395683453202
 31
0.0
  0
LINE
  5
105
  8
1
 62
     7
 10
-162.23503461257999
 20
182.1823139205388
 30
0.0
 11
-162.23503461257999
 21
240.1823139205388
 31
0.0
  0
LINE
  5
106
  8
1
 62
     7
 10
-98.235034612580066
 20
240.1823139205388
 30
0.0
 11
-98.235034612580066
 21
182.1823139205388
 31
0.0
  0
LINE
  5
107
  8
1
 62
     7
 10
-98.235034612580066
 20
182.1823139205388
 30
0.0
 11
-162.23503461257999
 21
182.1823139205388
 31
0.0
  0
LINE
  5
108
  8
1
 62
     7
 10
-145.73503461257999
 20
181.1823139205388
 30
0.0
 11
-145.73503461257999
 21
175.1823139205388
 31
0.0
  0
LINE
  5
109
  8
1
 62
     7
 10
-144.73503461257999
 20
174.1823139205388
 30
0.0
 11
-115.73503461258009
 21
174.1823139205388
 31
0.0
  0
LINE
  5
10A
  8
1
  6
CENTER
 62
     3
 10
-14.335011026512159
 20
40.755395683453202
 30
0.0
 11
-14.335011026512159
 21
45.755395683453209
 31
0.0
  0
LINE
  5
10B
  8
1
  6
CENTER
 62
     3
 10
-14.335011026512159
 20
45.755395683453209
 30
0.0
 11
3.6649889734878411
 21
45.755395683453209
 31
0.0
  0
LINE
  5
10C
  8
1
  6
CENTER
 62
     3
 10
69.664988973487851
 20
45.755395683453209
 30
0.0
 11
69.664988973487851
 21
40.755395683453202
 31
0.0
  0
LINE
  5
10D
  8
1
  6
CENTER
 62
     3
 10
69.664988973487851
 20
40.755395683453202
 30
0.0
 11
52.664988973487851
 21
40.755395683453202
 31
0.0
  0
LINE
  5
10E
  8
1
  6
CENTER
 62
     3
 10
51.664988973487851
 20
41.755395683453202
 30
0.0
 11
3.6649889734878411
 21
41.755395683453202
 31
0.0
  0
LINE
  5
10F
  8
1
  6
CENTER
 62
     3
 10
2.6649889734878398
 20
40.755395683453202
 30
0.0
 11
-14.335011026512159
 21
40.755395683453202
 31
0.0
  0
LINE
  5
110
  8
1
  6
CENTER
 62
     3
 10
-161.23503461257999
 20
40.755395683453202
 30
0.0
 11
-161.23503461257999
 21
45.755395683453209
 31
0.0
  0
LINE
  5
111
  8
1
  6
CENTER
 62
     3
 10
-161.23503461257999
 20
40.755395683453202
 30
0.0
 11
-144.23503461257999
 21
40.755395683453202
 31
0.0
  0
LINE
  5
112
  8
1
  6
CENTER
 62
     3
 10
-144.23503461257999
 20
40.755395683453202
 30
0.0
 11
-144.23503461257999
 21
45.755395683453209
 31
0.0
  0
LINE
  5
113
  8
1
  6
CENTER
 62
     3
 10
-116.23503461257999
 20
40.755395683453202
 30
0.0
 11
-99.235034612580066
 21
40.755395683453202
 31
0.0
  0
LINE
  5
114
  8
1
  6
CENTER
 62
     3
 10
-116.23503461257999
 20
45.755395683453209
 30
0.0
 11
-116.23503461257999
 21
40.755395683453202
 31
0.0
  0
LINE
  5
115
  8
1
  6
CENTER
 62
     3
 10
-99.235034612580066
 20
40.755395683453202
 30
0.0
 11
-99.235034612580066
 21
45.755395683453209
 31
0.0
  0
LINE
  5
116
  8
1
 62
     7
 10
4.3540185849250026
 20
55.574425294890339
 30
0.0
 11
5.0140185849250001
 21
55.574425294890339
 31
0.0
  0
LINE
  5
117
  8
1
 62
     7
 10
6.8840185849250046
 20
57.444425294890351
 30
0.0
 11
6.8840185849250046
 21
58.104425294890341
 31
0.0
  0
LINE
  5
118
  8
1
 62
     7
 10
5.0140185849250001
 20
59.974425294890359
 30
0.0
 11
4.3540185849250026
 21
59.974425294890359
 31
0.0
  0
LINE
  5
119
  8
1
 62
     7
 10
2.4840185849249998
 20
58.104425294890341
 30
0.0
 11
2.4840185849249998
 21
57.444425294890351
 31
0.0
  0
LINE
  5
11A
  8
1
 62
     7
 10
52.845959362050721
 20
57.444425294890358
 30
0.0
 11
52.845959362050721
 21
58.104425294890369
 31
0.0
  0
LINE
  5
11B
  8
1
 62
     7
 10
50.975959362050702
 20
59.974425294890359
 30
0.0
 11
50.315959362050712
 21
59.974425294890359
 31
0.0
  0
LINE
  5
11C
  8
1
 62
     7
 10
48.445959362050701
 20
58.104425294890369
 30
0.0
 11
48.445959362050701
 21
57.444425294890358
 31
0.0
  0
LINE
  5
11D
  8
1
 62
     7
 10
50.315959362050712
 20
55.574425294890368
 30
0.0
 11
50.975959362050702
 21
55.574425294890368
 31
0.0
  0
LINE
  5
11E
  8
1
 62
     7
 10
4.6649889734878114
 20
52.75539568345318
 30
0.0
 11
50.664988973487851
 21
52.755395683453209
 31
0.0
  0
LINE
  5
11F
  8
1
 62
     7
 10
-0.3350110265121593
 20
103.7553956834531
 30
0.0
 11
-0.3350110265121593
 21
57.75539568345323
 31
0.0
  0
LINE
  5
120
  8
1
 62
     7
 10
48.445959362050679
 20
104.066366072016
 30
0.0
 11
48.445959362050679
 21
103.4063660720159
 31
0.0
  0
LINE
  5
121
  8
1
 62
     7
 10
2.4840185849249932
 20
104.066366072016
 30
0.0
 11
2.4840185849249932
 21
103.4063660720159
 31
0.0
  0
LINE
  5
122
  8
1
 62
     7
 10
4.3540185849249902
 20
101.53636607201589
 30
0.0
 11
5.014018584924993
 21
101.53636607201589
 31
0.0
  0
LINE
  5
123
  8
1
 62
     7
 10
6.8840185849249913
 20
103.4063660720159
 30
0.0
 11
6.8840185849249913
 21
104.066366072016
 31
0.0
  0
LINE
  5
124
  8
1
 62
     7
 10
5.014018584924993
 20
105.9363660720159
 30
0.0
 11
4.3540185849249902
 21
105.9363660720159
 31
0.0
  0
LINE
  5
125
  8
1
 62
     7
 10
50.664988973487851
 20
108.7553956834532
 30
0.0
 11
4.6649889734878398
 21
108.7553956834532
 31
0.0
  0
LINE
  5
126
  8
1
 62
     7
 10
50.975959362050673
 20
105.9363660720159
 30
0.0
 11
50.315959362050677
 21
105.9363660720159
 31
0.0
  0
LINE
  5
127
  8
1
 62
     7
 10
50.315959362050677
 20
101.53636607201589
 30
0.0
 11
50.975959362050673
 21
101.53636607201589
 31
0.0
  0
LINE
  5
128
  8
1
 62
     7
 10
52.845959362050678
 20
103.4063660720159
 30
0.0
 11
52.845959362050678
 21
104.066366072016
 31
0.0
  0
LINE
  5
129
  8
1
 62
     7
 10
55.664988973487823
 20
57.75539568345323
 30
0.0
 11
55.664988973487823
 21
103.7553956834531
 31
0.0
  0
LINE
  5
12A
  8
1
 62
     7
 10
-159.73503461257999
 20
181.1823139205388
 30
0.0
 11
-152.73503461257999
 21
181.1823139205388
 31
0.0
  0
LINE
  5
12B
  8
1
 62
     7
 10
-159.73503461257999
 20
181.1823139205388
 30
0.0
 11
-159.73503461257999
 21
182.1823139205388
 31
0.0
  0
LINE
  5
12C
  8
1
 62
     7
 10
-152.73503461257999
 20
182.1823139205388
 30
0.0
 11
-152.73503461257999
 21
181.1823139205388
 31
0.0
  0
LINE
  5
12D
  8
1
  6
DASHDOT
 62
     3
 10
-152.73503461257999
 20
53.7527623377079
 30
0.0
 11
-152.73503461257999
 21
38.758029029198489
 31
0.0
  0
LINE
  5
12E
  8
1
  6
DASHDOT
 62
     3
 10
-107.73503461257999
 20
53.7527623377079
 30
0.0
 11
-107.73503461257999
 21
38.758029029198489
 31
0.0
  0
LINE
  5
12F
  8
1
  6
DASHDOT
 62
     3
 10
-7.3350110265121478
 20
38.758029029198489
 30
0.0
 11
-7.3350110265121478
 21
47.7527623377079
 31
0.0
  0
LINE
  5
130
  8
1
  6
DASHDOT
 62
     3
 10
62.664988973487851
 20
38.758029029198489
 30
0.0
 11
62.664988973487851
 21
47.7527623377079
 31
0.0
  0
LINE
  5
131
  8
1
  6
DASHDOT
 62
     3
 10
-112.53503461258001
 20
228.68231392053889
 30
0.0
 11
-102.93503461258
 21
228.68231392053889
 31
0.0
  0
LINE
  5
132
  8
1
  6
DASHDOT
 62
     3
 10
-107.73503461257999
 20
223.88231392053891
 30
0.0
 11
-107.73503461257999
 21
233.4823139205389
 31
0.0
  0
LINE
  5
133
  8
1
  6
DASHDOT
 62
     3
 10
-112.53503461258001
 20
193.6823139205388
 30
0.0
 11
-102.93503461258
 21
193.6823139205388
 31
0.0
  0
LINE
  5
134
  8
1
  6
DASHDOT
 62
     3
 10
-107.73503461257999
 20
188.88231392053891
 30
0.0
 11
-107.73503461257999
 21
198.48231392053879
 31
0.0
  0
LINE
  5
135
  8
1
  6
DASHDOT
 62
     3
 10
-157.53503461258001
 20
228.68231392053889
 30
0.0
 11
-147.9350346125801
 21
228.68231392053889
 31
0.0
  0
LINE
  5
136
  8
1
  6
DASHDOT
 62
     3
 10
-152.73503461257999
 20
223.88231392053891
 30
0.0
 11
-152.73503461257999
 21
233.4823139205389
 31
0.0
  0
LINE
  5
137
  8
1
  6
DASHDOT
 62
     3
 10
-157.53503461258001
 20
193.6823139205388
 30
0.0
 11
-147.9350346125801
 21
193.6823139205388
 31
0.0
  0
LINE
  5
138
  8
1
  6
DASHDOT
 62
     3
 10
-152.73503461257999
 20
188.88231392053891
 30
0.0
 11
-152.73503461257999
 21
198.48231392053879
 31
0.0
  0
LINE
  5
139
  8
1
  6
DASHED
 62
     7
 10
-155.13503461258
 20
45.755395683453209
 30
0.0
 11
-155.13503461258
 21
51.755395683453209
 31
0.0
  0
LINE
  5
13A
  8
1
  6
DASHED
 62
     7
 10
-150.3350346125801
 20
45.755395683453209
 30
0.0
 11
-150.3350346125801
 21
51.755395683453209
 31
0.0
  0
LINE
  5
13B
  8
1
  6
DASHED
 62
     3
 10
-155.73503461257999
 20
45.755395683453209
 30
0.0
 11
-155.73503461257999
 21
51.755395683453209
 31
0.0
  0
LINE
  5
13C
  8
1
  6
DASHED
 62
     3
 10
-149.73503461257999
 20
45.755395683453209
 30
0.0
 11
-149.73503461257999
 21
51.755395683453209
 31
0.0
  0
LINE
  5
13D
  8
1
  6
DASHED
 62
     7
 10
-110.13503461258
 20
45.755395683453209
 30
0.0
 11
-110.13503461258
 21
51.755395683453209
 31
0.0
  0
LINE
  5
13E
  8
1
  6
DASHED
 62
     7
 10
-105.33503461258
 20
45.755395683453209
 30
0.0
 11
-105.33503461258
 21
51.755395683453209
 31
0.0
  0
LINE
  5
13F
  8
1
  6
DASHED
 62
     3
 10
-110.73503461257999
 20
45.755395683453209
 30
0.0
 11
-110.73503461257999
 21
51.755395683453209
 31
0.0
  0
LINE
  5
140
  8
1
  6
DASHED
 62
     3
 10
-104.73503461257999
 20
45.755395683453209
 30
0.0
 11
-104.73503461257999
 21
51.755395683453209
 31
0.0
  0
LINE
  5
141
  8
1
  6
DASHED
 62
     7
 10
7.7649889734878306
 20
45.755395683453209
 30
0.0
 11
7.7649889734878306
 21
51.755395683453209
 31
0.0
  0
LINE
  5
142
  8
1
  6
DASHED
 62
     7
 10
12.564988973487839
 20
45.755395683453209
 30
0.0
 11
12.564988973487839
 21
51.755395683453209
 31
0.0
  0
LINE
  5
143
  8
1
  6
DASHED
 62
     3
 10
7.1649889734878371
 20
45.755395683453209
 30
0.0
 11
7.1649889734878371
 21
51.755395683453209
 31
0.0
  0
LINE
  5
144
  8
1
  6
DASHED
 62
     3
 10
13.16498897348783
 20
45.755395683453209
 30
0.0
 11
13.16498897348783
 21
51.755395683453209
 31
0.0
  0
LINE
  5
145
  8
1
  6
DASHDOT
 62
     3
 10
10.16498897348783
 20
44.224856050791203
 30
0.0
 11
10.16498897348783
 21
53.2859353161152
 31
0.0
  0
LINE
  5
146
  8
1
  6
DASHED
 62
     7
 10
42.764988973487817
 20
45.755395683453209
 30
0.0
 11
42.764988973487817
 21
51.755395683453209
 31
0.0
  0
LINE
  5
147
  8
1
  6
DASHED
 62
     7
 10
47.564988973487829
 20
45.755395683453209
 30
0.0
 11
47.564988973487829
 21
51.755395683453209
 31
0.0
  0
LINE
  5
148
  8
1
  6
DASHED
 62
     3
 10
42.164988973487823
 20
45.755395683453209
 30
0.0
 11
42.164988973487823
 21
51.755395683453209
 31
0.0
  0
LINE
  5
149
  8
1
  6
DASHED
 62
     3
 10
48.164988973487823
 20
45.755395683453209
 30
0.0
 11
48.164988973487823
 21
51.755395683453209
 31
0.0
  0
LINE
  5
14A
  8
1
  6
DASHDOT
 62
     3
 10
45.164988973487809
 20
44.224856050791203
 30
0.0
 11
45.164988973487809
 21
53.2859353161152
 31
0.0
  0
LINE
  5
14B
  8
1
 62
     3
 10
-16.937841277491192
 20
91.199372344938283
 30
0.0
 11
-15.500035625816
 21
88.566367425077516
 31
0.0
  0
LINE
  5
14C
  8
1
 62
     3
 10
-17.335011026512149
 20
84.774633569920084
 30
0.0
 11
-19.933087237865479
 21
86.274633569920084
 31
0.0
  0
LINE
  5
14D
  8
1
 62
     3
 10
-17.560011026512171
 20
77.125869228689382
 30
0.0
 11
-20.158087237865459
 21
75.625869228689311
 31
0.0
  0
LINE
  5
14E
  8
1
 62
     3
 10
-19.70808723786547
 20
74.846446365283356
 30
0.0
 11
-17.110011026512151
 21
76.346446365283356
 31
0.0
  0
LINE
  5
14F
  8
1
 62
     3
 10
-15.105084887836851
 20
72.728753094077689
 30
0.0
 11
-16.542890539512051
 21
70.095748174216936
 31
0.0
  0
LINE
  5
150
  8
1
 62
     3
 10
-17.33279201547025
 20
70.527089869719461
 30
0.0
 11
-15.894986363795169
 21
73.160094789580199
 31
0.0
  0
LINE
  5
151
  8
1
 62
     7
 10
-14.71013414985776
 20
72.513082246326462
 30
0.0
 11
-16.289937101774239
 21
73.37576563733154
 31
0.0
  0
LINE
  5
152
  8
1
 62
     7
 10
-17.785011026512151
 20
77.515580660392402
 30
0.0
 11
-16.88501102651216
 21
75.956734933580378
 31
0.0
  0
LINE
  5
153
  8
1
 62
     3
 10
-15.500035625816
 20
72.944423941828916
 30
0.0
 11
-16.937841277491192
 21
70.311419021968135
 31
0.0
  0
LINE
  5
154
  8
1
 62
     3
 10
-19.933087237865479
 20
75.236157796986333
 30
0.0
 11
-17.335011026512149
 21
76.736157796986333
 31
0.0
  0
LINE
  5
155
  8
1
 62
     3
 10
-95.524062870955873
 20
168.01728932123501
 30
0.0
 11
-92.891057951095064
 21
166.57948366955981
 31
0.0
  0
LINE
  5
156
  8
1
 62
     3
 10
-99.615796726113345
 20
163.58423770918549
 30
0.0
 11
-101.1157967261133
 21
166.1823139205388
 31
0.0
  0
LINE
  5
157
  8
1
 62
     3
 10
-164.730335506453
 20
167.6223385832559
 30
0.0
 11
-167.3633404263139
 21
166.18453293158069
 31
0.0
  0
LINE
  5
158
  8
1
 62
     3
 10
-167.79468212181641
 20
166.97443440753901
 30
0.0
 11
-165.1616772019556
 21
168.4122400592141
 31
0.0
  0
LINE
  5
159
  8
1
 62
     7
 10
-164.5146646587018
 20
167.22738784527681
 30
0.0
 11
-165.37734804970691
 21
168.80719079719319
 31
0.0
  0
LINE
  5
15A
  8
1
 62
     3
 10
-167.5790112740651
 20
166.57948366955981
 30
0.0
 11
-164.94600635420429
 21
168.01728932123501
 31
0.0
  0
LINE
  5
15B
  8
1
 62
     3
 10
-159.74398393074989
 20
166.40731392053871
 30
0.0
 11
-161.24398393074989
 21
163.80923770918551
 31
0.0
  0
LINE
  5
15C
  8
1
 62
     3
 10
-160.46456106734391
 20
163.35923770918541
 30
0.0
 11
-158.96456106734391
 21
165.95731392053881
 31
0.0
  0
LINE
  5
15D
  8
1
 62
     7
 10
-160.13369536245281
 20
166.63231392053879
 30
0.0
 11
-158.5748496356409
 21
165.73231392053879
 31
0.0
  0
LINE
  5
15E
  8
1
 62
     3
 10
-159.3542724990468
 20
166.1823139205388
 30
0.0
 11
-160.8542724990468
 21
163.58423770918549
 31
0.0
  0
ARC
  5
15F
  8
1
 62
     7
 10
-95.035034612580134
 20
184.182313920539
 30
0.0
 40
1.0
 50
270.0
 51
0.0
  0
ARC
  5
160
  8
1
  6
CENTER
 62
     3
 10
-104.23503461258009
 20
174.1823139205388
 30
0.0
 40
5.0
 50
270.0
 51
277.00274601226312
  0
ARC
  5
161
  8
1
  6
CENTER
 62
     3
 10
-111.23503461257999
 20
174.1823139205388
 30
0.0
 40
5.0
 50
180.0
 51
270.0
  0
ARC
  5
162
  8
1
  6
CENTER
 62
     3
 10
-104.23503461258009
 20
174.1823139205388
 30
0.0
 40
4.9999999999999583
 50
341.22017408084707
 51
0.0
  0
ARC
  5
163
  8
1
  6
CENTER
 62
     3
 10
-104.23503461258009
 20
174.1823139205388
 30
0.0
 40
4.9999999999999716
 50
297.83993554529332
 51
318.97276995256431
  0
ARC
  5
164
  8
1
 62
     7
 10
-95.035034612580148
 20
238.1823139205388
 30
0.0
 40
1.0
 50
0.0
 51
90.0
  0
ARC
  5
165
  8
1
  6
CENTER
 62
     3
 10
-104.23503461258009
 20
248.1823139205388
 30
0.0
 40
4.9999999999999858
 50
0.0
 51
90.0
  0
ARC
  5
166
  8
1
  6
CENTER
 62
     3
 10
-111.23503461257999
 20
248.1823139205388
 30
0.0
 40
5.0000000000001128
 50
90.0
 51
180.0
  0
ARC
  5
167
  8
1
 62
     7
 10
23.504988973487841
 20
75.883118088526047
 30
0.0
 40
1.560000000000008
 50
0.0
 51
50.643301072738602
  0
ARC
  5
168
  8
1
 62
     7
 10
26.06498897348785
 20
75.075445935026721
 30
0.0
 40
1.0
 50
180.0
 51
270.0
  0
ARC
  5
169
  8
1
 62
     7
 10
29.264988973487839
 20
75.075445935026721
 30
0.0
 40
1.0
 50
270.0
 51
0.0
  0
ARC
  5
16A
  8
1
 62
     7
 10
31.824988973487841
 20
75.883118088526047
 30
0.0
 40
1.560000000000008
 50
129.35669892726099
 51
180.0
  0
ARC
  5
16B
  8
1
 62
     7
 10
-171.43503461258001
 20
198.02944100892179
 30
0.0
 40
1.0
 50
180.0
 51
260.53767779197233
  0
ARC
  5
16C
  8
1
 62
     7
 10
-167.43503461258001
 20
195.3351868321559
 30
0.0
 40
1.0
 50
0.0
 51
80.53767779197787
  0
ARC
  5
16D
  8
1
 62
     7
 10
-165.43503461258001
 20
184.182313920539
 30
0.0
 40
1.0
 50
180.0
 51
270.0
  0
ARC
  5
16E
  8
1
 62
     7
 10
-167.43503461258001
 20
227.02944100892179
 30
0.0
 40
0.9999999999999587
 50
279.46232220802278
 51
0.0
  0
ARC
  5
16F
  8
1
 62
     7
 10
-171.43503461258001
 20
224.33518683215601
 30
0.0
 40
0.9999999999999447
 50
99.462322208027999
 51
180.0
  0
ARC
  5
170
  8
1
 62
     7
 10
-165.43503461258001
 20
238.1823139205388
 30
0.0
 40
1.0
 50
90.0
 51
180.0
  0
ARC
  5
171
  8
1
 62
     7
 10
-89.035034612580148
 20
198.02944100892179
 30
0.0
 40
0.9999999999999728
 50
279.46232220802767
 51
0.0
  0
ARC
  5
172
  8
1
 62
     7
 10
-93.035034612580148
 20
195.3351868321559
 30
0.0
 40
1.0000000000000371
 50
99.462322208020524
 51
180.0
  0
ARC
  5
173
  8
1
 62
     7
 10
-93.035034612580148
 20
227.02944100892179
 30
0.0
 40
1.0
 50
180.0
 51
260.53767779197858
  0
ARC
  5
174
  8
1
 62
     7
 10
-89.035034612580148
 20
224.33518683215601
 30
0.0
 40
1.0
 50
0.0
 51
80.537677791971973
  0
ARC
  5
175
  8
1
 62
     7
 10
-171.43503461258001
 20
67.602522771836192
 30
0.0
 40
1.0
 50
180.0
 51
260.53767779197233
  0
ARC
  5
176
  8
1
 62
     7
 10
-167.43503461258001
 20
64.908268595070325
 30
0.0
 40
1.0
 50
0.0
 51
80.537677791976535
  0
ARC
  5
177
  8
1
 62
     7
 10
-165.43503461258001
 20
53.755395683453322
 30
0.0
 40
1.0
 50
180.0
 51
270.0
  0
ARC
  5
178
  8
1
 62
     7
 10
-167.43503461258001
 20
96.602522771836206
 30
0.0
 40
0.9999999999999587
 50
279.46232220802278
 51
0.0
  0
ARC
  5
179
  8
1
 62
     7
 10
-171.43503461258001
 20
93.908268595070197
 30
0.0
 40
0.9999999999999728
 50
99.462322208027771
 51
180.0
  0
ARC
  5
17A
  8
1
 62
     7
 10
-165.43503461258001
 20
107.7553956834532
 30
0.0
 40
1.0
 50
90.0
 51
180.0
  0
ARC
  5
17B
  8
1
 62
     7
 10
-89.035034612580148
 20
67.602522771836192
 30
0.0
 40
0.9999999999999728
 50
279.46232220802767
 51
0.0
  0
ARC
  5
17C
  8
1
 62
     7
 10
-93.035034612580148
 20
64.908268595070325
 30
0.0
 40
0.9999999999998982
 50
99.462322208021845
 51
180.0
  0
ARC
  5
17D
  8
1
 62
     7
 10
-95.035034612580148
 20
53.755395683453322
 30
0.0
 40
1.0
 50
270.0
 51
0.0
  0
ARC
  5
17E
  8
1
 62
     7
 10
-93.035034612580148
 20
96.602522771836206
 30
0.0
 40
1.0
 50
180.0
 51
260.53767779197858
  0
ARC
  5
17F
  8
1
 62
     7
 10
-89.035034612580148
 20
93.908268595070197
 30
0.0
 40
1.0
 50
0.0
 51
80.537677791972243
  0
ARC
  5
180
  8
1
 62
     7
 10
-95.035034612580148
 20
107.7553956834532
 30
0.0
 40
1.0
 50
0.0
 51
90.0
  0
ARC
  5
181
  8
1
  6
CENTER
 62
     3
 10
-156.23503461257999
 20
248.1823139205388
 30
0.0
 40
5.0000000000001128
 50
90.0
 51
180.0
  0
ARC
  5
182
  8
1
  6
CENTER
 62
     3
 10
-149.23503461257999
 20
248.1823139205388
 30
0.0
 40
5.0
 50
0.0
 51
90.0
  0
ARC
  5
183
  8
1
  6
CENTER
 62
     3
 10
-156.23503461257999
 20
174.1823139205388
 30
0.0
 40
5.0000000000000187
 50
262.99725398773688
 51
270.0
  0
ARC
  5
184
  8
1
  6
CENTER
 62
     3
 10
-149.23503461257999
 20
174.1823139205388
 30
0.0
 40
5.0
 50
270.0
 51
0.0
  0
ARC
  5
185
  8
1
 62
     7
 10
51.664988973487851
 20
104.7553956834532
 30
0.0
 40
5.0
 50
0.0
 51
90.0
  0
ARC
  5
186
  8
1
 62
     7
 10
3.6649889734878411
 20
104.7553956834532
 30
0.0
 40
5.0
 50
90.0
 51
180.0
  0
ARC
  5
187
  8
1
 62
     7
 10
3.6649889734878331
 20
56.755395683453209
 30
0.0
 40
4.9999999999999929
 50
180.0
 51
270.0
  0
ARC
  5
188
  8
1
 62
     7
 10
51.664988973487809
 20
56.755395683453209
 30
0.0
 40
5.0
 50
270.0
 51
0.0
  0
ARC
  5
189
  8
1
  6
CENTER
 62
     3
 10
3.6649889734878411
 20
40.755395683453202
 30
0.0
 40
1.0
 50
90.0
 51
180.0
  0
ARC
  5
18A
  8
1
  6
CENTER
 62
     3
 10
51.664988973487851
 20
40.755395683453202
 30
0.0
 40
1.0
 50
0.0
 51
90.0
  0
ARC
  5
18B
  8
1
 62
     7
 10
4.6649889734878114
 20
57.75539568345318
 30
0.0
 40
4.9999999999999707
 50
180.0
 51
270.0
  0
ARC
  5
18C
  8
1
 62
     7
 10
50.664988973487851
 20
57.75539568345318
 30
0.0
 40
4.9999999999999707
 50
270.0
 51
0.0
  0
ARC
  5
18D
  8
1
 62
     7
 10
4.6649889734878327
 20
103.7553956834531
 30
0.0
 40
5.0
 50
90.0
 51
180.0
  0
ARC
  5
18E
  8
1
 62
     7
 10
50.664988973487851
 20
103.7553956834531
 30
0.0
 40
4.9999999999999707
 50
0.0
 51
90.0
  0
ARC
  5
18F
  8
1
  6
CENTER
 62
     3
 10
-156.23503461257999
 20
174.1823139205388
 30
0.0
 40
5.0
 50
180.0
 51
198.77982591915281
  0
ARC
  5
190
  8
1
  6
CENTER
 62
     3
 10
-156.23503461257999
 20
174.1823139205388
 30
0.0
 40
4.9999999999999813
 50
221.02723004743569
 51
242.16006445470691
  0
ARC
  5
191
  8
1
 62
     7
 10
-113.73503461257999
 20
181.1823139205388
 30
0.0
 40
1.0
 50
90.0
 51
180.0
  0
ARC
  5
192
  8
1
 62
     7
 10
-115.73503461258009
 20
175.1823139205388
 30
0.0
 40
1.0
 50
270.0
 51
0.0
  0
ARC
  5
193
  8
1
  6
CENTER
 62
     3
 10
-107.73503461257999
 20
176.1823139205388
 30
0.0
 40
3.2500000000000129
 50
56.696105333824022
 51
320.7433876786526
  0
ARC
  5
194
  8
1
 62
     7
 10
-75.135034612580128
 20
181.1823139205388
 30
0.0
 40
30.899999999999981
 50
180.0
 51
210.0
  0
ARC
  5
195
  8
1
 62
     7
 10
-75.135034612580128
 20
181.1823139205388
 30
0.0
 40
29.099999999999959
 50
180.0
 51
210.0
  0
ARC
  5
196
  8
1
 62
     7
 10
-88.335034612580131
 20
181.1823139205388
 30
0.0
 40
15.899999999999981
 50
180.0
 51
241.36235920854611
  0
ARC
  5
197
  8
1
 62
     7
 10
-88.335034612580131
 20
181.1823139205388
 30
0.0
 40
14.09999999999998
 50
180.0
 51
241.36235920854639
  0
ARC
  5
198
  8
1
 62
     7
 10
-113.73503461257999
 20
241.18231392053889
 30
0.0
 40
1.0
 50
180.0
 51
270.0
  0
ARC
  5
199
  8
1
 62
     7
 10
-115.73503461258009
 20
247.18231392053889
 30
0.0
 40
1.0
 50
0.0
 51
90.0
  0
ARC
  5
19A
  8
1
 62
     7
 10
-155.03503461258001
 20
80.755395683453202
 30
0.0
 40
1.1999999999999891
 50
270.0
 51
90.0
  0
ARC
  5
19B
  8
1
 62
     7
 10
-157.4350346125801
 20
80.755395683453202
 30
0.0
 40
1.200000000000045
 50
90.0
 51
270.0
  0
ARC
  5
19C
  8
1
 62
     7
 10
-105.43503461258
 20
80.755395683453202
 30
0.0
 40
1.200000000000045
 50
90.0
 51
270.0
  0
ARC
  5
19D
  8
1
 62
     7
 10
-103.03503461258011
 20
80.755395683453202
 30
0.0
 40
1.1999999999999891
 50
270.0
 51
90.0
  0
ARC
  5
19E
  8
1
 62
     7
 10
-2.3350110265121451
 20
65.75539568345323
 30
0.0
 40
14.10000000000001
 50
90.0
 51
151.36235920854611
  0
ARC
  5
19F
  8
1
 62
     7
 10
-2.3350110265121451
 20
65.75539568345323
 30
0.0
 40
15.90000000000002
 50
129.3230891812492
 51
151.36235920854631
  0
ARC
  5
1A0
  8
1
 62
     7
 10
-2.3350110265121451
 20
95.75539568345323
 30
0.0
 40
14.1
 50
208.63764079145349
 51
270.0
  0
ARC
  5
1A1
  8
1
 62
     7
 10
-2.3350110265121451
 20
95.75539568345323
 30
0.0
 40
15.90000000000002
 50
208.63764079145349
 51
230.6769108187506
  0
ARC
  5
1A2
  8
1
 62
     7
 10
-2.3350110265121451
 20
50.755395683453251
 30
0.0
 40
29.099999999999991
 50
90.0
 51
120.0000000000001
  0
ARC
  5
1A3
  8
1
 62
     7
 10
-2.3350110265121451
 20
50.755395683453251
 30
0.0
 40
30.899999999999981
 50
103.86243211643399
 51
119.9999999999999
  0
ARC
  5
1A4
  8
1
 62
     7
 10
-2.3350110265121451
 20
110.7553956834532
 30
0.0
 40
30.899999999999942
 50
239.99999999999989
 51
270.0
  0
ARC
  5
1A5
  8
1
 62
     7
 10
-2.3350110265121451
 20
110.7553956834532
 30
0.0
 40
29.099999999999959
 50
239.99999999999989
 51
270.0
  0
ARC
  5
1A6
  8
1
 62
     7
 10
-175.48503461258011
 20
211.1823139205388
 30
0.0
 40
1.25
 50
270.0
 51
90.0
  0
ARC
  5
1A7
  8
1
 62
     7
 10
-84.985034612580165
 20
211.1823139205388
 30
0.0
 40
1.25
 50
90.0
 51
270.0
  0
ARC
  5
1A8
  8
1
 62
     7
 10
27.664988973487841
 20
80.955395683453204
 30
0.0
 40
5.0
 50
90.0
 51
230.64330107273889
  0
ARC
  5
1A9
  8
1
 62
     7
 10
26.414988973487841
 20
75.525445935026724
 30
0.0
 40
0.5499999999999972
 50
90.0
 51
270.0
  0
ARC
  5
1AA
  8
1
 62
     7
 10
28.914988973487841
 20
75.525445935026724
 30
0.0
 40
0.5499999999999972
 50
270.0
 51
90.0
  0
ARC
  5
1AB
  8
1
 62
     7
 10
27.664988973487841
 20
80.955395683453204
 30
0.0
 40
4.9999999999999947
 50
309.35669892726122
 51
90.0
  0
ARC
  5
1AC
  8
1
 62
     7
 10
27.664988973487841
 20
80.75539568345323
 30
0.0
 40
3.5000000000000031
 50
110.92483242763829
 51
69.075167572361721
  0
ARC
  5
1AD
  8
1
 62
     7
 10
27.664988973487841
 20
80.75539568345323
 30
0.0
 40
3.9999999999999978
 50
108.2099568642832
 51
71.790043135717156
  0
ARC
  5
1AE
  8
1
 62
     7
 10
-146.73503461257999
 20
241.18231392053889
 30
0.0
 40
1.0
 50
270.0
 51
0.0
  0
ARC
  5
1AF
  8
1
 62
     7
 10
-144.73503461257999
 20
247.18231392053889
 30
0.0
 40
1.0
 50
90.0
 51
180.0
  0
ARC
  5
1B0
  8
1
 62
     7
 10
0.6649889734878407
 20
49.339197196357539
 30
0.0
 40
3.0
 50
0.0
 51
67.975687162957811
  0
ARC
  5
1B1
  8
1
 62
     7
 10
54.664988973487809
 20
49.339197196357539
 30
0.0
 40
2.9999999999999978
 50
112.0243128370421
 51
180.0
  0
ARC
  5
1B2
  8
1
 62
     7
 10
20.664988973487841
 20
45.755395683453209
 30
0.0
 40
2.0
 50
90.0
 51
180.0
  0
ARC
  5
1B3
  8
1
 62
     7
 10
34.66498897348783
 20
45.755395683453209
 30
0.0
 40
2.0
 50
0.0
 51
90.0
  0
ARC
  5
1B4
  8
1
 62
     7
 10
-8.3350110265121593
 20
98.255395683453202
 30
0.0
 40
1.0000000000000071
 50
94.06507682001542
 51
265.93492317998459
  0
ARC
  5
1B5
  8
1
 62
     7
 10
-1.8350110265121591
 20
100.22112263673471
 30
0.0
 40
0.5000000000000325
 50
274.06507682001512
 51
0.0
  0
ARC
  5
1B6
  8
1
 62
     7
 10
-1.8350110265121591
 20
96.289668730171641
 30
0.0
 40
0.5
 50
0.0
 51
85.934923179984665
  0
ARC
  5
1B7
  8
1
 62
     7
 10
-8.3350110265121593
 20
91.255395683453202
 30
0.0
 40
1.0000000000000071
 50
94.06507682001542
 51
265.93492317998459
  0
ARC
  5
1B8
  8
1
 62
     7
 10
-1.8350110265121591
 20
93.221122636734776
 30
0.0
 40
0.5000000000000043
 50
274.06507682001541
 51
0.0
  0
ARC
  5
1B9
  8
1
 62
     7
 10
-1.8350110265121591
 20
89.289668730171627
 30
0.0
 40
0.5
 50
0.0
 51
85.934923179984665
  0
ARC
  5
1BA
  8
1
 62
     7
 10
-8.3350110265121593
 20
84.255395683453187
 30
0.0
 40
1.0000000000000071
 50
94.06507682001542
 51
265.93492317998459
  0
ARC
  5
1BB
  8
1
 62
     7
 10
-1.8350110265121591
 20
86.221122636734776
 30
0.0
 40
0.5000000000000043
 50
274.06507682001541
 51
0.0
  0
ARC
  5
1BC
  8
1
 62
     7
 10
-8.3350110265121593
 20
77.255395683453202
 30
0.0
 40
1.0000000000000071
 50
94.06507682001542
 51
265.93492317998459
  0
ARC
  5
1BD
  8
1
 62
     7
 10
-1.8350110265121591
 20
75.289668730171627
 30
0.0
 40
0.5
 50
0.0
 51
85.934923179984665
  0
ARC
  5
1BE
  8
1
 62
     7
 10
-8.3350110265121593
 20
70.255395683453202
 30
0.0
 40
1.0000000000000071
 50
94.06507682001542
 51
265.93492317998459
  0
ARC
  5
1BF
  8
1
 62
     7
 10
-1.8350110265121591
 20
72.221122636734776
 30
0.0
 40
0.5000000000000043
 50
274.06507682001541
 51
0.0
  0
ARC
  5
1C0
  8
1
 62
     7
 10
-1.8350110265121591
 20
68.289668730171627
 30
0.0
 40
0.5
 50
0.0
 51
85.934923179984665
  0
ARC
  5
1C1
  8
1
 62
     7
 10
-8.3350110265121593
 20
63.255395683453209
 30
0.0
 40
1.0000000000000071
 50
94.06507682001542
 51
265.93492317998459
  0
ARC
  5
1C2
  8
1
 62
     7
 10
-1.8350110265121591
 20
65.221122636734776
 30
0.0
 40
0.5000000000000043
 50
274.06507682001541
 51
0.0
  0
ARC
  5
1C3
  8
1
 62
     7
 10
-1.8350110265121591
 20
61.289668730171627
 30
0.0
 40
0.5
 50
0.0
 51
85.934923179984665
  0
ARC
  5
1C4
  8
1
 62
     7
 10
-8.3350110265121593
 20
105.2553956834532
 30
0.0
 40
0.9999999999999945
 50
94.065076820015463
 51
265.93492317998459
  0
ARC
  5
1C5
  8
1
 62
     7
 10
-1.8350110265121591
 20
103.2896687301715
 30
0.0
 40
0.5
 50
0.0
 51
85.934923179984992
  0
ARC
  5
1C6
  8
1
 62
     7
 10
-1.229510931629735
 20
107.2641544759249
 30
0.0
 40
0.4999999999999475
 50
274.0650768200158
 51
332.86182334520731
  0
ARC
  5
1C7
  8
1
 62
     7
 10
-8.3350110265121593
 20
56.255395683453187
 30
0.0
 40
1.0000000000000151
 50
94.065076820015364
 51
265.93492317998459
  0
ARC
  5
1C8
  8
1
 62
     7
 10
-1.8350110265121591
 20
58.221122636734762
 30
0.0
 40
0.5000000000000043
 50
274.06507682001541
 51
0.0
  0
ARC
  5
1C9
  8
1
 62
     7
 10
-1.229510931629735
 20
54.24663689098147
 30
0.0
 40
0.5000000000000109
 50
27.138176654788118
 51
85.934923179984665
  0
ARC
  5
1CA
  8
1
 62
     7
 10
63.664988973487851
 20
98.255395683453202
 30
0.0
 40
1.0000000000000071
 50
274.06507682001501
 51
85.934923179985006
  0
ARC
  5
1CB
  8
1
 62
     7
 10
57.164988973487851
 20
100.22112263673471
 30
0.0
 40
0.5
 50
180.0
 51
265.93492317998312
  0
ARC
  5
1CC
  8
1
 62
     7
 10
57.164988973487851
 20
96.289668730171641
 30
0.0
 40
0.5000000000000054
 50
94.065076820017055
 51
180.0
  0
ARC
  5
1CD
  8
1
 62
     7
 10
63.664988973487851
 20
91.255395683453202
 30
0.0
 40
1.0000000000000071
 50
274.06507682001501
 51
85.934923179985006
  0
ARC
  5
1CE
  8
1
 62
     7
 10
57.164988973487851
 20
93.221122636734776
 30
0.0
 40
0.5
 50
180.0
 51
265.934923179983
  0
ARC
  5
1CF
  8
1
 62
     7
 10
57.164988973487851
 20
89.289668730171627
 30
0.0
 40
0.5000000000000054
 50
94.065076820017055
 51
180.0
  0
ARC
  5
1D0
  8
1
 62
     7
 10
63.664988973487851
 20
84.255395683453187
 30
0.0
 40
1.0000000000000071
 50
274.06507682001501
 51
85.934923179985006
  0
ARC
  5
1D1
  8
1
 62
     7
 10
57.164988973487851
 20
86.221122636734776
 30
0.0
 40
0.5
 50
180.0
 51
265.934923179983
  0
ARC
  5
1D2
  8
1
 62
     7
 10
57.164988973487851
 20
82.289668730171627
 30
0.0
 40
0.5000000000000054
 50
94.065076820017055
 51
180.0
  0
ARC
  5
1D3
  8
1
 62
     7
 10
63.664988973487851
 20
77.255395683453202
 30
0.0
 40
1.0000000000000071
 50
274.06507682001501
 51
85.934923179985006
  0
ARC
  5
1D4
  8
1
 62
     7
 10
57.164988973487851
 20
79.221122636734776
 30
0.0
 40
0.5
 50
180.0
 51
265.934923179983
  0
ARC
  5
1D5
  8
1
 62
     7
 10
57.164988973487851
 20
75.289668730171627
 30
0.0
 40
0.5000000000000054
 50
94.065076820017055
 51
180.0
  0
ARC
  5
1D6
  8
1
 62
     7
 10
63.664988973487851
 20
70.255395683453202
 30
0.0
 40
1.0000000000000071
 50
274.06507682001501
 51
85.934923179985006
  0
ARC
  5
1D7
  8
1
 62
     7
 10
57.164988973487851
 20
72.221122636734776
 30
0.0
 40
0.5
 50
180.0
 51
265.934923179983
  0
ARC
  5
1D8
  8
1
 62
     7
 10
57.164988973487851
 20
68.289668730171627
 30
0.0
 40
0.5000000000000054
 50
94.065076820017055
 51
180.0
  0
ARC
  5
1D9
  8
1
 62
     7
 10
63.664988973487851
 20
63.255395683453209
 30
0.0
 40
1.0000000000000071
 50
274.06507682001501
 51
85.934923179985006
  0
ARC
  5
1DA
  8
1
 62
     7
 10
57.164988973487851
 20
65.221122636734776
 30
0.0
 40
0.5
 50
180.0
 51
265.934923179983
  0
ARC
  5
1DB
  8
1
 62
     7
 10
57.164988973487851
 20
61.289668730171627
 30
0.0
 40
0.5000000000000054
 50
94.065076820017055
 51
180.0
  0
ARC
  5
1DC
  8
1
 62
     7
 10
63.664988973487851
 20
105.2553956834532
 30
0.0
 40
1.0000000000000071
 50
274.06507682001501
 51
85.934923179984935
  0
ARC
  5
1DD
  8
1
 62
     7
 10
57.164988973487851
 20
103.2896687301715
 30
0.0
 40
0.5000000000000479
 50
94.065076820016714
 51
180.0
  0
ARC
  5
1DE
  8
1
 62
     7
 10
56.559488878605407
 20
107.2641544759249
 30
0.0
 40
0.5000000000000082
 50
207.13817665478911
 51
265.93492317998482
  0
ARC
  5
1DF
  8
1
 62
     7
 10
63.664988973487851
 20
56.255395683453187
 30
0.0
 40
1.0000000000000071
 50
274.06507682001501
 51
85.934923179985034
  0
ARC
  5
1E0
  8
1
 62
     7
 10
57.164988973487851
 20
58.221122636734762
 30
0.0
 40
0.5
 50
180.0
 51
265.934923179983
  0
ARC
  5
1E1
  8
1
 62
     7
 10
56.559488878605407
 20
54.24663689098147
 30
0.0
 40
0.5000000000000038
 50
94.065076820014596
 51
152.86182334521149
  0
ARC
  5
1E2
  8
1
 62
     7
 10
-162.23503461257999
 20
50.755395683453209
 30
0.0
 40
1.0
 50
0.0
 51
90.0
  0
ARC
  5
1E3
  8
1
 62
     7
 10
-98.235034612580066
 20
50.755395683453209
 30
0.0
 40
1.0
 50
90.0
 51
180.0
  0
ARC
  5
1E4
  8
1
 62
     7
 10
-144.23503461257999
 20
105.2553956834532
 30
0.0
 40
1.5
 50
90.0
 51
270.0
  0
ARC
  5
1E5
  8
1
 62
     7
 10
-116.23503461257999
 20
105.2553956834532
 30
0.0
 40
1.5
 50
270.0
 51
90.0
  0
ARC
  5
1E6
  8
1
 62
     7
 10
-144.23503461257999
 20
98.255395683453202
 30
0.0
 40
1.5
 50
90.0
 51
270.0
  0
ARC
  5
1E7
  8
1
 62
     7
 10
-116.23503461257999
 20
98.255395683453202
 30
0.0
 40
1.5
 50
270.0
 51
90.0
  0
ARC
  5
1E8
  8
1
 62
     7
 10
-144.23503461257999
 20
91.255395683453202
 30
0.0
 40
1.5
 50
90.0
 51
270.0
  0
ARC
  5
1E9
  8
1
 62
     7
 10
-116.23503461257999
 20
91.255395683453202
 30
0.0
 40
1.5
 50
270.0
 51
90.0
  0
ARC
  5
1EA
  8
1
 62
     7
 10
-144.23503461257999
 20
84.255395683453187
 30
0.0
 40
1.5
 50
90.0
 51
270.0
  0
ARC
  5
1EB
  8
1
 62
     7
 10
-116.23503461257999
 20
84.255395683453187
 30
0.0
 40
1.5
 50
270.0
 51
90.0
  0
ARC
  5
1EC
  8
1
 62
     7
 10
-144.23503461257999
 20
77.255395683453202
 30
0.0
 40
1.5
 50
90.0
 51
270.0
  0
ARC
  5
1ED
  8
1
 62
     7
 10
-116.23503461257999
 20
77.255395683453202
 30
0.0
 40
1.5
 50
270.0
 51
90.0
  0
ARC
  5
1EE
  8
1
 62
     7
 10
-144.23503461257999
 20
70.255395683453202
 30
0.0
 40
1.5
 50
90.0
 51
270.0
  0
ARC
  5
1EF
  8
1
 62
     7
 10
-116.23503461257999
 20
70.255395683453202
 30
0.0
 40
1.5
 50
270.0
 51
90.0
  0
ARC
  5
1F0
  8
1
 62
     7
 10
-144.23503461257999
 20
63.255395683453209
 30
0.0
 40
1.5
 50
90.0
 51
270.0
  0
ARC
  5
1F1
  8
1
 62
     7
 10
-116.23503461257999
 20
63.255395683453209
 30
0.0
 40
1.5
 50
270.0
 51
90.0
  0
ARC
  5
1F2
  8
1
 62
     7
 10
-144.23503461257999
 20
56.255395683453202
 30
0.0
 40
1.5
 50
90.0
 51
270.0
  0
ARC
  5
1F3
  8
1
 62
     7
 10
-116.23503461257999
 20
56.255395683453202
 30
0.0
 40
1.5
 50
270.0
 51
90.0
  0
ARC
  5
1F4
  8
1
 62
     7
 10
-139.23503461257999
 20
102.7553956834531
 30
0.0
 40
1.0
 50
90.0
 51
180.0
  0
ARC
  5
1F5
  8
1
 62
     7
 10
-139.23503461257999
 20
100.7553956834531
 30
0.0
 40
1.0
 50
180.0
 51
270.0
  0
ARC
  5
1F6
  8
1
 62
     7
 10
-121.23503461257999
 20
102.7553956834531
 30
0.0
 40
1.0
 50
0.0
 51
90.0
  0
ARC
  5
1F7
  8
1
 62
     7
 10
-121.23503461257999
 20
100.7553956834531
 30
0.0
 40
1.0
 50
270.0
 51
0.0
  0
ARC
  5
1F8
  8
1
 62
     7
 10
-139.23503461257999
 20
95.755395683453202
 30
0.0
 40
1.0
 50
90.0
 51
180.0
  0
ARC
  5
1F9
  8
1
 62
     7
 10
-139.23503461257999
 20
93.755395683453202
 30
0.0
 40
1.0
 50
180.0
 51
270.0
  0
ARC
  5
1FA
  8
1
 62
     7
 10
-121.23503461257999
 20
95.755395683453202
 30
0.0
 40
1.0
 50
0.0
 51
90.0
  0
ARC
  5
1FB
  8
1
 62
     7
 10
-121.23503461257999
 20
93.755395683453202
 30
0.0
 40
1.0
 50
270.0
 51
0.0
  0
ARC
  5
1FC
  8
1
 62
     7
 10
-146.73503461257999
 20
181.1823139205388
 30
0.0
 40
1.0
 50
0.0
 51
90.0
  0
ARC
  5
1FD
  8
1
 62
     7
 10
-144.73503461257999
 20
175.1823139205388
 30
0.0
 40
1.0
 50
180.0
 51
270.0
  0
ARC
  5
1FE
  8
1
 62
     7
 10
2.4840185849249998
 20
55.574425294890339
 30
0.0
 40
1.8700000000000041
 50
0.0
 51
90.0
  0
ARC
  5
1FF
  8
1
 62
     7
 10
6.8840185849250046
 20
55.574425294890339
 30
0.0
 40
1.8699999999999961
 50
90.0
 51
180.0
  0
ARC
  5
200
  8
1
 62
     7
 10
6.8840185849250046
 20
59.974425294890359
 30
0.0
 40
1.8700000000000041
 50
180.0
 51
270.0
  0
ARC
  5
201
  8
1
 62
     7
 10
2.4840185849249998
 20
59.974425294890359
 30
0.0
 40
1.870000000000011
 50
270.0
 51
0.0
  0
ARC
  5
202
  8
1
 62
     7
 10
52.845959362050721
 20
55.574425294890368
 30
0.0
 40
1.8700000000000041
 50
90.0
 51
180.0
  0
ARC
  5
203
  8
1
 62
     7
 10
52.845959362050721
 20
59.974425294890359
 30
0.0
 40
1.870000000000011
 50
180.0
 51
270.0
  0
ARC
  5
204
  8
1
 62
     7
 10
48.445959362050701
 20
59.974425294890359
 30
0.0
 40
1.8700000000000041
 50
270.0
 51
0.0
  0
ARC
  5
205
  8
1
 62
     7
 10
48.445959362050701
 20
55.574425294890368
 30
0.0
 40
1.870000000000011
 50
0.0
 51
90.0
  0
ARC
  5
206
  8
1
 62
     7
 10
2.4840185849249932
 20
105.9363660720159
 30
0.0
 40
1.8700000000000041
 50
270.0
 51
0.0
  0
ARC
  5
207
  8
1
 62
     7
 10
2.4840185849249932
 20
101.53636607201589
 30
0.0
 40
1.8699999999999961
 50
0.0
 51
90.0
  0
ARC
  5
208
  8
1
 62
     7
 10
6.8840185849249913
 20
101.53636607201589
 30
0.0
 40
1.8700000000000041
 50
90.0
 51
180.0
  0
ARC
  5
209
  8
1
 62
     7
 10
6.8840185849249913
 20
105.9363660720159
 30
0.0
 40
1.8699999999999961
 50
180.0
 51
270.0
  0
ARC
  5
20A
  8
1
 62
     7
 10
52.845959362050678
 20
105.9363660720159
 30
0.0
 40
1.8700000000000041
 50
180.0
 51
270.0
  0
ARC
  5
20B
  8
1
 62
     7
 10
48.445959362050679
 20
105.9363660720159
 30
0.0
 40
1.8700000000000041
 50
270.0
 51
0.0
  0
ARC
  5
20C
  8
1
 62
     7
 10
48.445959362050679
 20
101.53636607201589
 30
0.0
 40
1.8700000000000041
 50
0.0
 51
90.0
  0
ARC
  5
20D
  8
1
 62
     7
 10
52.845959362050678
 20
101.53636607201589
 30
0.0
 40
1.8700000000000041
 50
90.0
 51
180.0
  0
ARC
  5
20E
  8
1
  6
CENTER
 62
     3
 10
-152.73503461257999
 20
176.1823139205388
 30
0.0
 40
3.2499999999999032
 50
219.2566123213484
 51
123.30389466617549
  0
ARC
  5
20F
  8
1
 62
     7
 10
-185.33503461257999
 20
181.1823139205388
 30
0.0
 40
30.900000000000102
 50
329.99999999999977
 51
0.0
  0
ARC
  5
210
  8
1
 62
     7
 10
-185.33503461257999
 20
181.1823139205388
 30
0.0
 40
29.10000000000003
 50
330.00000000000011
 51
0.0
  0
ARC
  5
211
  8
1
 62
     7
 10
-172.13503461258011
 20
181.1823139205388
 30
0.0
 40
15.90000000000002
 50
298.63764079145369
 51
0.0
  0
ARC
  5
212
  8
1
 62
     7
 10
-172.13503461258011
 20
181.1823139205388
 30
0.0
 40
14.10000000000009
 50
298.63764079145358
 51
0.0
  0
CIRCLE
  5
213
  8
1
  6
CENTER
 62
     3
 10
-107.73503461257999
 20
246.1823139205388
 30
0.0
 40
3.25
  0
CIRCLE
  5
214
  8
1
 62
     7
 10
-157.13503461258
 20
80.755395683453202
 30
0.0
 40
0.9000000000000056
  0
CIRCLE
  5
215
  8
1
 62
     7
 10
-155.3350346125801
 20
80.755395683453202
 30
0.0
 40
0.9000000000000056
  0
CIRCLE
  5
216
  8
1
 62
     7
 10
-156.23503461257999
 20
80.755395683453202
 30
0.0
 40
3.5
  0
CIRCLE
  5
217
  8
1
 62
     7
 10
-103.33503461258
 20
80.755395683453202
 30
0.0
 40
0.9000000000000056
  0
CIRCLE
  5
218
  8
1
 62
     7
 10
-105.13503461258
 20
80.755395683453202
 30
0.0
 40
0.9000000000000056
  0
CIRCLE
  5
219
  8
1
 62
     7
 10
-104.23503461258009
 20
80.755395683453202
 30
0.0
 40
3.5
  0
CIRCLE
  5
21A
  8
1
  6
CENTER
 62
     3
 10
-152.73503461257999
 20
246.1823139205388
 30
0.0
 40
3.25
  0
CIRCLE
  5
21B
  8
1
 62
     7
 10
27.664988973487841
 20
63.255395683453223
 30
0.0
 40
1.900000000000009
  0
CIRCLE
  5
21C
  8
1
 62
     7
 10
4.6840185849250311
 20
57.774425294890392
 30
0.0
 40
4.0000000000000284
  0
CIRCLE
  5
21D
  8
1
 62
     7
 10
50.645959362050661
 20
57.774425294890392
 30
0.0
 40
4.0000000000000284
  0
CIRCLE
  5
21E
  8
1
 62
     7
 10
27.664988973487841
 20
80.75539568345323
 30
0.0
 40
15.0
  0
CIRCLE
  5
21F
  8
1
 62
     7
 10
27.664988973487841
 20
80.75539568345323
 30
0.0
 40
14.0
  0
CIRCLE
  5
220
  8
1
 62
     7
 10
27.664988973487841
 20
80.75539568345323
 30
0.0
 40
10.749999999999989
  0
CIRCLE
  5
221
  8
1
 62
     7
 10
27.664988973487841
 20
98.25539568345323
 30
0.0
 40
1.8999999999999979
  0
CIRCLE
  5
222
  8
1
 62
     7
 10
10.16498897348783
 20
80.75539568345323
 30
0.0
 40
1.900000000000039
  0
CIRCLE
  5
223
  8
1
 62
     7
 10
45.164988973487809
 20
80.75539568345323
 30
0.0
 40
1.8999999999999759
  0
CIRCLE
  5
224
  8
1
 62
     7
 10
4.6840185849250311
 20
103.7363660720159
 30
0.0
 40
4.0
  0
CIRCLE
  5
225
  8
1
 62
     7
 10
50.645959362050618
 20
103.7363660720159
 30
0.0
 40
4.0000000000000284
  0
CIRCLE
  5
226
  8
1
  6
DASHED
 62
     7
 10
-107.73503461257999
 20
228.68231392053889
 30
0.0
 40
2.399999999999991
  0
CIRCLE
  5
227
  8
1
  6
DASHED
 62
     3
 10
-107.73503461257999
 20
228.68231392053889
 30
0.0
 40
3.0
  0
CIRCLE
  5
228
  8
1
  6
DASHED
 62
     7
 10
-107.73503461257999
 20
193.6823139205388
 30
0.0
 40
2.399999999999991
  0
CIRCLE
  5
229
  8
1
  6
DASHED
 62
     3
 10
-107.73503461257999
 20
193.6823139205388
 30
0.0
 40
3.0
  0
CIRCLE
  5
22A
  8
1
  6
DASHED
 62
     7
 10
-152.73503461257999
 20
228.68231392053889
 30
0.0
 40
2.4000000000000061
  0
CIRCLE
  5
22B
  8
1
  6
DASHED
 62
     3
 10
-152.73503461257999
 20
228.68231392053889
 30
0.0
 40
3.0
  0
CIRCLE
  5
22C
  8
1
  6
DASHED
 62
     7
 10
-152.73503461257999
 20
193.6823139205388
 30
0.0
 40
2.4000000000000061
  0
CIRCLE
  5
22D
  8
1
  6
DASHED
 62
     3
 10
-152.73503461257999
 20
193.6823139205388
 30
0.0
 40
3.0
  0
TEXT
  5
22E
  8
1
 62
     3
 10
5.1649889734878398
 20
46.755395683453202
 30
0.0
 40
4.0
  1
INPUT
 41
0.7859421900000005
  7
COMPLEX
  0
TEXT
  5
230
  8
1
 62
     7
 10
-139.00588384838841
 20
140.215757862266
 30
0.0
 40
3.5
  1
MP 10
 41
0.9
  7
SIMPLEX
  0
ENDSEC
  0
EOF
