  0
SECTION
  2
HEADER
  9
$ACADVER
  1
AC1009
  9
$INSBASE
 10
0.0
 20
0.0
 30
0.0
  9
$EXTMIN
 10
498.663530904156
 20
-188.741360024649
 30
0.0
  9
$EXTMAX
 10
788.17180960185226
 20
38.311906086919059
 30
0.0
  9
$LIMMIN
 10
498.663530904156
 20
-188.741360024649
  9
$LIMMAX
 10
788.17180960185226
 20
37.276372180986321
  9
$ORTHOMODE
 70
     0
  9
$REGENMODE
 70
     1
  9
$FILLMODE
 70
     1
  9
$QTEXTMODE
 70
     0
  9
$MIRRTEXT
 70
     1
  9
$DRAGMODE
 70
     2
  9
$LTSCALE
 40
1.0
  9
$OSMODE
 70
    37
  9
$ATTMODE
 70
     1
  9
$TEXTSIZE
 40
3.5
  9
$TRACEWID
 40
0.5
  9
$TEXTSTYLE
  7
STANDARD
  9
$CLAYER
  8
0
  9
$CELTYPE
  6
BYLAYER
  9
$CECOLOR
 62
   256
  9
$DIMSCALE
 40
1.0
  9
$DIMASZ
 40
0.18
  9
$DIMEXO
 40
0.0625
  9
$DIMDLI
 40
0.38
  9
$DIMRND
 40
0.0
  9
$DIMDLE
 40
0.0
  9
$DIMEXE
 40
0.18
  9
$DIMTP
 40
0.0
  9
$DIMTM
 40
0.0
  9
$DIMTXT
 40
0.18
  9
$DIMCEN
 40
0.09
  9
$DIMTSZ
 40
0.0
  9
$DIMTOL
 70
     0
  9
$DIMLIM
 70
     0
  9
$DIMTIH
 70
     1
  9
$DIMTOH
 70
     1
  9
$DIMSE1
 70
     0
  9
$DIMSE2
 70
     0
  9
$DIMTAD
 70
     0
  9
$DIMZIN
 70
     0
  9
$DIMBLK
  1

  9
$DIMASO
 70
     1
  9
$DIMSHO
 70
     1
  9
$DIMPOST
  1

  9
$DIMAPOST
  1

  9
$DIMALT
 70
     0
  9
$DIMALTD
 70
     2
  9
$DIMALTF
 40
25.399999999999999
  9
$DIMLFAC
 40
1.0
  9
$DIMTOFL
 70
     0
  9
$DIMTVP
 40
0.0
  9
$DIMTIX
 70
     0
  9
$DIMSOXD
 70
     0
  9
$DIMSAH
 70
     0
  9
$DIMBLK1
  1

  9
$DIMBLK2
  1

  9
$DIMSTYLE
  2
STANDARD
  9
$DIMCLRD
 70
     0
  9
$DIMCLRE
 70
     0
  9
$DIMCLRT
 70
     0
  9
$DIMTFAC
 40
1.0
  9
$DIMGAP
 40
0.09
  9
$LUNITS
 70
     2
  9
$LUPREC
 70
     4
  9
$SKETCHINC
 40
0.1
  9
$FILLETRAD
 40
2.0
  9
$AUNITS
 70
     0
  9
$AUPREC
 70
     0
  9
$MENU
  1
ACAD
  9
$ELEVATION
 40
0.0
  9
$PELEVATION
 40
0.0
  9
$THICKNESS
 40
0.0
  9
$LIMCHECK
 70
     0
  9
$BLIPMODE
 70
     0
  9
$CHAMFERA
 40
0.0
  9
$CHAMFERB
 40
0.0
  9
$SKPOLY
 70
     0
  9
$TDCREATE
 40
2452094.9139041668
  9
$TDUPDATE
 40
2452094.9147064812
  9
$TDINDWG
 40
0.0009059028
  9
$TDUSRTIMER
 40
0.0009059028
  9
$USRTIMER
 70
     1
  9
$ANGBASE
 50
0.0
  9
$ANGDIR
 70
     0
  9
$PDMODE
 70
     0
  9
$PDSIZE
 40
0.0
  9
$PLINEWID
 40
0.0
  9
$COORDS
 70
     1
  9
$SPLFRAME
 70
     0
  9
$SPLINETYPE
 70
     6
  9
$SPLINESEGS
 70
     8
  9
$ATTDIA
 70
     0
  9
$ATTREQ
 70
     1
  9
$HANDLING
 70
 10241
  9
$HANDSEED
  5
232
  9
$SURFTAB1
 70
     6
  9
$SURFTAB2
 70
     6
  9
$SURFTYPE
 70
     6
  9
$SURFU
 70
     6
  9
$SURFV
 70
     6
  9
$UCSNAME
  2

  9
$UCSORG
 10
0.0
 20
0.0
 30
0.0
  9
$UCSXDIR
 10
1.0
 20
0.0
 30
0.0
  9
$UCSYDIR
 10
0.0
 20
1.0
 30
0.0
  9
$PUCSNAME
  2

  9
$PUCSORG
 10
0.0
 20
0.0
 30
0.0
  9
$PUCSXDIR
 10
1.0
 20
0.0
 30
0.0
  9
$PUCSYDIR
 10
0.0
 20
1.0
 30
0.0
  9
$USERI1
 70
     0
  9
$USERI2
 70
     0
  9
$USERI3
 70
     0
  9
$USERI4
 70
     0
  9
$USERI5
 70
     0
  9
$USERR1
 40
0.0
  9
$USERR2
 40
0.0
  9
$USERR3
 40
0.0
  9
$USERR4
 40
0.0
  9
$USERR5
 40
0.0
  9
$WORLDVIEW
 70
     1
  9
$SHADEDGE
 70
     3
  9
$SHADEDIF
 70
    70
  9
$TILEMODE
 70
     1
  9
$MAXACTVP
 70
    64
  9
$PLIMCHECK
 70
     0
  9
$PEXTMIN
 10
1.0000000000000000E+020
 20
1.0000000000000000E+020
 30
1.0000000000000000E+020
  9
$PEXTMAX
 10
-1.0000000000000000E+020
 20
-1.0000000000000000E+020
 30
-1.0000000000000000E+020
  9
$PLIMMIN
 10
0.0
 20
0.0
  9
$PLIMMAX
 10
12.0
 20
9.0
  9
$UNITMODE
 70
     0
  9
$VISRETAIN
 70
     1
  9
$PLINEGEN
 70
     0
  9
$PSLTSCALE
 70
     1
  0
ENDSEC
  0
SECTION
  2
TABLES
  0
TABLE
  2
VPORT
 70
     2
  0
VPORT
  2
*ACTIVE
 70
     0
 10
0.0
 20
0.0
 11
1.0
 21
1.0
 12
576.35368364761246
 22
-82.080916619076774
 13
0.0
 23
0.0
 14
1.0
 24
1.0
 15
0.0
 25
0.0
 16
0.0
 26
0.0
 36
1.0
 17
0.0
 27
0.0
 37
0.0
 40
9.0000001612361373
 41
2.4144144144144142
 42
50.0
 43
0.0
 44
0.0
 50
0.0
 51
0.0
 71
     0
 72
   100
 73
     1
 74
     1
 75
     0
 76
     0
 77
     0
 78
     0
  0
ENDTAB
  0
TABLE
  2
LTYPE
 70
     9
  0
LTYPE
  2
CONTINUOUS
 70
     0
  3
Solid line
 72
    65
 73
     0
 40
0.0
  0
LTYPE
  2
BORDER
 70
     0
  3
__ __ . __ __ .
 72
    65
 73
     6
 40
13.33261809792022
 49
3.809319456548633
 49
-1.9046597282743161
 49
3.809319456548633
 49
-1.9046597282743161
 49
0.0
 49
-1.9046597282743161
  0
LTYPE
  2
CENTER
 70
     0
  3
____ _ ____ _
 72
    65
 73
     4
 40
15.23727782619453
 49
9.5232986413715839
 49
-1.9046597282743161
 49
1.9046597282743161
 49
-1.9046597282743161
  0
LTYPE
  2
DASHDOT
 70
     0
  3
__ . __ . __ .
 72
    65
 73
     4
 40
7.618638913097266
 49
3.809319456548633
 49
-1.9046597282743161
 49
0.0
 49
-1.9046597282743161
  0
LTYPE
  2
DASHED
 70
     0
  3
__ __ __ __ __
 72
    65
 73
     2
 40
5.7139791848229491
 49
3.809319456548633
 49
-1.9046597282743161
  0
LTYPE
  2
DIVIDE
 70
     0
  3
__ . . __ . . 
 72
    65
 73
     6
 40
9.5232986413715839
 49
3.809319456548633
 49
-1.9046597282743161
 49
0.0
 49
-1.9046597282743161
 49
0.0
 49
-1.9046597282743161
  0
LTYPE
  2
DOT
 70
     0
  3
..............
 72
    65
 73
     4
 40
3.809319456548633
 49
0.0
 49
-1.9046597282743161
 49
0.0
 49
-1.9046597282743161
  0
LTYPE
  2
HIDDEN
 70
     0
  3
_ _ _ _ _ _ _
 72
    65
 73
     2
 40
2.8569895924114741
 49
1.9046597282743161
 49
-0.9523298641371583
  0
LTYPE
  2
PHANTOM
 70
     0
  3
_____ _ _ _____ _ _ 
 72
    65
 73
     6
 40
19.046597282743171
 49
9.5232986413715839
 49
-1.9046597282743161
 49
1.9046597282743161
 49
-1.9046597282743161
 49
1.9046597282743161
 49
-1.9046597282743161
  0
ENDTAB
  0
TABLE
  2
LAYER
 70
     2
  0
LAYER
  2
0
 70
     0
 62
     7
  6
CONTINUOUS
  0
LAYER
  2
1
 70
     0
 62
     7
  6
CONTINUOUS
  0
ENDTAB
  0
TABLE
  2
STYLE
 70
     4
  0
STYLE
  2
STANDARD
 70
     0
 40
0.0
 41
1.0
 50
0.0
 71
     0
 42
3.5
  3
txt
  4

  0
STYLE
  2
SIMPLEX
 70
     0
 40
0.0
 41
1.0
 50
0.0
 71
     0
 42
3.5
  3
simplex
  4

  0
STYLE
  2
COMPLEX
 70
     0
 40
0.0
 41
1.0
 50
0.0
 71
     0
 42
3.5
  3
complex
  4

  0
STYLE
  2
ITALIC
 70
     0
 40
0.0
 41
1.0
 50
0.0
 71
     0
 42
3.5
  3
italic
  4

  0
ENDTAB
  0
TABLE
  2
VIEW
 70
     0
  0
ENDTAB
  0
TABLE
  2
UCS
 70
     0
  0
ENDTAB
  0
TABLE
  2
APPID
 70
     1
  0
APPID
  2
ACAD
 70
     0
  0
ENDTAB
  0
TABLE
  2
DIMSTYLE
 70
     1
  0
DIMSTYLE
  2
STANDARD
 70
     0
  3

  4

  5

  6

  7

 40
1.0
 41
0.18
 42
0.0625
 43
0.38
 44
0.18
 45
0.0
 46
0.0
 47
0.0
 48
0.0
140
0.18
141
0.09
142
0.0
143
25.399999999999999
144
1.0
145
0.0
146
1.0
147
0.09
 71
     0
 72
     0
 73
     1
 74
     1
 75
     0
 76
     0
 77
     0
 78
     0
170
     0
171
     2
172
     0
173
     0
174
     0
175
     0
176
     0
177
     0
178
     0
  0
ENDTAB
  0
ENDSEC
  0
SECTION
  2
BLOCKS
  0
BLOCK
  8
0
  2
$MODEL_SPACE
 70
     0
 10
0.0
 20
0.0
 30
0.0
  3
$MODEL_SPACE
  1

  0
ENDBLK
  5
20
  8
0
  0
BLOCK
 67
     1
  8
0
  2
$PAPER_SPACE
 70
     0
 10
0.0
 20
0.0
 30
0.0
  3
$PAPER_SPACE
  1

  0
ENDBLK
  5
1C
 67
     1
  8
0
  0
ENDSEC
  0
SECTION
  2
ENTITIES
  0
LINE
  5
33
  8
1
 62
     3
 10
532.51955424267055
 20
-55.326458069992761
 30
0.0
 11
535.15255916253125
 21
-53.888652418317569
 31
0.0
  0
LINE
  5
34
  8
1
 62
     3
 10
535.36823001028245
 20
-54.283603156296657
 30
0.0
 11
532.73522509042186
 21
-55.721408807971748
 31
0.0
  0
LINE
  5
35
  8
1
 62
     3
 10
532.30388339491935
 20
-54.931507332013553
 30
0.0
 11
534.93688831478028
 21
-53.493701680338361
 31
0.0
  0
LINE
  5
36
  8
1
 62
     7
 10
535.58390085803433
 20
-54.678553894275751
 30
0.0
 11
534.72121746702919
 21
-53.098750942359381
 31
0.0
  0
LINE
  5
37
  8
1
 62
     3
 10
540.54429301768891
 20
-55.723627819013707
 30
0.0
 11
539.04429301768926
 21
-58.321704030367023
 31
0.0
  0
LINE
  5
38
  8
1
 62
     3
 10
540.15458158598562
 20
-55.498627819013748
 30
0.0
 11
538.65458158598619
 21
-58.09670403036705
 31
0.0
  0
LINE
  5
39
  8
1
 62
     3
 10
539.43400444939198
 20
-58.54670403036706
 30
0.0
 11
540.93400444939164
 21
-55.948627819013751
 31
0.0
  0
LINE
  5
3A
  8
1
 62
     7
 10
539.76487015428324
 20
-55.273627819013647
 30
0.0
 11
541.32371588109515
 21
-56.173627819013767
 31
0.0
  0
LINE
  5
3B
  8
1
 62
     3
 10
607.28276879062253
 20
-58.321704030367023
 30
0.0
 11
605.78276879062275
 21
-55.723627819013707
 31
0.0
  0
LINE
  5
3C
  8
1
 62
     3
 10
611.37450264578035
 20
-53.888652418317569
 30
0.0
 11
614.00750756564128
 21
-55.326458069992761
 31
0.0
  0
LINE
  5
3D
  8
1
 62
     3
 10
697.00678500254821
 20
-149.95233176627329
 30
0.0
 11
695.56897935087295
 21
-152.5853366861339
 31
0.0
  0
LINE
  5
3E
  8
1
 62
     3
 10
697.40173574052733
 20
-150.16800261402449
 30
0.0
 11
695.96393008885218
 21
-152.8010075338853
 31
0.0
  0
LINE
  5
3F
  8
1
 62
     3
 10
695.17402861289395
 20
-152.36966583838279
 30
0.0
 11
696.6118342645691
 21
-149.73666091852201
 31
0.0
  0
LINE
  5
40
  8
1
 62
     7
 10
697.79668647850667
 20
-150.3836734617758
 30
0.0
 11
696.21688352658998
 21
-149.52099007077061
 31
0.0
  0
LINE
  5
41
  8
1
 62
     3
 10
692.57373339049866
 20
-147.66059791111579
 30
0.0
 11
695.17180960185215
 21
-146.1605979111159
 31
0.0
  0
LINE
  5
42
  8
1
 62
     3
 10
694.94680960185212
 20
-145.77088647941281
 30
0.0
 11
692.34873339049875
 21
-147.27088647941281
 31
0.0
  0
LINE
  5
43
  8
1
 62
     3
 10
692.79873339049868
 20
-148.05030934281879
 30
0.0
 11
695.39680960185217
 21
-146.55030934281879
 31
0.0
  0
LINE
  5
44
  8
1
 62
     7
 10
694.7218096018521
 20
-145.3811750477098
 30
0.0
 11
695.62180960185196
 21
-146.94002077452191
 31
0.0
  0
LINE
  5
45
  8
1
 62
     3
 10
695.17180960185215
 20
-138.12212213818199
 30
0.0
 11
692.57373339049866
 21
-136.62212213818199
 31
0.0
  0
LINE
  5
46
  8
1
 62
     3
 10
695.56897935087295
 20
-131.69738336316391
 30
0.0
 11
697.00678500254821
 21
-134.33038828302469
 31
0.0
  0
LINE
  5
47
  8
1
 62
     7
 10
710.17180960185215
 20
-144.69674529247891
 30
0.0
 11
702.83039630646215
 21
-145.10335143409409
 31
0.0
  0
LINE
  5
48
  8
1
  6
DASHDOT
 62
     3
 10
548.163530904156
 20
-32.523627819013662
 30
0.0
 11
548.163530904156
 21
-22.92362781901366
 31
0.0
  0
LINE
  5
49
  8
1
  6
DASHDOT
 62
     3
 10
543.36353090415605
 20
-27.723627819013672
 30
0.0
 11
552.96353090415607
 21
-27.723627819013672
 31
0.0
  0
LINE
  5
4A
  8
1
  6
DASHDOT
 62
     3
 10
548.163530904156
 20
7.4763721809863259
 30
0.0
 11
548.163530904156
 21
17.076372180986329
 31
0.0
  0
LINE
  5
4B
  8
1
  6
DASHDOT
 62
     3
 10
543.36353090415605
 20
12.27637218098633
 30
0.0
 11
552.96353090415607
 21
12.27637218098633
 31
0.0
  0
LINE
  5
4C
  8
1
  6
DASHDOT
 62
     3
 10
598.163530904156
 20
-32.523627819013662
 30
0.0
 11
598.163530904156
 21
-22.92362781901366
 31
0.0
  0
LINE
  5
4D
  8
1
  6
DASHDOT
 62
     3
 10
593.36353090415605
 20
-27.723627819013672
 30
0.0
 11
602.96353090415607
 21
-27.723627819013672
 31
0.0
  0
LINE
  5
4E
  8
1
  6
DASHDOT
 62
     3
 10
598.163530904156
 20
7.4763721809863259
 30
0.0
 11
598.163530904156
 21
17.076372180986329
 31
0.0
  0
LINE
  5
4F
  8
1
  6
DASHDOT
 62
     3
 10
593.36353090415605
 20
12.27637218098633
 30
0.0
 11
602.96353090415607
 21
12.27637218098633
 31
0.0
  0
LINE
  5
50
  8
1
  6
DASHDOT
 62
     3
 10
782.17180960185215
 20
-188.741360024649
 30
0.0
 11
782.17180960185215
 21
-180.54136002464901
 31
0.0
  0
LINE
  5
51
  8
1
  6
DASHDOT
 62
     3
 10
704.17180960185215
 20
-188.741360024649
 30
0.0
 11
704.17180960185215
 21
-180.54136002464901
 31
0.0
  0
LINE
  5
52
  8
1
  6
DASHDOT
 62
     3
 10
723.17180960185215
 20
-172.54136002464901
 30
0.0
 11
723.17180960185215
 21
-183.741360024649
 31
0.0
  0
LINE
  5
53
  8
1
  6
DASHED
 62
     3
 10
720.17180960185215
 20
-174.141360024649
 30
0.0
 11
720.17180960185215
 21
-182.141360024649
 31
0.0
  0
LINE
  5
54
  8
1
  6
DASHED
 62
     3
 10
726.17180960185226
 20
-174.141360024649
 30
0.0
 11
726.17180960185226
 21
-182.141360024649
 31
0.0
  0
LINE
  5
55
  8
1
  6
DASHED
 62
     7
 10
720.77180960185217
 20
-174.141360024649
 30
0.0
 11
720.77180960185217
 21
-182.141360024649
 31
0.0
  0
LINE
  5
56
  8
1
  6
DASHED
 62
     7
 10
725.57180960185212
 20
-174.141360024649
 30
0.0
 11
725.57180960185212
 21
-182.141360024649
 31
0.0
  0
LINE
  5
57
  8
1
  6
DASHDOT
 62
     3
 10
548.163530904156
 20
35.55597293399024
 30
0.0
 11
548.163530904156
 21
26.996771427982392
 31
0.0
  0
LINE
  5
58
  8
1
  6
DASHDOT
 62
     3
 10
543.88393015115196
 20
31.276372180986321
 30
0.0
 11
552.44313165715994
 21
31.276372180986321
 31
0.0
  0
LINE
  5
59
  8
1
  6
CENTER
 62
     3
 10
552.663530904156
 20
37.276372180986321
 30
0.0
 11
543.663530904156
 21
37.276372180986321
 31
0.0
  0
LINE
  5
5A
  8
1
  6
CENTER
 62
     3
 10
538.663530904156
 20
32.276372180986321
 30
0.0
 11
538.663530904156
 21
24.276372180986311
 31
0.0
  0
LINE
  5
5B
  8
1
  6
CENTER
 62
     3
 10
538.663530904156
 20
-39.72362781901365
 30
0.0
 11
538.663530904156
 21
-47.72362781901365
 31
0.0
  0
LINE
  5
5C
  8
1
  6
CENTER
 62
     3
 10
543.663530904156
 20
-52.72362781901365
 30
0.0
 11
552.663530904156
 21
-52.72362781901365
 31
0.0
  0
LINE
  5
5D
  8
1
  6
DASHDOT
 62
     3
 10
552.44313165715994
 20
-46.72362781901365
 30
0.0
 11
543.88393015115196
 21
-46.72362781901365
 31
0.0
  0
LINE
  5
5E
  8
1
  6
DASHDOT
 62
     3
 10
548.163530904156
 20
-42.444027066009738
 30
0.0
 11
548.163530904156
 21
-51.003228572017591
 31
0.0
  0
LINE
  5
5F
  8
1
 62
     3
 10
692.34873339049875
 20
-137.01183356988511
 30
0.0
 11
694.94680960185212
 21
-138.51183356988511
 31
0.0
  0
LINE
  5
60
  8
1
 62
     3
 10
695.39680960185217
 20
-137.73241070647919
 30
0.0
 11
692.79873339049868
 21
-136.23241070647919
 31
0.0
  0
LINE
  5
61
  8
1
 62
     3
 10
695.96393008885218
 20
-131.48171251541271
 30
0.0
 11
697.40173574052733
 21
-134.11471743527349
 31
0.0
  0
LINE
  5
62
  8
1
 62
     3
 10
696.6118342645691
 20
-134.54605913077589
 30
0.0
 11
695.17402861289395
 21
-131.91305421091511
 31
0.0
  0
LINE
  5
63
  8
1
 62
     7
 10
696.21688352658998
 20
-134.7617299785272
 30
0.0
 11
697.79668647850667
 21
-133.89904658752221
 31
0.0
  0
LINE
  5
64
  8
1
 62
     7
 10
695.62180960185196
 20
-137.34269927477621
 30
0.0
 11
694.7218096018521
 21
-138.901545001588
 31
0.0
  0
LINE
  5
65
  8
1
 62
     7
 10
711.17180960185215
 20
-145.641360024649
 30
0.0
 11
710.17180960185215
 21
-145.641360024649
 31
0.0
  0
LINE
  5
66
  8
1
 62
     7
 10
710.17180960185215
 20
-145.641360024649
 30
0.0
 11
710.17180960185215
 21
-138.64136002464889
 31
0.0
  0
LINE
  5
67
  8
1
 62
     7
 10
710.17180960185215
 20
-138.64136002464889
 30
0.0
 11
711.17180960185215
 21
-138.64136002464889
 31
0.0
  0
LINE
  5
68
  8
1
 62
     7
 10
540.163530904156
 20
-40.723627819013672
 30
0.0
 11
547.163530904156
 21
-40.723627819013672
 31
0.0
  0
LINE
  5
69
  8
1
 62
     7
 10
540.163530904156
 20
-40.723627819013672
 30
0.0
 11
540.163530904156
 21
-39.723627819013672
 31
0.0
  0
LINE
  5
6A
  8
1
 62
     7
 10
547.163530904156
 20
-39.723627819013672
 30
0.0
 11
547.163530904156
 21
-40.723627819013672
 31
0.0
  0
LINE
  5
6B
  8
1
 62
     7
 10
601.46353090415596
 20
-140.9413600246489
 30
0.0
 11
603.86353090415605
 21
-140.9413600246489
 31
0.0
  0
LINE
  5
6C
  8
1
 62
     7
 10
603.86353090415605
 20
-143.34136002464891
 30
0.0
 11
601.46353090415596
 21
-143.34136002464891
 31
0.0
  0
LINE
  5
6D
  8
1
 62
     7
 10
542.46353090415596
 20
-140.9413600246489
 30
0.0
 11
544.86353090415594
 21
-140.9413600246489
 31
0.0
  0
LINE
  5
6E
  8
1
 62
     7
 10
544.86353090415594
 20
-143.34136002464891
 30
0.0
 11
542.46353090415596
 21
-143.34136002464891
 31
0.0
  0
LINE
  5
6F
  8
1
 62
     7
 10
541.86075526642401
 20
-145.141360024649
 30
0.0
 11
537.66353090415589
 21
-145.141360024649
 31
0.0
  0
LINE
  5
70
  8
1
 62
     7
 10
604.466306541888
 20
-139.141360024649
 30
0.0
 11
608.66353090415612
 21
-139.141360024649
 31
0.0
  0
LINE
  5
71
  8
1
 62
     7
 10
702.83039630646215
 20
-139.17936861520371
 30
0.0
 11
710.17180960185215
 21
-139.5859747568191
 31
0.0
  0
LINE
  5
72
  8
1
  6
DASHDOT
 62
     3
 10
498.663530904156
 20
-7.7236278190136733
 30
0.0
 11
503.663530904156
 21
-7.7236278190136733
 31
0.0
  0
LINE
  5
73
  8
1
  6
DASHDOT
 62
     3
 10
642.663530904156
 20
-7.7236278190136733
 30
0.0
 11
647.663530904156
 21
-7.7236278190136733
 31
0.0
  0
LINE
  5
74
  8
1
  6
DASHDOT
 62
     3
 10
498.663530904156
 20
-142.141360024649
 30
0.0
 11
503.663530904156
 21
-142.141360024649
 31
0.0
  0
LINE
  5
75
  8
1
  6
DASHDOT
 62
     3
 10
642.663530904156
 20
-142.141360024649
 30
0.0
 11
647.663530904156
 21
-142.141360024649
 31
0.0
  0
LINE
  5
76
  8
1
  6
DASHDOT
 62
     3
 10
743.17180960185215
 20
-139.94990623998791
 30
0.0
 11
743.17180960185215
 21
-144.33281380931001
 31
0.0
  0
LINE
  5
77
  8
1
  6
DASHDOT
 62
     3
 10
745.36326338651315
 20
-142.141360024649
 30
0.0
 11
740.98035581719114
 21
-142.141360024649
 31
0.0
  0
LINE
  5
78
  8
1
 62
     7
 10
739.57180960185212
 20
-148.50522948304541
 30
0.0
 11
739.57180960185212
 21
-147.269858936437
 31
0.0
  0
LINE
  5
79
  8
1
 62
     7
 10
740.87180960185231
 20
-149.80522948304531
 30
0.0
 11
742.57180960185201
 21
-149.80522948304531
 31
0.0
  0
LINE
  5
7A
  8
1
 62
     7
 10
742.57180960185201
 20
-147.10522948304529
 30
0.0
 11
742.57180960185201
 21
-149.80522948304531
 31
0.0
  0
LINE
  5
7B
  8
1
 62
     7
 10
743.77180960185228
 20
-149.80522948304531
 30
0.0
 11
743.77180960185228
 21
-147.10522948304529
 31
0.0
  0
LINE
  5
7C
  8
1
 62
     7
 10
743.77180960185228
 20
-149.80522948304531
 30
0.0
 11
745.47180960185199
 21
-149.80522948304531
 31
0.0
  0
LINE
  5
7D
  8
1
 62
     7
 10
746.77180960185217
 20
-147.269858936437
 30
0.0
 11
746.77180960185217
 21
-148.50522948304541
 31
0.0
  0
LINE
  5
7E
  8
1
 62
     7
 10
768.25054694338121
 20
-115.19262268311979
 30
0.0
 11
767.59054694338124
 21
-115.19262268311979
 31
0.0
  0
LINE
  5
7F
  8
1
 62
     7
 10
765.72054694338124
 20
-117.0626226831197
 30
0.0
 11
765.72054694338124
 21
-117.7226226831197
 31
0.0
  0
LINE
  5
80
  8
1
 62
     7
 10
767.59054694338124
 20
-119.5926226831198
 30
0.0
 11
768.25054694338121
 21
-119.5926226831198
 31
0.0
  0
LINE
  5
81
  8
1
 62
     7
 10
770.12054694338121
 20
-117.7226226831197
 30
0.0
 11
770.12054694338121
 21
-117.0626226831197
 31
0.0
  0
LINE
  5
82
  8
1
 62
     7
 10
718.75307226032282
 20
-115.19262268311979
 30
0.0
 11
718.09307226032297
 21
-115.19262268311979
 31
0.0
  0
LINE
  5
83
  8
1
 62
     7
 10
720.62307226032283
 20
-117.72262268311989
 30
0.0
 11
720.62307226032283
 21
-117.0626226831197
 31
0.0
  0
LINE
  5
84
  8
1
 62
     7
 10
718.09307226032297
 20
-119.5926226831199
 30
0.0
 11
718.75307226032282
 21
-119.5926226831199
 31
0.0
  0
LINE
  5
85
  8
1
 62
     7
 10
716.22307226032297
 20
-117.0626226831197
 30
0.0
 11
716.22307226032297
 21
-117.72262268311989
 31
0.0
  0
LINE
  5
86
  8
1
 62
     7
 10
716.22307226032297
 20
-166.5600973661781
 30
0.0
 11
716.22307226032297
 21
-167.22009736617809
 31
0.0
  0
LINE
  5
87
  8
1
 62
     7
 10
718.75307226032317
 20
-164.69009736617809
 30
0.0
 11
718.09307226032297
 21
-164.69009736617809
 31
0.0
  0
LINE
  5
88
  8
1
 62
     7
 10
720.62307226032317
 20
-167.22009736617809
 30
0.0
 11
720.62307226032317
 21
-166.5600973661781
 31
0.0
  0
LINE
  5
89
  8
1
 62
     7
 10
718.09307226032297
 20
-169.0900973661781
 30
0.0
 11
718.75307226032317
 21
-169.0900973661781
 31
0.0
  0
LINE
  5
8A
  8
1
 62
     7
 10
767.59054694338124
 20
-169.0900973661781
 30
0.0
 11
768.25054694338121
 21
-169.0900973661781
 31
0.0
  0
LINE
  5
8B
  8
1
 62
     7
 10
765.72054694338124
 20
-166.5600973661779
 30
0.0
 11
765.72054694338124
 21
-167.22009736617801
 31
0.0
  0
LINE
  5
8C
  8
1
 62
     7
 10
768.25054694338121
 20
-164.69009736617801
 30
0.0
 11
767.59054694338124
 21
-164.69009736617801
 31
0.0
  0
LINE
  5
8D
  8
1
 62
     7
 10
770.12054694338121
 20
-167.22009736617801
 30
0.0
 11
770.12054694338121
 21
-166.5600973661779
 31
0.0
  0
LINE
  5
8E
  8
1
 62
     7
 10
717.17180960185226
 20
-111.1413600246489
 30
0.0
 11
769.17180960185215
 21
-111.1413600246489
 31
0.0
  0
LINE
  5
8F
  8
1
 62
     7
 10
774.17180960185215
 20
-116.1413600246489
 30
0.0
 11
774.17180960185215
 21
-168.141360024649
 31
0.0
  0
LINE
  5
90
  8
1
 62
     7
 10
769.17180960185215
 20
-173.141360024649
 30
0.0
 11
717.17180960185226
 21
-173.141360024649
 31
0.0
  0
LINE
  5
91
  8
1
 62
     7
 10
712.17180960185215
 20
-168.141360024649
 30
0.0
 11
712.17180960185215
 21
-116.1413600246489
 31
0.0
  0
LINE
  5
92
  8
1
 62
     7
 10
745.17180960185215
 20
-139.64136002464889
 30
0.0
 11
741.17180960185215
 21
-139.64136002464889
 31
0.0
  0
LINE
  5
93
  8
1
 62
     7
 10
745.17180960185215
 20
-135.641360024649
 30
0.0
 11
745.17180960185215
 21
-139.64136002464889
 31
0.0
  0
LINE
  5
94
  8
1
 62
     7
 10
741.17180960185215
 20
-135.641360024649
 30
0.0
 11
745.17180960185215
 21
-135.641360024649
 31
0.0
  0
LINE
  5
95
  8
1
 62
     7
 10
741.17180960185215
 20
-139.64136002464889
 30
0.0
 11
741.17180960185215
 21
-135.641360024649
 31
0.0
  0
LINE
  5
96
  8
1
 62
     7
 10
503.66353090415578
 20
-9.7236278190136751
 30
0.0
 11
521.66353090415578
 21
-9.7236278190136751
 31
0.0
  0
LINE
  5
97
  8
1
 62
     7
 10
521.66353090415578
 20
-5.7236278190136742
 30
0.0
 11
503.66353090415578
 21
-5.7236278190136742
 31
0.0
  0
LINE
  5
98
  8
1
 62
     7
 10
504.16353090415578
 20
-2.723627819013672
 30
0.0
 11
504.16353090415578
 21
-5.7236278190136742
 31
0.0
  0
LINE
  5
99
  8
1
 62
     7
 10
503.66353090415578
 20
-12.22362781901367
 30
0.0
 11
503.66353090415578
 21
-3.223627819013672
 31
0.0
  0
LINE
  5
9A
  8
1
 62
     7
 10
504.16353090415578
 20
-9.7236278190136751
 30
0.0
 11
504.16353090415578
 21
-12.723627819013659
 31
0.0
  0
LINE
  5
9B
  8
1
 62
     7
 10
503.66353090415578
 20
-12.22362781901367
 30
0.0
 11
504.16353090415578
 21
-12.723627819013659
 31
0.0
  0
LINE
  5
9C
  8
1
 62
     7
 10
504.16353090415578
 20
-2.723627819013672
 30
0.0
 11
503.66353090415578
 21
-3.223627819013672
 31
0.0
  0
LINE
  5
9D
  8
1
 62
     7
 10
526.66353090415589
 20
-12.723627819013659
 30
0.0
 11
504.16353090415578
 21
-12.723627819013659
 31
0.0
  0
LINE
  5
9E
  8
1
 62
     7
 10
504.16353090415578
 20
-2.723627819013672
 30
0.0
 11
526.66353090415589
 21
-2.723627819013672
 31
0.0
  0
LINE
  5
9F
  8
1
 62
     7
 10
624.66353090415589
 20
-9.7236278190136751
 30
0.0
 11
642.663530904156
 21
-9.7236278190136751
 31
0.0
  0
LINE
  5
A0
  8
1
 62
     7
 10
642.663530904156
 20
-5.7236278190136742
 30
0.0
 11
624.66353090415589
 21
-5.7236278190136742
 31
0.0
  0
LINE
  5
A1
  8
1
 62
     7
 10
642.163530904156
 20
-5.7236278190136742
 30
0.0
 11
642.163530904156
 21
-2.723627819013672
 31
0.0
  0
LINE
  5
A2
  8
1
 62
     7
 10
642.663530904156
 20
-3.223627819013672
 30
0.0
 11
642.663530904156
 21
-12.22362781901367
 31
0.0
  0
LINE
  5
A3
  8
1
 62
     7
 10
642.163530904156
 20
-12.723627819013659
 30
0.0
 11
642.163530904156
 21
-9.7236278190136751
 31
0.0
  0
LINE
  5
A4
  8
1
 62
     7
 10
642.163530904156
 20
-12.723627819013659
 30
0.0
 11
642.663530904156
 21
-12.22362781901367
 31
0.0
  0
LINE
  5
A5
  8
1
 62
     7
 10
642.663530904156
 20
-3.223627819013672
 30
0.0
 11
642.163530904156
 21
-2.723627819013672
 31
0.0
  0
LINE
  5
A6
  8
1
 62
     7
 10
642.163530904156
 20
-12.723627819013659
 30
0.0
 11
619.663530904156
 21
-12.723627819013659
 31
0.0
  0
LINE
  5
A7
  8
1
 62
     7
 10
619.663530904156
 20
-2.723627819013672
 30
0.0
 11
642.163530904156
 21
-2.723627819013672
 31
0.0
  0
LINE
  5
A8
  8
1
 62
     7
 10
503.66353090415578
 20
-146.641360024649
 30
0.0
 11
503.66353090415578
 21
-135.641360024649
 31
0.0
  0
LINE
  5
A9
  8
1
 62
     7
 10
503.66353090415578
 20
-135.641360024649
 30
0.0
 11
523.66353090415589
 21
-135.641360024649
 31
0.0
  0
LINE
  5
AA
  8
1
 62
     7
 10
523.66353090415589
 20
-135.641360024649
 30
0.0
 11
523.66353090415589
 21
-137.141360024649
 31
0.0
  0
LINE
  5
AB
  8
1
 62
     7
 10
504.16353090415578
 20
-137.141360024649
 30
0.0
 11
504.16353090415578
 21
-147.141360024649
 31
0.0
  0
LINE
  5
AC
  8
1
 62
     7
 10
503.66353090415578
 20
-146.641360024649
 30
0.0
 11
504.16353090415578
 21
-147.141360024649
 31
0.0
  0
LINE
  5
AD
  8
1
 62
     7
 10
504.16353090415578
 20
-137.141360024649
 30
0.0
 11
503.66353090415578
 21
-137.64136002464889
 31
0.0
  0
LINE
  5
AE
  8
1
 62
     7
 10
526.66353090415589
 20
-147.141360024649
 30
0.0
 11
504.16353090415578
 21
-147.141360024649
 31
0.0
  0
LINE
  5
AF
  8
1
 62
     7
 10
504.16353090415578
 20
-137.141360024649
 30
0.0
 11
526.66353090415589
 21
-137.141360024649
 31
0.0
  0
LINE
  5
B0
  8
1
 62
     7
 10
642.663530904156
 20
-135.641360024649
 30
0.0
 11
642.663530904156
 21
-146.641360024649
 31
0.0
  0
LINE
  5
B1
  8
1
 62
     7
 10
622.663530904156
 20
-135.641360024649
 30
0.0
 11
642.663530904156
 21
-135.641360024649
 31
0.0
  0
LINE
  5
B2
  8
1
 62
     7
 10
622.663530904156
 20
-137.141360024649
 30
0.0
 11
622.663530904156
 21
-135.641360024649
 31
0.0
  0
LINE
  5
B3
  8
1
 62
     7
 10
642.163530904156
 20
-147.141360024649
 30
0.0
 11
642.163530904156
 21
-137.141360024649
 31
0.0
  0
LINE
  5
B4
  8
1
 62
     7
 10
642.163530904156
 20
-147.141360024649
 30
0.0
 11
642.663530904156
 21
-146.641360024649
 31
0.0
  0
LINE
  5
B5
  8
1
 62
     7
 10
642.663530904156
 20
-137.64136002464889
 30
0.0
 11
642.163530904156
 21
-137.141360024649
 31
0.0
  0
LINE
  5
B6
  8
1
 62
     7
 10
642.163530904156
 20
-147.141360024649
 30
0.0
 11
619.663530904156
 21
-147.141360024649
 31
0.0
  0
LINE
  5
B7
  8
1
 62
     7
 10
619.663530904156
 20
-137.141360024649
 30
0.0
 11
642.163530904156
 21
-137.141360024649
 31
0.0
  0
LINE
  5
B8
  8
1
 62
     7
 10
531.94637361663047
 20
-24.47831963508148
 30
0.0
 11
528.38068819168132
 21
-23.968936002945892
 31
0.0
  0
LINE
  5
B9
  8
1
 62
     7
 10
528.38068819168132
 20
8.5216803649185362
 30
0.0
 11
531.94637361663047
 21
9.0310639970541331
 31
0.0
  0
LINE
  5
BA
  8
1
 62
     7
 10
526.663530904156
 20
-21.98903701562352
 30
0.0
 11
526.663530904156
 21
6.5417813775961937
 31
0.0
  0
LINE
  5
BB
  8
1
 62
     7
 10
537.66353090415589
 20
-38.723627819013672
 30
0.0
 11
534.663530904156
 21
-38.723627819013672
 31
0.0
  0
LINE
  5
BC
  8
1
 62
     7
 10
533.663530904156
 20
-37.723627819013672
 30
0.0
 11
533.663530904156
 21
22.276372180986328
 31
0.0
  0
LINE
  5
BD
  8
1
 62
     7
 10
534.663530904156
 20
23.276372180986328
 30
0.0
 11
537.66353090415589
 21
23.276372180986328
 31
0.0
  0
LINE
  5
BE
  8
1
 62
     7
 10
537.66353090415589
 20
-39.723627819013672
 30
0.0
 11
537.66353090415589
 21
24.276372180986328
 31
0.0
  0
LINE
  5
BF
  8
1
 62
     7
 10
617.94637361663047
 20
-23.968936002945892
 30
0.0
 11
614.38068819168132
 21
-24.47831963508148
 31
0.0
  0
LINE
  5
C0
  8
1
 62
     7
 10
614.38068819168132
 20
9.0310639970541331
 30
0.0
 11
617.94637361663047
 21
8.5216803649185362
 31
0.0
  0
LINE
  5
C1
  8
1
 62
     7
 10
619.663530904156
 20
6.5417813775961937
 30
0.0
 11
619.663530904156
 21
-21.98903701562352
 31
0.0
  0
LINE
  5
C2
  8
1
 62
     7
 10
612.663530904156
 20
22.276372180986328
 30
0.0
 11
612.663530904156
 21
-37.723627819013672
 31
0.0
  0
LINE
  5
C3
  8
1
 62
     7
 10
531.94637361663069
 20
-158.89605184071681
 30
0.0
 11
528.38068819168154
 21
-158.38666820858111
 31
0.0
  0
LINE
  5
C4
  8
1
 62
     7
 10
528.38068819168154
 20
-125.89605184071669
 30
0.0
 11
531.94637361663069
 21
-125.3866682085811
 31
0.0
  0
LINE
  5
C5
  8
1
 62
     7
 10
526.66353090415612
 20
-156.40676922125891
 30
0.0
 11
526.66353090415612
 21
-127.875950828039
 31
0.0
  0
LINE
  5
C6
  8
1
 62
     7
 10
537.66353090415612
 20
-173.141360024649
 30
0.0
 11
534.66353090415612
 21
-173.141360024649
 31
0.0
  0
LINE
  5
C7
  8
1
 62
     7
 10
533.66353090415612
 20
-172.141360024649
 30
0.0
 11
533.66353090415612
 21
-112.1413600246489
 31
0.0
  0
LINE
  5
C8
  8
1
 62
     7
 10
534.66353090415612
 20
-111.1413600246489
 30
0.0
 11
537.66353090415612
 21
-111.1413600246489
 31
0.0
  0
LINE
  5
C9
  8
1
 62
     7
 10
617.94637361663047
 20
-158.38666820858111
 30
0.0
 11
614.38068819168132
 21
-158.89605184071681
 31
0.0
  0
LINE
  5
CA
  8
1
 62
     7
 10
614.38068819168132
 20
-125.3866682085811
 30
0.0
 11
617.94637361663047
 21
-125.89605184071669
 31
0.0
  0
LINE
  5
CB
  8
1
 62
     7
 10
619.663530904156
 20
-127.875950828039
 30
0.0
 11
619.663530904156
 21
-156.40676922125891
 31
0.0
  0
LINE
  5
CC
  8
1
 62
     7
 10
611.66353090415589
 20
-173.141360024649
 30
0.0
 11
608.663530904156
 21
-173.141360024649
 31
0.0
  0
LINE
  5
CD
  8
1
 62
     7
 10
612.663530904156
 20
-112.1413600246489
 30
0.0
 11
612.663530904156
 21
-172.141360024649
 31
0.0
  0
LINE
  5
CE
  8
1
 62
     7
 10
608.663530904156
 20
-111.1413600246489
 30
0.0
 11
611.66353090415589
 21
-111.1413600246489
 31
0.0
  0
LINE
  5
CF
  8
1
 62
     7
 10
606.86353090415605
 20
-145.141360024649
 30
0.0
 11
606.86353090415605
 21
-139.141360024649
 31
0.0
  0
LINE
  5
D0
  8
1
 62
     7
 10
539.46353090415596
 20
-145.141360024649
 30
0.0
 11
539.46353090415596
 21
-139.141360024649
 31
0.0
  0
LINE
  5
D1
  8
1
 62
     7
 10
608.66353090415612
 20
-145.141360024649
 30
0.0
 11
604.466306541888
 21
-145.141360024649
 31
0.0
  0
LINE
  5
D2
  8
1
 62
     7
 10
537.66353090415589
 20
-139.141360024649
 30
0.0
 11
541.86075526642401
 21
-139.141360024649
 31
0.0
  0
LINE
  5
D3
  8
1
 62
     7
 10
555.663530904156
 20
32.276372180986073
 30
0.0
 11
555.663530904156
 21
25.276372180986311
 31
0.0
  0
LINE
  5
D4
  8
1
 62
     7
 10
588.66353090415612
 20
34.276372180986073
 30
0.0
 11
557.66353090415589
 21
34.27637218098608
 31
0.0
  0
LINE
  5
D5
  8
1
 62
     7
 10
537.66353090415589
 20
24.276372180986328
 30
0.0
 11
608.663530904156
 21
24.276372180986328
 31
0.0
  0
LINE
  5
D6
  8
1
  6
CENTER
 62
     3
 10
557.66353090415589
 20
-187.141360024649
 30
0.0
 11
557.66353090415589
 21
-182.141360024649
 31
0.0
  0
LINE
  5
D7
  8
1
  6
CENTER
 62
     3
 10
538.663530904156
 20
-187.141360024649
 30
0.0
 11
557.66353090415589
 21
-187.141360024649
 31
0.0
  0
LINE
  5
D8
  8
1
  6
CENTER
 62
     3
 10
538.663530904156
 20
-187.141360024649
 30
0.0
 11
538.663530904156
 21
-182.141360024649
 31
0.0
  0
LINE
  5
D9
  8
1
  6
CENTER
 62
     3
 10
607.66353090415589
 20
-187.141360024649
 30
0.0
 11
607.66353090415589
 21
-182.141360024649
 31
0.0
  0
LINE
  5
DA
  8
1
  6
CENTER
 62
     3
 10
588.663530904156
 20
-187.141360024649
 30
0.0
 11
607.66353090415589
 21
-187.141360024649
 31
0.0
  0
LINE
  5
DB
  8
1
  6
CENTER
 62
     3
 10
588.663530904156
 20
-182.141360024649
 30
0.0
 11
588.663530904156
 21
-187.141360024649
 31
0.0
  0
LINE
  5
DC
  8
1
  6
CENTER
 62
     3
 10
716.17180960185215
 20
-187.141360024649
 30
0.0
 11
698.17180960185215
 21
-187.141360024649
 31
0.0
  0
LINE
  5
DD
  8
1
  6
CENTER
 62
     3
 10
769.1718096018526
 20
-186.14136002464889
 30
0.0
 11
717.17180960185226
 21
-186.14136002464889
 31
0.0
  0
LINE
  5
DE
  8
1
  6
CENTER
 62
     3
 10
788.17180960185226
 20
-187.141360024649
 30
0.0
 11
770.1718096018526
 21
-187.141360024649
 31
0.0
  0
LINE
  5
DF
  8
1
  6
CENTER
 62
     3
 10
788.17180960185226
 20
-182.141360024649
 30
0.0
 11
788.17180960185226
 21
-187.141360024649
 31
0.0
  0
LINE
  5
E0
  8
1
  6
CENTER
 62
     3
 10
698.17180960185215
 20
-182.141360024649
 30
0.0
 11
715.67180960185215
 21
-182.141360024649
 31
0.0
  0
LINE
  5
E1
  8
1
  6
CENTER
 62
     3
 10
698.17180960185215
 20
-187.141360024649
 30
0.0
 11
698.17180960185215
 21
-182.141360024649
 31
0.0
  0
LINE
  5
E2
  8
1
 62
     7
 10
555.663530904156
 20
-40.723627819013672
 30
0.0
 11
555.663530904156
 21
-47.723627819013423
 31
0.0
  0
LINE
  5
E3
  8
1
 62
     7
 10
557.66353090415589
 20
-49.723627819013423
 30
0.0
 11
588.66353090415612
 21
-49.723627819013423
 31
0.0
  0
LINE
  5
E4
  8
1
 62
     7
 10
608.663530904156
 20
-39.723627819013672
 30
0.0
 11
537.66353090415589
 21
-39.723627819013672
 31
0.0
  0
LINE
  5
E5
  8
1
 62
     7
 10
608.663530904156
 20
24.276372180986328
 30
0.0
 11
608.663530904156
 21
-39.723627819013672
 31
0.0
  0
LINE
  5
E6
  8
1
 62
     7
 10
770.67180960185215
 20
-182.141360024649
 30
0.0
 11
770.67180960185215
 21
-176.33510730961811
 31
0.0
  0
LINE
  5
E7
  8
1
 62
     7
 10
715.67180960185215
 20
-176.33510730961811
 30
0.0
 11
715.67180960185215
 21
-182.141360024649
 31
0.0
  0
LINE
  5
E8
  8
1
 62
     7
 10
755.67180960185215
 20
-181.641360024649
 30
0.0
 11
755.67180960185215
 21
-182.141360024649
 31
0.0
  0
LINE
  5
E9
  8
1
 62
     7
 10
732.67180960185215
 20
-179.641360024649
 30
0.0
 11
753.67180960185215
 21
-179.641360024649
 31
0.0
  0
LINE
  5
EA
  8
1
 62
     7
 10
730.67180960185215
 20
-182.141360024649
 30
0.0
 11
730.67180960185215
 21
-181.641360024649
 31
0.0
  0
LINE
  5
EB
  8
1
 62
     7
 10
711.17180960185215
 20
-169.141360024649
 30
0.0
 11
711.17180960185215
 21
-115.1413600246489
 31
0.0
  0
LINE
  5
EC
  8
1
 62
     7
 10
770.17180960185215
 20
-174.141360024649
 30
0.0
 11
716.17180960185215
 21
-174.141360024649
 31
0.0
  0
LINE
  5
ED
  8
1
 62
     7
 10
775.17180960185215
 20
-115.1413600246489
 30
0.0
 11
775.17180960185215
 21
-169.141360024649
 31
0.0
  0
LINE
  5
EE
  8
1
 62
     7
 10
716.17180960185215
 20
-110.1413600246489
 30
0.0
 11
770.17180960185215
 21
-110.1413600246489
 31
0.0
  0
LINE
  5
EF
  8
1
 62
     7
 10
537.66353090415589
 20
-174.141360024649
 30
0.0
 11
537.66353090415589
 21
-110.1413600246489
 31
0.0
  0
LINE
  5
F0
  8
1
 62
     7
 10
608.663530904156
 20
-110.1413600246489
 30
0.0
 11
608.663530904156
 21
-174.141360024649
 31
0.0
  0
LINE
  5
F1
  8
1
 62
     7
 10
537.66353090415589
 20
-110.1413600246489
 30
0.0
 11
608.663530904156
 21
-110.1413600246489
 31
0.0
  0
LINE
  5
F2
  8
1
 62
     7
 10
537.66353090415589
 20
-174.141360024649
 30
0.0
 11
608.663530904156
 21
-174.141360024649
 31
0.0
  0
LINE
  5
F3
  8
1
 62
     7
 10
538.663530904156
 20
-182.141360024649
 30
0.0
 11
607.66353090415589
 21
-182.141360024649
 31
0.0
  0
LINE
  5
F4
  8
1
 62
     7
 10
607.66353090415589
 20
-179.141360024649
 30
0.0
 11
608.663530904156
 21
-179.141360024649
 31
0.0
  0
LINE
  5
F5
  8
1
 62
     7
 10
608.663530904156
 20
-179.141360024649
 30
0.0
 11
608.663530904156
 21
-175.141360024649
 31
0.0
  0
LINE
  5
F6
  8
1
 62
     7
 10
608.663530904156
 20
-175.141360024649
 30
0.0
 11
607.66353090415589
 21
-175.141360024649
 31
0.0
  0
LINE
  5
F7
  8
1
 62
     7
 10
538.663530904156
 20
-175.141360024649
 30
0.0
 11
537.66353090415589
 21
-175.141360024649
 31
0.0
  0
LINE
  5
F8
  8
1
 62
     7
 10
537.66353090415589
 20
-175.141360024649
 30
0.0
 11
537.66353090415589
 21
-179.141360024649
 31
0.0
  0
LINE
  5
F9
  8
1
 62
     7
 10
537.66353090415589
 20
-179.141360024649
 30
0.0
 11
538.663530904156
 21
-179.141360024649
 31
0.0
  0
LINE
  5
FA
  8
1
 62
     7
 10
710.22711011669207
 20
-136.6936824586534
 30
0.0
 11
702.1165090870121
 21
-137.14289026894369
 31
0.0
  0
LINE
  5
FB
  8
1
 62
     7
 10
710.22711011669207
 20
-128.6936824586534
 30
0.0
 11
702.1165090870121
 21
-129.1428902689438
 31
0.0
  0
LINE
  5
FC
  8
1
 62
     7
 10
702.1165090870121
 20
-131.13982978035421
 30
0.0
 11
710.22711011669207
 21
-131.58903759064449
 31
0.0
  0
LINE
  5
FD
  8
1
 62
     7
 10
710.22711011669207
 20
-120.6936824586534
 30
0.0
 11
702.1165090870121
 21
-121.1428902689438
 31
0.0
  0
LINE
  5
FE
  8
1
 62
     7
 10
702.1165090870121
 20
-123.13982978035421
 30
0.0
 11
710.22711011669207
 21
-123.58903759064449
 31
0.0
  0
LINE
  5
FF
  8
1
 62
     7
 10
702.1165090870121
 20
-115.13982978035411
 30
0.0
 11
710.22711011669207
 21
-115.58903759064459
 31
0.0
  0
LINE
  5
100
  8
1
 62
     7
 10
702.1165090870121
 20
-113.1428902689437
 30
0.0
 11
711.36011653705032
 21
-112.6309305946088
 31
0.0
  0
LINE
  5
101
  8
1
 62
     7
 10
702.1165090870121
 20
-147.13982978035421
 30
0.0
 11
710.22711011669207
 21
-147.58903759064449
 31
0.0
  0
LINE
  5
102
  8
1
 62
     7
 10
702.1165090870121
 20
-155.13982978035421
 30
0.0
 11
710.22711011669207
 21
-155.58903759064449
 31
0.0
  0
LINE
  5
103
  8
1
 62
     7
 10
710.22711011669207
 20
-152.6936824586534
 30
0.0
 11
702.1165090870121
 21
-153.1428902689438
 31
0.0
  0
LINE
  5
104
  8
1
 62
     7
 10
702.1165090870121
 20
-163.13982978035421
 30
0.0
 11
710.22711011669207
 21
-163.58903759064449
 31
0.0
  0
LINE
  5
105
  8
1
 62
     7
 10
710.22711011669207
 20
-160.6936824586534
 30
0.0
 11
702.1165090870121
 21
-161.14289026894369
 31
0.0
  0
LINE
  5
106
  8
1
 62
     7
 10
710.22711011669207
 20
-168.69368245865331
 30
0.0
 11
702.1165090870121
 21
-169.1428902689438
 31
0.0
  0
LINE
  5
107
  8
1
 62
     7
 10
711.36011653705032
 20
-171.65178945468909
 30
0.0
 11
702.1165090870121
 21
-171.13982978035409
 31
0.0
  0
LINE
  5
108
  8
1
 62
     7
 10
775.17180960185215
 20
-115.1413600246489
 30
0.0
 11
775.17180960185215
 21
-169.141360024649
 31
0.0
  0
LINE
  5
109
  8
1
 62
     7
 10
784.22711011669207
 20
-137.14289026894369
 30
0.0
 11
776.11650908701222
 21
-136.6936824586534
 31
0.0
  0
LINE
  5
10A
  8
1
 62
     7
 10
776.11650908701222
 20
-139.58903759064449
 30
0.0
 11
784.22711011669207
 21
-139.13982978035421
 31
0.0
  0
LINE
  5
10B
  8
1
 62
     7
 10
784.22711011669207
 20
-129.1428902689438
 30
0.0
 11
776.11650908701222
 21
-128.6936824586534
 31
0.0
  0
LINE
  5
10C
  8
1
 62
     7
 10
776.11650908701222
 20
-131.58903759064449
 30
0.0
 11
784.22711011669207
 21
-131.13982978035421
 31
0.0
  0
LINE
  5
10D
  8
1
 62
     7
 10
784.22711011669207
 20
-121.1428902689438
 30
0.0
 11
776.11650908701222
 21
-120.6936824586534
 31
0.0
  0
LINE
  5
10E
  8
1
 62
     7
 10
776.11650908701222
 20
-123.58903759064449
 30
0.0
 11
784.22711011669207
 21
-123.13982978035421
 31
0.0
  0
LINE
  5
10F
  8
1
 62
     7
 10
776.11650908701222
 20
-115.58903759064459
 30
0.0
 11
784.22711011669207
 21
-115.13982978035411
 31
0.0
  0
LINE
  5
110
  8
1
 62
     7
 10
774.98350266665409
 20
-112.6309305946088
 30
0.0
 11
784.22711011669207
 21
-113.1428902689437
 31
0.0
  0
LINE
  5
111
  8
1
 62
     7
 10
776.11650908701222
 20
-147.58903759064449
 30
0.0
 11
784.22711011669207
 21
-147.13982978035421
 31
0.0
  0
LINE
  5
112
  8
1
 62
     7
 10
784.22711011669207
 20
-145.14289026894369
 30
0.0
 11
776.11650908701222
 21
-144.69368245865331
 31
0.0
  0
LINE
  5
113
  8
1
 62
     7
 10
776.11650908701222
 20
-155.58903759064449
 30
0.0
 11
784.22711011669207
 21
-155.13982978035421
 31
0.0
  0
LINE
  5
114
  8
1
 62
     7
 10
784.22711011669207
 20
-153.1428902689438
 30
0.0
 11
776.11650908701222
 21
-152.6936824586534
 31
0.0
  0
LINE
  5
115
  8
1
 62
     7
 10
776.11650908701222
 20
-163.58903759064449
 30
0.0
 11
784.22711011669207
 21
-163.13982978035421
 31
0.0
  0
LINE
  5
116
  8
1
 62
     7
 10
784.22711011669207
 20
-161.14289026894369
 30
0.0
 11
776.11650908701222
 21
-160.6936824586534
 31
0.0
  0
LINE
  5
117
  8
1
 62
     7
 10
784.22711011669207
 20
-169.1428902689438
 30
0.0
 11
776.11650908701222
 21
-168.69368245865331
 31
0.0
  0
LINE
  5
118
  8
1
 62
     7
 10
784.22711011669207
 20
-171.13982978035409
 30
0.0
 11
774.98350266665409
 21
-171.65178945468909
 31
0.0
  0
LINE
  5
119
  8
1
 62
     7
 10
557.163530904156
 20
-136.641360024649
 30
0.0
 11
589.16353090415612
 21
-136.641360024649
 31
0.0
  0
LINE
  5
11A
  8
1
 62
     7
 10
557.163530904156
 20
-139.64136002464889
 30
0.0
 11
589.16353090415612
 21
-139.64136002464889
 31
0.0
  0
LINE
  5
11B
  8
1
 62
     7
 10
557.163530904156
 20
-128.641360024649
 30
0.0
 11
589.16353090415612
 21
-128.641360024649
 31
0.0
  0
LINE
  5
11C
  8
1
 62
     7
 10
557.163530904156
 20
-131.641360024649
 30
0.0
 11
589.16353090415612
 21
-131.641360024649
 31
0.0
  0
LINE
  5
11D
  8
1
 62
     7
 10
557.163530904156
 20
-120.641360024649
 30
0.0
 11
589.16353090415612
 21
-120.641360024649
 31
0.0
  0
LINE
  5
11E
  8
1
 62
     7
 10
557.163530904156
 20
-123.6413600246489
 30
0.0
 11
589.16353090415612
 21
-123.6413600246489
 31
0.0
  0
LINE
  5
11F
  8
1
 62
     7
 10
557.163530904156
 20
-112.6413600246489
 30
0.0
 11
589.16353090415612
 21
-112.6413600246489
 31
0.0
  0
LINE
  5
120
  8
1
 62
     7
 10
557.163530904156
 20
-115.6413600246489
 30
0.0
 11
589.16353090415612
 21
-115.6413600246489
 31
0.0
  0
LINE
  5
121
  8
1
 62
     7
 10
589.16353090415612
 20
-147.64136002464889
 30
0.0
 11
557.163530904156
 21
-147.64136002464889
 31
0.0
  0
LINE
  5
122
  8
1
 62
     7
 10
589.16353090415612
 20
-144.641360024649
 30
0.0
 11
557.163530904156
 21
-144.641360024649
 31
0.0
  0
LINE
  5
123
  8
1
 62
     7
 10
589.16353090415612
 20
-155.641360024649
 30
0.0
 11
557.163530904156
 21
-155.641360024649
 31
0.0
  0
LINE
  5
124
  8
1
 62
     7
 10
589.16353090415612
 20
-152.641360024649
 30
0.0
 11
557.163530904156
 21
-152.641360024649
 31
0.0
  0
LINE
  5
125
  8
1
 62
     7
 10
589.16353090415612
 20
-163.64136002464889
 30
0.0
 11
557.163530904156
 21
-163.64136002464889
 31
0.0
  0
LINE
  5
126
  8
1
 62
     7
 10
589.16353090415612
 20
-160.64136002464889
 30
0.0
 11
557.163530904156
 21
-160.64136002464889
 31
0.0
  0
LINE
  5
127
  8
1
 62
     7
 10
589.16353090415612
 20
-171.64136002464889
 30
0.0
 11
557.163530904156
 21
-171.64136002464889
 31
0.0
  0
LINE
  5
128
  8
1
 62
     7
 10
589.16353090415612
 20
-168.64136002464889
 30
0.0
 11
557.163530904156
 21
-168.64136002464889
 31
0.0
  0
LINE
  5
129
  8
1
 62
     7
 10
562.66353090415589
 20
-116.6413600246489
 30
0.0
 11
562.66353090415589
 21
-119.641360024649
 31
0.0
  0
LINE
  5
12A
  8
1
 62
     7
 10
583.663530904156
 20
-119.641360024649
 30
0.0
 11
583.663530904156
 21
-116.6413600246489
 31
0.0
  0
LINE
  5
12B
  8
1
 62
     7
 10
562.66353090415589
 20
-124.6413600246489
 30
0.0
 11
562.66353090415589
 21
-127.6413600246489
 31
0.0
  0
LINE
  5
12C
  8
1
 62
     7
 10
583.663530904156
 20
-127.6413600246489
 30
0.0
 11
583.663530904156
 21
-124.6413600246489
 31
0.0
  0
LINE
  5
12D
  8
1
  6
DASHED
 62
     3
 10
545.16353090415589
 20
-174.141360024649
 30
0.0
 11
545.16353090415589
 21
-182.141360024649
 31
0.0
  0
LINE
  5
12E
  8
1
  6
DASHED
 62
     3
 10
551.163530904156
 20
-174.141360024649
 30
0.0
 11
551.163530904156
 21
-182.141360024649
 31
0.0
  0
LINE
  5
12F
  8
1
  6
DASHED
 62
     7
 10
545.76353090415603
 20
-174.141360024649
 30
0.0
 11
545.76353090415603
 21
-182.141360024649
 31
0.0
  0
LINE
  5
130
  8
1
  6
DASHED
 62
     7
 10
550.56353090415598
 20
-174.141360024649
 30
0.0
 11
550.56353090415598
 21
-182.141360024649
 31
0.0
  0
LINE
  5
131
  8
1
  6
DASHDOT
 62
     3
 10
548.163530904156
 20
-188.741360024649
 30
0.0
 11
548.163530904156
 21
-172.54136002464901
 31
0.0
  0
LINE
  5
132
  8
1
  6
DASHED
 62
     3
 10
595.16353090415589
 20
-174.141360024649
 30
0.0
 11
595.16353090415589
 21
-182.141360024649
 31
0.0
  0
LINE
  5
133
  8
1
  6
DASHED
 62
     3
 10
601.163530904156
 20
-174.141360024649
 30
0.0
 11
601.163530904156
 21
-182.141360024649
 31
0.0
  0
LINE
  5
134
  8
1
  6
DASHED
 62
     7
 10
595.76353090415603
 20
-174.141360024649
 30
0.0
 11
595.76353090415603
 21
-182.141360024649
 31
0.0
  0
LINE
  5
135
  8
1
  6
DASHED
 62
     7
 10
600.56353090415598
 20
-174.141360024649
 30
0.0
 11
600.56353090415598
 21
-182.141360024649
 31
0.0
  0
LINE
  5
136
  8
1
  6
DASHDOT
 62
     3
 10
598.163530904156
 20
-188.741360024649
 30
0.0
 11
598.163530904156
 21
-172.54136002464901
 31
0.0
  0
LINE
  5
137
  8
1
  6
DASHED
 62
     3
 10
760.17180960185215
 20
-174.141360024649
 30
0.0
 11
760.17180960185215
 21
-182.141360024649
 31
0.0
  0
LINE
  5
138
  8
1
  6
DASHED
 62
     3
 10
766.17180960185215
 20
-174.141360024649
 30
0.0
 11
766.17180960185215
 21
-182.141360024649
 31
0.0
  0
LINE
  5
139
  8
1
  6
DASHDOT
 62
     3
 10
763.17180960185226
 20
-172.54136002464901
 30
0.0
 11
763.17180960185226
 21
-183.741360024649
 31
0.0
  0
LINE
  5
13A
  8
1
  6
DASHED
 62
     7
 10
760.77180960185228
 20
-174.141360024649
 30
0.0
 11
760.77180960185228
 21
-182.141360024649
 31
0.0
  0
LINE
  5
13B
  8
1
  6
DASHED
 62
     7
 10
765.57180960185212
 20
-174.141360024649
 30
0.0
 11
765.57180960185212
 21
-182.141360024649
 31
0.0
  0
LINE
  5
13C
  8
1
  6
DASHDOT
 62
     3
 10
598.163530904156
 20
26.996771427982392
 30
0.0
 11
598.163530904156
 21
35.55597293399024
 31
0.0
  0
LINE
  5
13D
  8
1
  6
DASHDOT
 62
     3
 10
593.88393015115196
 20
31.276372180986321
 30
0.0
 11
602.44313165715994
 21
31.276372180986321
 31
0.0
  0
LINE
  5
13E
  8
1
  6
CENTER
 62
     3
 10
602.663530904156
 20
37.276372180986321
 30
0.0
 11
593.663530904156
 21
37.276372180986321
 31
0.0
  0
LINE
  5
13F
  8
1
  6
CENTER
 62
     3
 10
607.66353090415589
 20
24.276372180986311
 30
0.0
 11
607.66353090415589
 21
32.276372180986321
 31
0.0
  0
LINE
  5
140
  8
1
 62
     7
 10
608.663530904156
 20
23.276372180986328
 30
0.0
 11
611.66353090415589
 21
23.276372180986328
 31
0.0
  0
LINE
  5
141
  8
1
 62
     7
 10
590.66353090415589
 20
25.276372180986311
 30
0.0
 11
590.66353090415589
 21
32.276372180986073
 31
0.0
  0
LINE
  5
142
  8
1
  6
CENTER
 62
     3
 10
607.66353090415589
 20
-47.72362781901365
 30
0.0
 11
607.66353090415589
 21
-39.72362781901365
 31
0.0
  0
LINE
  5
143
  8
1
  6
CENTER
 62
     3
 10
593.663530904156
 20
-52.72362781901365
 30
0.0
 11
602.663530904156
 21
-52.72362781901365
 31
0.0
  0
LINE
  5
144
  8
1
  6
DASHDOT
 62
     3
 10
602.44313165715994
 20
-46.72362781901365
 30
0.0
 11
593.88393015115196
 21
-46.72362781901365
 31
0.0
  0
LINE
  5
145
  8
1
  6
DASHDOT
 62
     3
 10
598.163530904156
 20
-51.003228572017591
 30
0.0
 11
598.163530904156
 21
-42.444027066009738
 31
0.0
  0
LINE
  5
146
  8
1
 62
     3
 10
613.79183671788985
 20
-55.721408807971748
 30
0.0
 11
611.15883179802927
 21
-54.283603156296657
 31
0.0
  0
LINE
  5
147
  8
1
 62
     3
 10
611.59017349353167
 20
-53.493701680338361
 30
0.0
 11
614.22317841339225
 21
-54.931507332013553
 31
0.0
  0
LINE
  5
148
  8
1
 62
     3
 10
607.6724802223257
 20
-58.09670403036705
 30
0.0
 11
606.17248022232616
 21
-55.498627819013748
 31
0.0
  0
LINE
  5
149
  8
1
 62
     3
 10
605.39305735892026
 20
-55.948627819013751
 30
0.0
 11
606.8930573589198
 21
-58.54670403036706
 31
0.0
  0
LINE
  5
14A
  8
1
 62
     7
 10
599.16353090415589
 20
-40.723627819013672
 30
0.0
 11
606.163530904156
 21
-40.723627819013672
 31
0.0
  0
LINE
  5
14B
  8
1
 62
     7
 10
611.80584434128275
 20
-53.098750942359381
 30
0.0
 11
610.94316095027796
 21
-54.678553894275751
 31
0.0
  0
LINE
  5
14C
  8
1
 62
     7
 10
605.00334592721708
 20
-56.173627819013767
 30
0.0
 11
606.56219165402865
 21
-55.273627819013647
 31
0.0
  0
LINE
  5
14D
  8
1
 62
     7
 10
606.16353090415623
 20
-39.723627819013672
 30
0.0
 11
606.163530904156
 21
-40.723627819013672
 31
0.0
  0
LINE
  5
14E
  8
1
 62
     7
 10
599.16353090415589
 20
-40.723627819013672
 30
0.0
 11
599.16353090415589
 21
-39.723627819013672
 31
0.0
  0
LINE
  5
14F
  8
1
 62
     7
 10
611.66353090415589
 20
-38.723627819013672
 30
0.0
 11
608.663530904156
 21
-38.723627819013672
 31
0.0
  0
LINE
  5
150
  8
1
 62
     7
 10
590.66353090415589
 20
-47.723627819013423
 30
0.0
 11
590.66353090415589
 21
-40.723627819013672
 31
0.0
  0
LINE
  5
151
  8
1
 62
     7
 10
538.663530904156
 20
-182.141360024649
 30
0.0
 11
538.663530904156
 21
-175.141360024649
 31
0.0
  0
LINE
  5
152
  8
1
 62
     7
 10
607.66353090415589
 20
-182.141360024649
 30
0.0
 11
607.66353090415589
 21
-175.141360024649
 31
0.0
  0
LINE
  5
153
  8
1
  6
CENTER
 62
     3
 10
730.67180960185215
 20
-182.141360024649
 30
0.0
 11
755.67180960185215
 21
-182.141360024649
 31
0.0
  0
LINE
  5
154
  8
1
 62
     7
 10
755.67180960185215
 20
-182.141360024649
 30
0.0
 11
770.67180960185215
 21
-182.141360024649
 31
0.0
  0
LINE
  5
155
  8
1
  6
CENTER
 62
     3
 10
770.67180960185215
 20
-182.141360024649
 30
0.0
 11
788.17180960185226
 21
-182.141360024649
 31
0.0
  0
LINE
  5
156
  8
1
 62
     7
 10
715.67180960185215
 20
-182.141360024649
 30
0.0
 11
730.67180960185215
 21
-182.141360024649
 31
0.0
  0
ARC
  5
157
  8
1
  6
CENTER
 62
     3
 10
552.663530904156
 20
32.276372180986073
 30
0.0
 40
4.9999999999999947
 50
23.578178478201849
 51
90.0
  0
ARC
  5
158
  8
1
  6
CENTER
 62
     3
 10
552.663530904156
 20
-47.723627819013423
 30
0.0
 40
5.0000000000002354
 50
270.0
 51
336.42182152179811
  0
ARC
  5
159
  8
1
  6
CENTER
 62
     3
 10
548.163530904156
 20
-46.72362781901365
 30
0.0
 40
3.25
 50
0.0
 51
164.05854195363591
  0
ARC
  5
15A
  8
1
  6
CENTER
 62
     3
 10
548.163530904156
 20
-46.72362781901365
 30
0.0
 40
3.25
 50
175.69211473556959
 51
0.0
  0
ARC
  5
15B
  8
1
 62
     7
 10
710.17180960185215
 20
-157.141360024649
 30
0.0
 40
14.099999999999991
 50
90.0
 51
151.36235920854611
  0
ARC
  5
15C
  8
1
 62
     7
 10
710.17180960185215
 20
-157.141360024649
 30
0.0
 40
15.90000000000002
 50
129.3230891812492
 51
151.36235920854639
  0
ARC
  5
15D
  8
1
 62
     7
 10
710.17180960185215
 20
-127.1413600246489
 30
0.0
 40
14.099999999999991
 50
208.6376407914538
 51
270.0
  0
ARC
  5
15E
  8
1
 62
     7
 10
710.17180960185215
 20
-127.1413600246489
 30
0.0
 40
15.9000000000001
 50
208.63764079145349
 51
230.67691081875029
  0
ARC
  5
15F
  8
1
 62
     7
 10
710.17180960185215
 20
-172.141360024649
 30
0.0
 40
29.099999999999991
 50
90.0
 51
120.0000000000002
  0
ARC
  5
160
  8
1
 62
     7
 10
710.17180960185215
 20
-172.141360024649
 30
0.0
 40
30.900000000000009
 50
103.86243211643389
 51
119.9999999999999
  0
ARC
  5
161
  8
1
 62
     7
 10
710.17180960185215
 20
-112.1413600246489
 30
0.0
 40
30.899999999999959
 50
239.99999999999989
 51
270.0
  0
ARC
  5
162
  8
1
 62
     7
 10
710.17180960185215
 20
-112.1413600246489
 30
0.0
 40
29.100000000000069
 50
239.99999999999989
 51
270.0
  0
ARC
  5
163
  8
1
 62
     7
 10
514.56353090415587
 20
-40.723627819013672
 30
0.0
 40
30.90000000000007
 50
329.99999999999977
 51
0.0
  0
ARC
  5
164
  8
1
 62
     7
 10
514.56353090415587
 20
-40.723627819013672
 30
0.0
 40
29.100000000000069
 50
330.00000000000011
 51
0.0
  0
ARC
  5
165
  8
1
 62
     7
 10
527.86353090415594
 20
-40.892173104219999
 30
0.0
 40
15.8008989463627
 50
299.24881593221761
 51
0.6111751407637014
  0
ARC
  5
166
  8
1
 62
     7
 10
527.86353090415594
 20
-40.892173104219999
 30
0.0
 40
14.00101451728294
 50
299.32738843381151
 51
0.6897476423577955
  0
ARC
  5
167
  8
1
 62
     7
 10
601.46353090415596
 20
-142.141360024649
 30
0.0
 40
1.2000000000000171
 50
90.0
 51
270.0
  0
ARC
  5
168
  8
1
 62
     7
 10
603.86353090415605
 20
-142.141360024649
 30
0.0
 40
1.1999999999999891
 50
270.0
 51
90.0
  0
ARC
  5
169
  8
1
 62
     7
 10
542.46353090415596
 20
-142.141360024649
 30
0.0
 40
1.2000000000000171
 50
90.0
 51
270.0
  0
ARC
  5
16A
  8
1
 62
     7
 10
544.86353090415594
 20
-142.141360024649
 30
0.0
 40
1.1999999999999891
 50
270.0
 51
90.0
  0
ARC
  5
16B
  8
1
 62
     7
 10
702.17180960185215
 20
-138.141360024649
 30
0.0
 40
0.9999999999997765
 50
93.170103281063874
 51
172.06568246170201
  0
ARC
  5
16C
  8
1
 62
     7
 10
743.17180960185215
 20
-142.141360024649
 30
0.0
 40
4.5000000000000382
 50
116.38779996124261
 51
63.612200038757237
  0
ARC
  5
16D
  8
1
 62
     7
 10
743.17180960185215
 20
-141.641360024649
 30
0.0
 40
6.0000000000000169
 50
109.47122063449051
 51
226.18693853959641
  0
ARC
  5
16E
  8
1
 62
     7
 10
743.17180960185215
 20
-141.641360024649
 30
0.0
 40
6.0000000000000133
 50
313.8130614604035
 51
70.528779365509379
  0
ARC
  5
16F
  8
1
 62
     7
 10
770.12054694338121
 20
-115.19262268311979
 30
0.0
 40
1.8700000000000041
 50
180.0
 51
270.0
  0
ARC
  5
170
  8
1
 62
     7
 10
765.72054694338124
 20
-115.19262268311979
 30
0.0
 40
1.8700000000000041
 50
270.0
 51
0.0
  0
ARC
  5
171
  8
1
 62
     7
 10
765.72054694338124
 20
-119.5926226831198
 30
0.0
 40
1.8700000000000041
 50
0.0
 51
90.0
  0
ARC
  5
172
  8
1
 62
     7
 10
770.12054694338121
 20
-119.5926226831198
 30
0.0
 40
1.8700000000000041
 50
90.0
 51
180.0
  0
ARC
  5
173
  8
1
 62
     7
 10
720.62307226032283
 20
-115.19262268311979
 30
0.0
 40
1.8700000000000041
 50
180.0
 51
270.0
  0
ARC
  5
174
  8
1
 62
     7
 10
720.62307226032283
 20
-119.5926226831199
 30
0.0
 40
1.8700000000000041
 50
90.0
 51
180.0
  0
ARC
  5
175
  8
1
 62
     7
 10
716.22307226032297
 20
-119.5926226831199
 30
0.0
 40
1.8700000000000041
 50
0.0
 51
90.0
  0
ARC
  5
176
  8
1
 62
     7
 10
716.22307226032297
 20
-115.19262268311979
 30
0.0
 40
1.8700000000000041
 50
270.0
 51
0.0
  0
ARC
  5
177
  8
1
 62
     7
 10
716.22307226032297
 20
-164.69009736617809
 30
0.0
 40
1.8700000000000041
 50
270.0
 51
0.0
  0
ARC
  5
178
  8
1
 62
     7
 10
720.62307226032317
 20
-164.69009736617809
 30
0.0
 40
1.8700000000000041
 50
180.0
 51
270.0
  0
ARC
  5
179
  8
1
 62
     7
 10
720.62307226032317
 20
-169.0900973661781
 30
0.0
 40
1.8700000000000041
 50
90.0
 51
180.0
  0
ARC
  5
17A
  8
1
 62
     7
 10
716.22307226032297
 20
-169.0900973661781
 30
0.0
 40
1.8700000000000041
 50
0.0
 51
90.0
  0
ARC
  5
17B
  8
1
 62
     7
 10
765.72054694338124
 20
-169.0900973661781
 30
0.0
 40
1.8700000000000041
 50
0.0
 51
90.0
  0
ARC
  5
17C
  8
1
 62
     7
 10
765.72054694338124
 20
-164.69009736617801
 30
0.0
 40
1.8700000000000041
 50
270.0
 51
0.0
  0
ARC
  5
17D
  8
1
 62
     7
 10
770.12054694338121
 20
-164.69009736617801
 30
0.0
 40
1.8700000000000041
 50
180.0
 51
270.0
  0
ARC
  5
17E
  8
1
 62
     7
 10
770.12054694338121
 20
-169.0900973661781
 30
0.0
 40
1.8700000000000041
 50
90.0
 51
180.0
  0
ARC
  5
17F
  8
1
 62
     7
 10
717.17180960185226
 20
-116.1413600246489
 30
0.0
 40
5.0000000000000986
 50
90.0
 51
180.0
  0
ARC
  5
180
  8
1
 62
     7
 10
769.17180960185215
 20
-116.1413600246489
 30
0.0
 40
5.0
 50
0.0
 51
90.0
  0
ARC
  5
181
  8
1
 62
     7
 10
769.17180960185215
 20
-168.141360024649
 30
0.0
 40
5.0
 50
270.0
 51
0.0
  0
ARC
  5
182
  8
1
 62
     7
 10
717.17180960185226
 20
-168.141360024649
 30
0.0
 40
5.0
 50
180.0
 51
270.0
  0
ARC
  5
183
  8
1
 62
     7
 10
743.17180960185215
 20
-142.141360024649
 30
0.0
 40
4.9999999999999689
 50
113.57817847820201
 51
66.421821521798023
  0
ARC
  5
184
  8
1
 62
     7
 10
521.66353090415578
 20
-7.7236278190136733
 30
0.0
 40
2.0000000000000031
 50
270.0
 51
90.0
  0
ARC
  5
185
  8
1
 62
     7
 10
624.66353090415589
 20
-7.7236278190136733
 30
0.0
 40
1.9999999999999949
 50
90.0
 51
270.0
  0
ARC
  5
186
  8
1
 62
     7
 10
531.663530904156
 20
-26.45821862240382
 30
0.0
 40
2.0
 50
0.0
 51
81.869897645845285
  0
ARC
  5
187
  8
1
 62
     7
 10
531.663530904156
 20
11.01096298437646
 30
0.0
 40
1.9999999999999869
 50
278.13010235415481
 51
0.0
  0
ARC
  5
188
  8
1
 62
     7
 10
614.663530904156
 20
-26.45821862240382
 30
0.0
 40
2.0
 50
98.130102354154715
 51
180.0
  0
ARC
  5
189
  8
1
 62
     7
 10
614.663530904156
 20
11.01096298437646
 30
0.0
 40
2.0
 50
180.0
 51
261.86989764584519
  0
ARC
  5
18A
  8
1
 62
     7
 10
531.66353090415612
 20
-160.87595082803909
 30
0.0
 40
2.0
 50
0.0
 51
81.869897645845498
  0
ARC
  5
18B
  8
1
 62
     7
 10
531.66353090415612
 20
-123.4067692212589
 30
0.0
 40
1.9999999999999609
 50
278.13010235415481
 51
0.0
  0
ARC
  5
18C
  8
1
 62
     7
 10
614.663530904156
 20
-160.87595082803909
 30
0.0
 40
2.00000000000006
 50
98.130102354154502
 51
180.0
  0
ARC
  5
18D
  8
1
 62
     7
 10
614.663530904156
 20
-123.4067692212589
 30
0.0
 40
2.0
 50
180.0
 51
261.86989764584513
  0
ARC
  5
18E
  8
1
 62
     7
 10
554.663530904156
 20
25.276372180986311
 30
0.0
 40
0.9999999999999822
 50
270.0
 51
0.0
  0
ARC
  5
18F
  8
1
  6
CENTER
 62
     3
 10
769.1718096018526
 20
-187.141360024649
 30
0.0
 40
1.0
 50
0.0
 51
90.0
  0
ARC
  5
190
  8
1
  6
CENTER
 62
     3
 10
717.17180960185226
 20
-187.141360024649
 30
0.0
 40
1.0
 50
90.0
 51
180.0
  0
ARC
  5
191
  8
1
 62
     7
 10
554.663530904156
 20
-40.723627819013672
 30
0.0
 40
1.0
 50
0.0
 51
90.0
  0
ARC
  5
192
  8
1
 62
     7
 10
773.67180960185215
 20
-176.33510730961811
 30
0.0
 40
3.0000000000000151
 50
115.9444797723699
 51
180.0
  0
ARC
  5
193
  8
1
 62
     7
 10
712.67180960185215
 20
-176.33510730961811
 30
0.0
 40
3.0
 50
0.0
 51
64.05552022763014
  0
ARC
  5
194
  8
1
 62
     7
 10
753.67180960185215
 20
-181.641360024649
 30
0.0
 40
2.0
 50
0.0
 51
90.0
  0
ARC
  5
195
  8
1
 62
     7
 10
732.67180960185215
 20
-181.641360024649
 30
0.0
 40
2.0
 50
90.0
 51
180.0
  0
ARC
  5
196
  8
1
 62
     7
 10
537.66353090415589
 20
-175.141360024649
 30
0.0
 40
1.0
 50
0.0
 51
90.0
  0
ARC
  5
197
  8
1
 62
     7
 10
608.663530904156
 20
-175.141360024649
 30
0.0
 40
1.0
 50
90.0
 51
180.0
  0
ARC
  5
198
  8
1
 62
     7
 10
710.17180960185215
 20
-135.69521270294791
 30
0.0
 40
1.0000000000000591
 50
273.17010328106289
 51
0.0
  0
ARC
  5
199
  8
1
 62
     7
 10
710.17180960185215
 20
-127.6952127029479
 30
0.0
 40
1.0000000000000751
 50
273.17010328106289
 51
0.0
  0
ARC
  5
19A
  8
1
 62
     7
 10
702.17180960185215
 20
-130.14136002464889
 30
0.0
 40
0.9999999999997765
 50
93.170103281063874
 51
266.82989671893608
  0
ARC
  5
19B
  8
1
 62
     7
 10
710.17180960185215
 20
-132.58750734635001
 30
0.0
 40
1.0
 50
0.0
 51
86.829896718937022
  0
ARC
  5
19C
  8
1
 62
     7
 10
710.17180960185215
 20
-119.6952127029478
 30
0.0
 40
1.0000000000000751
 50
273.17010328106289
 51
0.0
  0
ARC
  5
19D
  8
1
 62
     7
 10
702.17180960185215
 20
-122.1413600246489
 30
0.0
 40
0.9999999999997765
 50
93.170103281063874
 51
266.82989671893608
  0
ARC
  5
19E
  8
1
 62
     7
 10
710.17180960185215
 20
-124.58750734634999
 30
0.0
 40
1.0
 50
0.0
 51
86.829896718937064
  0
ARC
  5
19F
  8
1
 62
     7
 10
702.17180960185215
 20
-114.1413600246489
 30
0.0
 40
0.9999999999997765
 50
93.170103281063874
 51
266.82989671893608
  0
ARC
  5
1A0
  8
1
 62
     7
 10
710.17180960185215
 20
-116.58750734635009
 30
0.0
 40
1.0
 50
0.0
 51
86.829896718937064
  0
ARC
  5
1A1
  8
1
 62
     7
 10
711.30481602221039
 20
-111.6324608389034
 30
0.0
 40
0.9999999999999754
 50
273.17010328106329
 51
324.20997017697181
  0
ARC
  5
1A2
  8
1
 62
     7
 10
710.17180960185215
 20
-148.58750734635001
 30
0.0
 40
1.0
 50
0.0
 51
86.829896718937022
  0
ARC
  5
1A3
  8
1
 62
     7
 10
702.17180960185215
 20
-146.141360024649
 30
0.0
 40
0.9999999999998509
 50
187.93431753829699
 51
266.82989671893608
  0
ARC
  5
1A4
  8
1
 62
     7
 10
710.17180960185215
 20
-156.58750734635009
 30
0.0
 40
1.0
 50
0.0
 51
86.829896718937022
  0
ARC
  5
1A5
  8
1
 62
     7
 10
702.17180960185215
 20
-154.141360024649
 30
0.0
 40
0.9999999999997765
 50
93.170103281063874
 51
266.82989671893608
  0
ARC
  5
1A6
  8
1
 62
     7
 10
710.17180960185215
 20
-151.69521270294791
 30
0.0
 40
1.0000000000000591
 50
273.17010328106289
 51
0.0
  0
ARC
  5
1A7
  8
1
 62
     7
 10
710.17180960185215
 20
-164.58750734635009
 30
0.0
 40
1.0
 50
0.0
 51
86.829896718937022
  0
ARC
  5
1A8
  8
1
 62
     7
 10
702.17180960185215
 20
-162.141360024649
 30
0.0
 40
0.9999999999997765
 50
93.170103281063874
 51
266.82989671893608
  0
ARC
  5
1A9
  8
1
 62
     7
 10
710.17180960185215
 20
-159.69521270294791
 30
0.0
 40
1.0000000000000591
 50
273.17010328106289
 51
0.0
  0
ARC
  5
1AA
  8
1
 62
     7
 10
702.17180960185215
 20
-170.141360024649
 30
0.0
 40
0.9999999999997765
 50
93.170103281063874
 51
266.82989671893608
  0
ARC
  5
1AB
  8
1
 62
     7
 10
710.17180960185215
 20
-167.69521270294791
 30
0.0
 40
1.0000000000000591
 50
273.17010328106289
 51
0.0
  0
ARC
  5
1AC
  8
1
 62
     7
 10
711.30481602221039
 20
-172.65025921039449
 30
0.0
 40
1.0000000000000311
 50
35.790029823028043
 51
86.829896718936723
  0
ARC
  5
1AD
  8
1
 62
     7
 10
776.17180960185226
 20
-135.69521270294791
 30
0.0
 40
1.0
 50
180.0
 51
266.82989671893688
  0
ARC
  5
1AE
  8
1
 62
     7
 10
784.17180960185226
 20
-138.141360024649
 30
0.0
 40
0.9999999999997765
 50
273.17010328106392
 51
86.829896718936098
  0
ARC
  5
1AF
  8
1
 62
     7
 10
776.17180960185226
 20
-140.58750734635009
 30
0.0
 40
1.0000000000000591
 50
93.170103281063007
 51
180.0
  0
ARC
  5
1B0
  8
1
 62
     7
 10
776.17180960185226
 20
-127.6952127029479
 30
0.0
 40
1.0
 50
180.0
 51
266.82989671893711
  0
ARC
  5
1B1
  8
1
 62
     7
 10
784.17180960185226
 20
-130.14136002464889
 30
0.0
 40
0.9999999999997765
 50
273.17010328106392
 51
86.829896718936098
  0
ARC
  5
1B2
  8
1
 62
     7
 10
776.17180960185226
 20
-132.58750734635001
 30
0.0
 40
1.0000000000000591
 50
93.170103281063007
 51
180.0
  0
ARC
  5
1B3
  8
1
 62
     7
 10
776.17180960185226
 20
-119.6952127029478
 30
0.0
 40
1.0
 50
180.0
 51
266.82989671893711
  0
ARC
  5
1B4
  8
1
 62
     7
 10
784.17180960185226
 20
-122.1413600246489
 30
0.0
 40
0.9999999999997765
 50
273.17010328106392
 51
86.829896718936098
  0
ARC
  5
1B5
  8
1
 62
     7
 10
776.17180960185226
 20
-124.58750734634999
 30
0.0
 40
1.0000000000000751
 50
93.17010328106295
 51
180.0
  0
ARC
  5
1B6
  8
1
 62
     7
 10
784.17180960185226
 20
-114.1413600246489
 30
0.0
 40
0.9999999999997765
 50
273.17010328106392
 51
86.829896718936098
  0
ARC
  5
1B7
  8
1
 62
     7
 10
776.17180960185226
 20
-116.58750734635009
 30
0.0
 40
1.0000000000000751
 50
93.17010328106295
 51
180.0
  0
ARC
  5
1B8
  8
1
 62
     7
 10
775.03880318149379
 20
-111.6324608389034
 30
0.0
 40
1.0000000000000311
 50
215.79002982302799
 51
266.82989671893682
  0
ARC
  5
1B9
  8
1
 62
     7
 10
776.17180960185226
 20
-148.58750734635001
 30
0.0
 40
1.0000000000000591
 50
93.170103281063007
 51
180.0
  0
ARC
  5
1BA
  8
1
 62
     7
 10
784.17180960185226
 20
-146.141360024649
 30
0.0
 40
0.9999999999997765
 50
273.17010328106392
 51
86.829896718936098
  0
ARC
  5
1BB
  8
1
 62
     7
 10
776.17180960185226
 20
-143.69521270294791
 30
0.0
 40
1.0
 50
180.0
 51
266.82989671893688
  0
ARC
  5
1BC
  8
1
 62
     7
 10
776.17180960185226
 20
-156.58750734635009
 30
0.0
 40
1.0000000000000591
 50
93.170103281063007
 51
180.0
  0
ARC
  5
1BD
  8
1
 62
     7
 10
784.17180960185226
 20
-154.141360024649
 30
0.0
 40
0.9999999999997765
 50
273.17010328106392
 51
86.829896718936098
  0
ARC
  5
1BE
  8
1
 62
     7
 10
776.17180960185226
 20
-151.69521270294791
 30
0.0
 40
1.0
 50
180.0
 51
266.82989671893688
  0
ARC
  5
1BF
  8
1
 62
     7
 10
776.17180960185226
 20
-164.58750734635009
 30
0.0
 40
1.0000000000000591
 50
93.170103281063007
 51
180.0
  0
ARC
  5
1C0
  8
1
 62
     7
 10
784.17180960185226
 20
-162.141360024649
 30
0.0
 40
0.9999999999997765
 50
273.17010328106392
 51
86.829896718936098
  0
ARC
  5
1C1
  8
1
 62
     7
 10
776.17180960185226
 20
-159.69521270294791
 30
0.0
 40
1.0
 50
180.0
 51
266.82989671893688
  0
ARC
  5
1C2
  8
1
 62
     7
 10
784.17180960185226
 20
-170.141360024649
 30
0.0
 40
0.9999999999997765
 50
273.17010328106392
 51
86.829896718936098
  0
ARC
  5
1C3
  8
1
 62
     7
 10
776.17180960185226
 20
-167.69521270294791
 30
0.0
 40
1.0
 50
180.0
 51
266.82989671893688
  0
ARC
  5
1C4
  8
1
 62
     7
 10
775.03880318149379
 20
-172.65025921039449
 30
0.0
 40
0.9999999999999754
 50
93.170103281063277
 51
144.20997017697201
  0
ARC
  5
1C5
  8
1
 62
     7
 10
557.163530904156
 20
-138.141360024649
 30
0.0
 40
1.5
 50
90.0
 51
270.0
  0
ARC
  5
1C6
  8
1
 62
     7
 10
589.16353090415612
 20
-138.141360024649
 30
0.0
 40
1.5
 50
270.0
 51
90.0
  0
ARC
  5
1C7
  8
1
 62
     7
 10
557.163530904156
 20
-130.14136002464889
 30
0.0
 40
1.5
 50
90.0
 51
270.0
  0
ARC
  5
1C8
  8
1
 62
     7
 10
589.16353090415612
 20
-130.14136002464889
 30
0.0
 40
1.5
 50
270.0
 51
90.0
  0
ARC
  5
1C9
  8
1
 62
     7
 10
557.163530904156
 20
-122.1413600246489
 30
0.0
 40
1.5
 50
90.0
 51
270.0
  0
ARC
  5
1CA
  8
1
 62
     7
 10
589.16353090415612
 20
-122.1413600246489
 30
0.0
 40
1.5
 50
270.0
 51
90.0
  0
ARC
  5
1CB
  8
1
 62
     7
 10
557.163530904156
 20
-114.1413600246489
 30
0.0
 40
1.5
 50
90.0
 51
270.0
  0
ARC
  5
1CC
  8
1
 62
     7
 10
589.16353090415612
 20
-114.1413600246489
 30
0.0
 40
1.5
 50
270.0
 51
90.0
  0
ARC
  5
1CD
  8
1
 62
     7
 10
557.163530904156
 20
-146.141360024649
 30
0.0
 40
1.5
 50
90.0
 51
270.0
  0
ARC
  5
1CE
  8
1
 62
     7
 10
589.16353090415612
 20
-146.141360024649
 30
0.0
 40
1.5
 50
270.0
 51
90.0
  0
ARC
  5
1CF
  8
1
 62
     7
 10
557.163530904156
 20
-154.141360024649
 30
0.0
 40
1.5
 50
90.0
 51
270.0
  0
ARC
  5
1D0
  8
1
 62
     7
 10
589.16353090415612
 20
-154.141360024649
 30
0.0
 40
1.5
 50
270.0
 51
90.0
  0
ARC
  5
1D1
  8
1
 62
     7
 10
557.163530904156
 20
-162.14136002464889
 30
0.0
 40
1.5
 50
90.0
 51
270.0
  0
ARC
  5
1D2
  8
1
 62
     7
 10
589.16353090415612
 20
-162.14136002464889
 30
0.0
 40
1.5
 50
270.0
 51
90.0
  0
ARC
  5
1D3
  8
1
 62
     7
 10
557.163530904156
 20
-170.14136002464889
 30
0.0
 40
1.5
 50
90.0
 51
270.0
  0
ARC
  5
1D4
  8
1
 62
     7
 10
589.16353090415612
 20
-170.14136002464889
 30
0.0
 40
1.5
 50
270.0
 51
90.0
  0
ARC
  5
1D5
  8
1
 62
     7
 10
563.663530904156
 20
-116.6413600246489
 30
0.0
 40
1.0
 50
90.0
 51
180.0
  0
ARC
  5
1D6
  8
1
 62
     7
 10
563.663530904156
 20
-119.641360024649
 30
0.0
 40
1.0
 50
180.0
 51
270.0
  0
ARC
  5
1D7
  8
1
 62
     7
 10
582.66353090415589
 20
-116.6413600246489
 30
0.0
 40
1.0
 50
0.0
 51
90.0
  0
ARC
  5
1D8
  8
1
 62
     7
 10
582.66353090415589
 20
-119.641360024649
 30
0.0
 40
1.0
 50
270.0
 51
0.0
  0
ARC
  5
1D9
  8
1
 62
     7
 10
563.663530904156
 20
-124.6413600246489
 30
0.0
 40
1.0
 50
90.0
 51
180.0
  0
ARC
  5
1DA
  8
1
 62
     7
 10
563.663530904156
 20
-127.6413600246489
 30
0.0
 40
1.0
 50
180.0
 51
270.0
  0
ARC
  5
1DB
  8
1
 62
     7
 10
582.66353090415589
 20
-124.6413600246489
 30
0.0
 40
1.0
 50
0.0
 51
90.0
  0
ARC
  5
1DC
  8
1
 62
     7
 10
582.66353090415589
 20
-127.6413600246489
 30
0.0
 40
1.0
 50
270.0
 51
0.0
  0
ARC
  5
1DD
  8
1
  6
CENTER
 62
     3
 10
593.663530904156
 20
32.276372180986073
 30
0.0
 40
5.0000000000002487
 50
90.0
 51
156.42182152179811
  0
ARC
  5
1DE
  8
1
 62
     7
 10
591.66353090415589
 20
25.276372180986311
 30
0.0
 40
1.0
 50
180.0
 51
270.0
  0
ARC
  5
1DF
  8
1
  6
CENTER
 62
     3
 10
593.663530904156
 20
-47.723627819013423
 30
0.0
 40
4.9999999999999947
 50
203.57817847820181
 51
270.0
  0
ARC
  5
1E0
  8
1
  6
CENTER
 62
     3
 10
598.163530904156
 20
-46.72362781901365
 30
0.0
 40
3.2500000000000262
 50
15.94145804636465
 51
180.0
  0
ARC
  5
1E1
  8
1
  6
CENTER
 62
     3
 10
598.163530904156
 20
-46.72362781901365
 30
0.0
 40
3.25
 50
180.0
 51
4.3078852644302801
  0
ARC
  5
1E2
  8
1
 62
     7
 10
631.76353090415603
 20
-40.723627819013672
 30
0.0
 40
30.899999999999981
 50
180.0
 51
210.00000000000031
  0
ARC
  5
1E3
  8
1
 62
     7
 10
631.76353090415603
 20
-40.723627819013672
 30
0.0
 40
29.100000000000009
 50
180.0
 51
209.99999999999989
  0
ARC
  5
1E4
  8
1
 62
     7
 10
618.56353090415598
 20
-40.723627819013672
 30
0.0
 40
15.900000000000089
 50
180.0
 51
241.36235920854679
  0
ARC
  5
1E5
  8
1
 62
     7
 10
618.56353090415598
 20
-40.723627819013672
 30
0.0
 40
14.10000000000014
 50
180.0
 51
241.36235920854631
  0
ARC
  5
1E6
  8
1
 62
     7
 10
591.66353090415623
 20
-40.723627819013672
 30
0.0
 40
1.0
 50
90.0
 51
180.0
  0
ARC
  5
1E7
  8
1
  6
CENTER
 62
     3
 10
543.663530904156
 20
32.276372180986321
 30
0.0
 40
5.0
 50
90.0
 51
180.0
  0
ARC
  5
1E8
  8
1
  6
CENTER
 62
     3
 10
543.663530904156
 20
-47.72362781901365
 30
0.0
 40
5.0000000000000506
 50
262.99725398773597
 51
270.0
  0
ARC
  5
1E9
  8
1
  6
CENTER
 62
     3
 10
543.663530904156
 20
-47.72362781901365
 30
0.0
 40
5.0
 50
180.0
 51
198.7798259191533
  0
ARC
  5
1EA
  8
1
  6
CENTER
 62
     3
 10
543.663530904156
 20
-47.72362781901365
 30
0.0
 40
4.9999999999999512
 50
221.02723004743581
 51
242.160064454706
  0
ARC
  5
1EB
  8
1
 62
     7
 10
737.77180960185217
 20
-147.269858936437
 30
0.0
 40
1.7999999999999541
 50
0.0
 51
46.186938539597882
  0
ARC
  5
1EC
  8
1
 62
     7
 10
740.87180960185231
 20
-148.50522948304541
 30
0.0
 40
1.3000000000000671
 50
180.0
 51
270.0
  0
ARC
  5
1ED
  8
1
 62
     7
 10
745.47180960185199
 20
-148.50522948304541
 30
0.0
 40
1.299999999999897
 50
270.0
 51
0.0
  0
ARC
  5
1EE
  8
1
 62
     7
 10
748.57180960185212
 20
-147.269858936437
 30
0.0
 40
1.799999999999949
 50
133.813061460402
 51
180.0
  0
ARC
  5
1EF
  8
1
 62
     7
 10
528.66353090415589
 20
-21.98903701562352
 30
0.0
 40
2.0
 50
180.0
 51
261.86989764584541
  0
ARC
  5
1F0
  8
1
 62
     7
 10
528.66353090415589
 20
6.5417813775961937
 30
0.0
 40
2.0000000000000031
 50
98.130102354154701
 51
180.0
  0
ARC
  5
1F1
  8
1
 62
     7
 10
534.663530904156
 20
22.276372180986328
 30
0.0
 40
1.0
 50
90.0
 51
180.0
  0
ARC
  5
1F2
  8
1
 62
     7
 10
534.663530904156
 20
-37.723627819013672
 30
0.0
 40
1.0
 50
180.0
 51
270.0
  0
ARC
  5
1F3
  8
1
 62
     7
 10
617.663530904156
 20
-21.98903701562352
 30
0.0
 40
2.0000000000000391
 50
278.13010235415459
 51
0.0
  0
ARC
  5
1F4
  8
1
 62
     7
 10
617.663530904156
 20
6.5417813775961937
 30
0.0
 40
2.0
 50
0.0
 51
81.869897645845285
  0
ARC
  5
1F5
  8
1
 62
     7
 10
528.66353090415612
 20
-156.40676922125891
 30
0.0
 40
2.0
 50
180.0
 51
261.86989764584513
  0
ARC
  5
1F6
  8
1
 62
     7
 10
528.66353090415612
 20
-127.875950828039
 30
0.0
 40
1.9999999999999609
 50
98.130102354154886
 51
180.0
  0
ARC
  5
1F7
  8
1
 62
     7
 10
534.66353090415612
 20
-112.1413600246489
 30
0.0
 40
1.0
 50
90.0
 51
180.0
  0
ARC
  5
1F8
  8
1
 62
     7
 10
534.66353090415612
 20
-172.141360024649
 30
0.0
 40
1.0
 50
180.0
 51
270.0
  0
ARC
  5
1F9
  8
1
 62
     7
 10
617.663530904156
 20
-156.40676922125891
 30
0.0
 40
1.999999999999948
 50
278.13010235415481
 51
0.0
  0
ARC
  5
1FA
  8
1
 62
     7
 10
617.663530904156
 20
-127.875950828039
 30
0.0
 40
2.0
 50
0.0
 51
81.869897645845128
  0
ARC
  5
1FB
  8
1
 62
     7
 10
611.66353090415589
 20
-112.1413600246489
 30
0.0
 40
1.0
 50
0.0
 51
90.0
  0
ARC
  5
1FC
  8
1
 62
     7
 10
611.66353090415589
 20
-172.141360024649
 30
0.0
 40
1.0
 50
270.0
 51
0.0
  0
ARC
  5
1FD
  8
1
 62
     7
 10
557.66353090415589
 20
32.276372180986073
 30
0.0
 40
2.0000000000000142
 50
90.0
 51
180.0
  0
ARC
  5
1FE
  8
1
 62
     7
 10
557.66353090415589
 20
-47.723627819013423
 30
0.0
 40
2.0
 50
180.0
 51
270.0
  0
ARC
  5
1FF
  8
1
 62
     7
 10
770.17180960185215
 20
-169.141360024649
 30
0.0
 40
5.0
 50
270.0
 51
0.0
  0
ARC
  5
200
  8
1
 62
     7
 10
716.17180960185215
 20
-169.141360024649
 30
0.0
 40
5.0
 50
180.0
 51
270.0
  0
ARC
  5
201
  8
1
 62
     7
 10
716.17180960185215
 20
-115.1413600246489
 30
0.0
 40
5.0
 50
90.0
 51
180.0
  0
ARC
  5
202
  8
1
 62
     7
 10
770.17180960185215
 20
-115.1413600246489
 30
0.0
 40
5.0
 50
0.0
 51
90.0
  0
ARC
  5
203
  8
1
  6
CENTER
 62
     3
 10
602.663530904156
 20
32.276372180986321
 30
0.0
 40
5.0
 50
0.0
 51
90.0
  0
ARC
  5
204
  8
1
 62
     7
 10
611.66353090415589
 20
22.276372180986328
 30
0.0
 40
1.0
 50
0.0
 51
90.0
  0
ARC
  5
205
  8
1
 62
     7
 10
588.663530904156
 20
32.276372180986073
 30
0.0
 40
2.0
 50
0.0
 51
90.0
  0
ARC
  5
206
  8
1
  6
CENTER
 62
     3
 10
602.663530904156
 20
-47.72362781901365
 30
0.0
 40
5.0
 50
270.0
 51
277.00274601226403
  0
ARC
  5
207
  8
1
  6
CENTER
 62
     3
 10
602.663530904156
 20
-47.72362781901365
 30
0.0
 40
5.0000000000000009
 50
341.22017408084662
 51
0.0
  0
ARC
  5
208
  8
1
  6
CENTER
 62
     3
 10
602.663530904156
 20
-47.72362781901365
 30
0.0
 40
5.0000000000000551
 50
297.83993554529332
 51
318.97276995256459
  0
ARC
  5
209
  8
1
 62
     7
 10
611.66353090415589
 20
-37.723627819013672
 30
0.0
 40
1.0
 50
270.0
 51
0.0
  0
ARC
  5
20A
  8
1
 62
     7
 10
588.663530904156
 20
-47.723627819013423
 30
0.0
 40
2.0
 50
270.0
 51
0.0
  0
CIRCLE
  5
20B
  8
1
  6
DASHED
 62
     3
 10
548.163530904156
 20
-27.723627819013672
 30
0.0
 40
3.0
  0
CIRCLE
  5
20C
  8
1
  6
DASHED
 62
     7
 10
548.163530904156
 20
-27.723627819013672
 30
0.0
 40
2.3999999999999768
  0
CIRCLE
  5
20D
  8
1
  6
DASHED
 62
     3
 10
548.163530904156
 20
12.27637218098633
 30
0.0
 40
3.0
  0
CIRCLE
  5
20E
  8
1
  6
DASHED
 62
     7
 10
548.163530904156
 20
12.27637218098633
 30
0.0
 40
2.3999999999999768
  0
CIRCLE
  5
20F
  8
1
  6
DASHED
 62
     3
 10
598.163530904156
 20
-27.723627819013672
 30
0.0
 40
3.0
  0
CIRCLE
  5
210
  8
1
  6
DASHED
 62
     7
 10
598.163530904156
 20
-27.723627819013672
 30
0.0
 40
2.3999999999999768
  0
CIRCLE
  5
211
  8
1
  6
DASHED
 62
     3
 10
598.163530904156
 20
12.27637218098633
 30
0.0
 40
3.0
  0
CIRCLE
  5
212
  8
1
  6
DASHED
 62
     7
 10
598.163530904156
 20
12.27637218098633
 30
0.0
 40
2.3999999999999768
  0
CIRCLE
  5
213
  8
1
  6
CENTER
 62
     3
 10
548.163530904156
 20
31.276372180986321
 30
0.0
 40
3.25
  0
CIRCLE
  5
214
  8
1
 62
     7
 10
603.5635309041561
 20
-142.141360024649
 30
0.0
 40
0.8999999999999772
  0
CIRCLE
  5
215
  8
1
 62
     7
 10
601.76353090415614
 20
-142.141360024649
 30
0.0
 40
0.900000000000091
  0
CIRCLE
  5
216
  8
1
 62
     7
 10
602.66353090415623
 20
-142.141360024649
 30
0.0
 40
3.4999999999998859
  0
CIRCLE
  5
217
  8
1
 62
     7
 10
544.56353090415587
 20
-142.141360024649
 30
0.0
 40
0.8999999999999772
  0
CIRCLE
  5
218
  8
1
 62
     7
 10
542.76353090415603
 20
-142.141360024649
 30
0.0
 40
0.900000000000091
  0
CIRCLE
  5
219
  8
1
 62
     7
 10
543.66353090415612
 20
-142.141360024649
 30
0.0
 40
3.4999999999998859
  0
CIRCLE
  5
21A
  8
1
 62
     7
 10
743.17180960185215
 20
-142.141360024649
 30
0.0
 40
12.75
  0
CIRCLE
  5
21B
  8
1
 62
     7
 10
741.26337232800256
 20
-148.52461914516309
 30
0.0
 40
0.7999999999999546
  0
CIRCLE
  5
21C
  8
1
 62
     7
 10
745.08024687570173
 20
-148.52461914516309
 30
0.0
 40
0.7999999999999546
  0
CIRCLE
  5
21D
  8
1
 62
     7
 10
764.17180960185215
 20
-142.14136002464889
 30
0.0
 40
2.3999999999999768
  0
CIRCLE
  5
21E
  8
1
 62
     7
 10
743.17180960185215
 20
-163.141360024649
 30
0.0
 40
2.3999999999999768
  0
CIRCLE
  5
21F
  8
1
 62
     7
 10
722.17180960185215
 20
-142.141360024649
 30
0.0
 40
2.3999999999999768
  0
CIRCLE
  5
220
  8
1
 62
     7
 10
743.17180960185215
 20
-121.1413600246489
 30
0.0
 40
2.3999999999999768
  0
CIRCLE
  5
221
  8
1
 62
     7
 10
743.17180960185215
 20
-142.141360024649
 30
0.0
 40
17.0
  0
CIRCLE
  5
222
  8
1
 62
     7
 10
743.17180960185215
 20
-142.141360024649
 30
0.0
 40
16.0
  0
CIRCLE
  5
223
  8
1
 62
     7
 10
767.92054694338105
 20
-117.3926226831198
 30
0.0
 40
4.0
  0
CIRCLE
  5
224
  8
1
 62
     7
 10
718.4230722603229
 20
-117.3926226831199
 30
0.0
 40
4.0
  0
CIRCLE
  5
225
  8
1
 62
     7
 10
718.42307226032301
 20
-166.89009736617811
 30
0.0
 40
4.0
  0
CIRCLE
  5
226
  8
1
 62
     7
 10
767.92054694338105
 20
-166.890097366178
 30
0.0
 40
4.0
  0
CIRCLE
  5
227
  8
1
  6
CENTER
 62
     3
 10
598.163530904156
 20
31.276372180986321
 30
0.0
 40
3.25
  0
TEXT
  5
228
  8
1
 62
     3
 10
717.67180960185226
 20
-179.141360024649
 30
0.0
 40
4.0
  1
INPUT
 41
0.8732691000000002
  7
COMPLEX
  0
TEXT
  5
229
  8
1
 62
     7
 10
565.90488534786698
 20
-81.076566763624015
 30
0.0
 40
3.5
  1
MP 20
 41
0.9
  7
SIMPLEX
  0
ENDSEC
  0
EOF
