  0
SECTION
  2
HEADER
  9
$ACADVER
  1
AC1009
  9
$INSBASE
 10
0.0
 20
0.0
 30
0.0
  9
$EXTMIN
 10
-177.88623648704811
 20
-52.087486855941087
 30
0.0
  9
$EXTMAX
 10
169.41417988600401
 20
216.43958163384571
 30
0.0
  9
$LIMMIN
 10
-177.88623648704811
 20
-52.087486855941087
  9
$LIMMAX
 10
169.41417988600401
 20
215.404047727913
  9
$ORTHOMODE
 70
     0
  9
$REGENMODE
 70
     1
  9
$FILLMODE
 70
     1
  9
$QTEXTMODE
 70
     0
  9
$MIRRTEXT
 70
     1
  9
$DRAGMODE
 70
     2
  9
$LTSCALE
 40
1.0
  9
$OSMODE
 70
    37
  9
$ATTMODE
 70
     1
  9
$TEXTSIZE
 40
3.5
  9
$TRACEWID
 40
0.5
  9
$TEXTSTYLE
  7
STANDARD
  9
$CLAYER
  8
0
  9
$CELTYPE
  6
BYLAYER
  9
$CECOLOR
 62
   256
  9
$DIMSCALE
 40
1.0
  9
$DIMASZ
 40
0.18
  9
$DIMEXO
 40
0.0625
  9
$DIMDLI
 40
0.38
  9
$DIMRND
 40
0.0
  9
$DIMDLE
 40
0.0
  9
$DIMEXE
 40
0.18
  9
$DIMTP
 40
0.0
  9
$DIMTM
 40
0.0
  9
$DIMTXT
 40
0.18
  9
$DIMCEN
 40
0.09
  9
$DIMTSZ
 40
0.0
  9
$DIMTOL
 70
     0
  9
$DIMLIM
 70
     0
  9
$DIMTIH
 70
     1
  9
$DIMTOH
 70
     1
  9
$DIMSE1
 70
     0
  9
$DIMSE2
 70
     0
  9
$DIMTAD
 70
     0
  9
$DIMZIN
 70
     0
  9
$DIMBLK
  1

  9
$DIMASO
 70
     1
  9
$DIMSHO
 70
     1
  9
$DIMPOST
  1

  9
$DIMAPOST
  1

  9
$DIMALT
 70
     0
  9
$DIMALTD
 70
     2
  9
$DIMALTF
 40
25.399999999999999
  9
$DIMLFAC
 40
1.0
  9
$DIMTOFL
 70
     0
  9
$DIMTVP
 40
0.0
  9
$DIMTIX
 70
     0
  9
$DIMSOXD
 70
     0
  9
$DIMSAH
 70
     0
  9
$DIMBLK1
  1

  9
$DIMBLK2
  1

  9
$DIMSTYLE
  2
STANDARD
  9
$DIMCLRD
 70
     0
  9
$DIMCLRE
 70
     0
  9
$DIMCLRT
 70
     0
  9
$DIMTFAC
 40
1.0
  9
$DIMGAP
 40
0.09
  9
$LUNITS
 70
     2
  9
$LUPREC
 70
     4
  9
$SKETCHINC
 40
0.1
  9
$FILLETRAD
 40
2.0
  9
$AUNITS
 70
     0
  9
$AUPREC
 70
     0
  9
$MENU
  1
ACAD
  9
$ELEVATION
 40
0.0
  9
$PELEVATION
 40
0.0
  9
$THICKNESS
 40
0.0
  9
$LIMCHECK
 70
     0
  9
$BLIPMODE
 70
     0
  9
$CHAMFERA
 40
0.0
  9
$CHAMFERB
 40
0.0
  9
$SKPOLY
 70
     0
  9
$TDCREATE
 40
2452094.9160281252
  9
$TDUPDATE
 40
2452094.916824074
  9
$TDINDWG
 40
0.0008270833
  9
$TDUSRTIMER
 40
0.0008270833
  9
$USRTIMER
 70
     1
  9
$ANGBASE
 50
0.0
  9
$ANGDIR
 70
     0
  9
$PDMODE
 70
     0
  9
$PDSIZE
 40
0.0
  9
$PLINEWID
 40
0.0
  9
$COORDS
 70
     1
  9
$SPLFRAME
 70
     0
  9
$SPLINETYPE
 70
     6
  9
$SPLINESEGS
 70
     8
  9
$ATTDIA
 70
     0
  9
$ATTREQ
 70
     1
  9
$HANDLING
 70
 10241
  9
$HANDSEED
  5
233
  9
$SURFTAB1
 70
     6
  9
$SURFTAB2
 70
     6
  9
$SURFTYPE
 70
     6
  9
$SURFU
 70
     6
  9
$SURFV
 70
     6
  9
$UCSNAME
  2

  9
$UCSORG
 10
0.0
 20
0.0
 30
0.0
  9
$UCSXDIR
 10
1.0
 20
0.0
 30
0.0
  9
$UCSYDIR
 10
0.0
 20
1.0
 30
0.0
  9
$PUCSNAME
  2

  9
$PUCSORG
 10
0.0
 20
0.0
 30
0.0
  9
$PUCSXDIR
 10
1.0
 20
0.0
 30
0.0
  9
$PUCSYDIR
 10
0.0
 20
1.0
 30
0.0
  9
$USERI1
 70
     0
  9
$USERI2
 70
     0
  9
$USERI3
 70
     0
  9
$USERI4
 70
     0
  9
$USERI5
 70
     0
  9
$USERR1
 40
0.0
  9
$USERR2
 40
0.0
  9
$USERR3
 40
0.0
  9
$USERR4
 40
0.0
  9
$USERR5
 40
0.0
  9
$WORLDVIEW
 70
     1
  9
$SHADEDGE
 70
     3
  9
$SHADEDIF
 70
    70
  9
$TILEMODE
 70
     1
  9
$MAXACTVP
 70
    64
  9
$PLIMCHECK
 70
     0
  9
$PEXTMIN
 10
1.0000000000000000E+020
 20
1.0000000000000000E+020
 30
1.0000000000000000E+020
  9
$PEXTMAX
 10
-1.0000000000000000E+020
 20
-1.0000000000000000E+020
 30
-1.0000000000000000E+020
  9
$PLIMMIN
 10
0.0
 20
0.0
  9
$PLIMMAX
 10
12.0
 20
9.0
  9
$UNITMODE
 70
     0
  9
$VISRETAIN
 70
     1
  9
$PLINEGEN
 70
     0
  9
$PSLTSCALE
 70
     1
  0
ENDSEC
  0
SECTION
  2
TABLES
  0
TABLE
  2
VPORT
 70
     2
  0
VPORT
  2
*ACTIVE
 70
     0
 10
0.0
 20
0.0
 11
1.0
 21
1.0
 12
-88.294998939955008
 22
72.514990800237683
 13
0.0
 23
0.0
 14
1.0
 24
1.0
 15
0.0
 25
0.0
 16
0.0
 26
0.0
 36
1.0
 17
0.0
 27
0.0
 37
0.0
 40
9.0000002736630904
 41
2.4144144144144142
 42
50.0
 43
0.0
 44
0.0
 50
0.0
 51
0.0
 71
     0
 72
   100
 73
     1
 74
     1
 75
     0
 76
     0
 77
     0
 78
     0
  0
ENDTAB
  0
TABLE
  2
LTYPE
 70
     9
  0
LTYPE
  2
CONTINUOUS
 70
     0
  3
Solid line
 72
    65
 73
     0
 40
0.0
  0
LTYPE
  2
BORDER
 70
     0
  3
__ __ . __ __ .
 72
    65
 73
     6
 40
15.9940981224432
 49
4.5697423206980572
 49
-2.2848711603490282
 49
4.5697423206980572
 49
-2.2848711603490282
 49
0.0
 49
-2.2848711603490282
  0
LTYPE
  2
CENTER
 70
     0
  3
____ _ ____ _
 72
    65
 73
     4
 40
18.278969282792229
 49
11.42435580174514
 49
-2.2848711603490282
 49
2.2848711603490282
 49
-2.2848711603490282
  0
LTYPE
  2
DASHDOT
 70
     0
  3
__ . __ . __ .
 72
    65
 73
     4
 40
9.1394846413961144
 49
4.5697423206980572
 49
-2.2848711603490282
 49
0.0
 49
-2.2848711603490282
  0
LTYPE
  2
DASHED
 70
     0
  3
__ __ __ __ __
 72
    65
 73
     2
 40
6.8546134810470853
 49
4.5697423206980572
 49
-2.2848711603490282
  0
LTYPE
  2
DIVIDE
 70
     0
  3
__ . . __ . . 
 72
    65
 73
     6
 40
11.42435580174514
 49
4.5697423206980572
 49
-2.2848711603490282
 49
0.0
 49
-2.2848711603490282
 49
0.0
 49
-2.2848711603490282
  0
LTYPE
  2
DOT
 70
     0
  3
..............
 72
    65
 73
     4
 40
4.5697423206980572
 49
0.0
 49
-2.2848711603490282
 49
0.0
 49
-2.2848711603490282
  0
LTYPE
  2
HIDDEN
 70
     0
  3
_ _ _ _ _ _ _
 72
    65
 73
     2
 40
3.4273067405235418
 49
2.2848711603490282
 49
-1.1424355801745141
  0
LTYPE
  2
PHANTOM
 70
     0
  3
_____ _ _ _____ _ _ 
 72
    65
 73
     6
 40
22.84871160349028
 49
11.42435580174514
 49
-2.2848711603490282
 49
2.2848711603490282
 49
-2.2848711603490282
 49
2.2848711603490282
 49
-2.2848711603490282
  0
ENDTAB
  0
TABLE
  2
LAYER
 70
     2
  0
LAYER
  2
0
 70
     0
 62
     7
  6
CONTINUOUS
  0
LAYER
  2
1
 70
     0
 62
     7
  6
CONTINUOUS
  0
ENDTAB
  0
TABLE
  2
STYLE
 70
     4
  0
STYLE
  2
STANDARD
 70
     0
 40
0.0
 41
1.0
 50
0.0
 71
     0
 42
3.5
  3
txt
  4

  0
STYLE
  2
SIMPLEX
 70
     0
 40
0.0
 41
1.0
 50
0.0
 71
     0
 42
3.5
  3
simplex
  4

  0
STYLE
  2
COMPLEX
 70
     0
 40
0.0
 41
1.0
 50
0.0
 71
     0
 42
3.5
  3
complex
  4

  0
STYLE
  2
ITALIC
 70
     0
 40
0.0
 41
1.0
 50
0.0
 71
     0
 42
3.5
  3
italic
  4

  0
ENDTAB
  0
TABLE
  2
VIEW
 70
     0
  0
ENDTAB
  0
TABLE
  2
UCS
 70
     0
  0
ENDTAB
  0
TABLE
  2
APPID
 70
     1
  0
APPID
  2
ACAD
 70
     0
  0
ENDTAB
  0
TABLE
  2
DIMSTYLE
 70
     1
  0
DIMSTYLE
  2
STANDARD
 70
     0
  3

  4

  5

  6

  7

 40
1.0
 41
0.18
 42
0.0625
 43
0.38
 44
0.18
 45
0.0
 46
0.0
 47
0.0
 48
0.0
140
0.18
141
0.09
142
0.0
143
25.399999999999999
144
1.0
145
0.0
146
1.0
147
0.09
 71
     0
 72
     0
 73
     1
 74
     1
 75
     0
 76
     0
 77
     0
 78
     0
170
     0
171
     2
172
     0
173
     0
174
     0
175
     0
176
     0
177
     0
178
     0
  0
ENDTAB
  0
ENDSEC
  0
SECTION
  2
BLOCKS
  0
BLOCK
  8
0
  2
$MODEL_SPACE
 70
     0
 10
0.0
 20
0.0
 30
0.0
  3
$MODEL_SPACE
  1

  0
ENDBLK
  5
20
  8
0
  0
BLOCK
 67
     1
  8
0
  2
$PAPER_SPACE
 70
     0
 10
0.0
 20
0.0
 30
0.0
  3
$PAPER_SPACE
  1

  0
ENDBLK
  5
1C
 67
     1
  8
0
  0
ENDSEC
  0
SECTION
  2
ENTITIES
  0
LINE
  5
33
  8
1
 62
     3
 10
-125.005474373515
 20
109.4040477279131
 30
0.0
 11
-126.505474373515
 21
106.80597151655989
 31
0.0
  0
LINE
  5
34
  8
1
 62
     3
 10
-125.39518580521801
 20
109.6290477279129
 30
0.0
 11
-126.89518580521791
 21
107.0309715165597
 31
0.0
  0
LINE
  5
35
  8
1
 62
     3
 10
-126.11576294181189
 20
106.5809715165596
 30
0.0
 11
-124.61576294181199
 21
109.179047727913
 31
0.0
  0
LINE
  5
36
  8
1
 62
     7
 10
-125.784897236921
 20
109.8540477279132
 30
0.0
 11
-124.226051510109
 21
108.95404772791289
 31
0.0
  0
LINE
  5
37
  8
1
 62
     3
 10
-132.930213148533
 20
109.8012174769342
 30
0.0
 11
-130.5972082286724
 21
111.2390231286092
 31
0.0
  0
LINE
  5
38
  8
1
 62
     3
 10
-130.38153738092109
 20
110.84407239063
 30
0.0
 11
-132.7145423007818
 21
109.4062667389549
 31
0.0
  0
LINE
  5
39
  8
1
 62
     3
 10
-133.14588399628431
 20
110.1961682149132
 30
0.0
 11
-130.81287907642371
 21
111.63397386658821
 31
0.0
  0
LINE
  5
3A
  8
1
 62
     7
 10
-130.1658665331698
 20
110.4491216526511
 30
0.0
 11
-131.02854992417491
 21
112.02892460456739
 31
0.0
  0
LINE
  5
3B
  8
1
 62
     3
 10
-49.266998600581388
 20
106.80597151655989
 30
0.0
 11
-50.766998600581388
 21
109.4040477279131
 31
0.0
  0
LINE
  5
3C
  8
1
 62
     3
 10
-45.175264745423988
 20
111.2390231286092
 30
0.0
 11
-42.542259825563278
 21
109.8012174769342
 31
0.0
  0
LINE
  5
3D
  8
1
 62
     3
 10
65.249155286700244
 20
-1.698458597565347
 30
0.0
 11
63.811349635025039
 21
-4.3314635174261564
 31
0.0
  0
LINE
  5
3E
  8
1
 62
     7
 10
66.039056762658504
 20
-2.1298002930678588
 30
0.0
 11
64.459253810741984
 21
-1.267116902062781
 31
0.0
  0
LINE
  5
3F
  8
1
 62
     3
 10
63.416398897046001
 20
-4.1157926696748461
 30
0.0
 11
64.8542045487211
 21
-1.48278774981409
 31
0.0
  0
LINE
  5
40
  8
1
 62
     3
 10
65.644106024679388
 20
-1.9141294453166
 30
0.0
 11
64.206300373004183
 21
-4.5471343651774108
 31
0.0
  0
LINE
  5
41
  8
1
 62
     3
 10
60.816103674650783
 20
0.5932752575920423
 30
0.0
 11
63.414179886004092
 21
2.0932752575920421
 31
0.0
  0
LINE
  5
42
  8
1
 62
     7
 10
62.964179886004104
 20
2.8726981209980802
 30
0.0
 11
63.864179886004067
 21
1.3138523941861131
 31
0.0
  0
LINE
  5
43
  8
1
 62
     3
 10
61.041103674650792
 20
0.20356382588907
 30
0.0
 11
63.639179886004108
 21
1.7035638258890691
 31
0.0
  0
LINE
  5
44
  8
1
 62
     3
 10
63.189179886004069
 20
2.482986689295076
 30
0.0
 11
60.59110367465081
 21
0.9829866892950196
 31
0.0
  0
LINE
  5
45
  8
1
 62
     3
 10
63.414179886004092
 20
10.131751030525781
 30
0.0
 11
60.816103674650783
 21
11.631751030525781
 31
0.0
  0
LINE
  5
46
  8
1
 62
     3
 10
63.811349635025039
 20
16.556489805543968
 30
0.0
 11
65.249155286700244
 21
13.92348488568317
 31
0.0
  0
LINE
  5
47
  8
1
 62
     7
 10
78.414179886004092
 20
7.5571278762290079
 30
0.0
 11
75.216048810484708
 21
7.3799985300562634
 31
0.0
  0
LINE
  5
48
  8
1
 62
     7
 10
-125.38623648704819
 20
124.404047727913
 30
0.0
 11
-118.38623648704819
 21
124.404047727913
 31
0.0
  0
LINE
  5
49
  8
1
 62
     7
 10
-125.38623648704819
 20
124.404047727913
 30
0.0
 11
-125.38623648704819
 21
125.404047727913
 31
0.0
  0
LINE
  5
4A
  8
1
 62
     7
 10
-118.38623648704819
 20
125.404047727913
 30
0.0
 11
-118.38623648704819
 21
124.404047727913
 31
0.0
  0
LINE
  5
4B
  8
1
  6
DASHDOT
 62
     3
 10
-117.88623648704819
 20
123.5466927631162
 30
0.0
 11
-117.88623648704819
 21
111.26140269270969
 31
0.0
  0
LINE
  5
4C
  8
1
  6
DASHDOT
 62
     3
 10
-111.74359145184501
 20
117.4040477279129
 30
0.0
 11
-124.0288815222514
 21
117.4040477279129
 31
0.0
  0
LINE
  5
4D
  8
1
  6
CENTER
 62
     3
 10
-107.88623648704819
 20
114.4040477279129
 30
0.0
 11
-107.88623648704819
 21
115.4040477279129
 31
0.0
  0
LINE
  5
4E
  8
1
  6
CENTER
 62
     3
 10
-122.88623648704819
 20
109.4040477279129
 30
0.0
 11
-112.88623648704819
 21
109.4040477279129
 31
0.0
  0
LINE
  5
4F
  8
1
  6
CENTER
 62
     3
 10
-127.88623648704819
 20
125.404047727913
 30
0.0
 11
-127.88623648704819
 21
114.4040477279129
 31
0.0
  0
LINE
  5
50
  8
1
 62
     7
 10
-108.88623648704819
 20
124.404047727913
 30
0.0
 11
-108.88623648704819
 21
116.4040477279129
 31
0.0
  0
LINE
  5
51
  8
1
 62
     7
 10
-120.68623648704821
 20
4.91251314405892
 30
0.0
 11
-123.0862364870482
 21
4.91251314405892
 31
0.0
  0
LINE
  5
52
  8
1
 62
     7
 10
-123.0862364870482
 20
7.3125131440588973
 30
0.0
 11
-120.68623648704821
 21
7.3125131440588973
 31
0.0
  0
LINE
  5
53
  8
1
 62
     7
 10
-128.88623648704819
 20
3.1125131440589011
 30
0.0
 11
-123.68901212478021
 21
3.1125131440589011
 31
0.0
  0
LINE
  5
54
  8
1
 62
     7
 10
-127.18623648704821
 20
3.1125131440589011
 30
0.0
 11
-127.18623648704821
 21
9.1125131440589016
 31
0.0
  0
LINE
  5
55
  8
1
 62
     7
 10
-123.68901212478021
 20
9.1125131440589016
 30
0.0
 11
-128.88623648704819
 21
9.1125131440589016
 31
0.0
  0
LINE
  5
56
  8
1
 62
     7
 10
-52.686236487048248
 20
4.91251314405892
 30
0.0
 11
-55.086236487048247
 21
4.91251314405892
 31
0.0
  0
LINE
  5
57
  8
1
 62
     7
 10
-55.086236487048247
 20
7.3125131440588973
 30
0.0
 11
-52.686236487048248
 21
7.3125131440588973
 31
0.0
  0
LINE
  5
58
  8
1
 62
     7
 10
-52.083460849316097
 20
3.1125131440589011
 30
0.0
 11
-46.88623648704818
 21
3.1125131440589011
 31
0.0
  0
LINE
  5
59
  8
1
 62
     7
 10
78.414179886004092
 20
9.6125131440589087
 30
0.0
 11
79.414179886004092
 21
9.6125131440589087
 31
0.0
  0
LINE
  5
5A
  8
1
 62
     7
 10
78.414179886004092
 20
2.6125131440589091
 30
0.0
 11
78.414179886004092
 21
9.6125131440589087
 31
0.0
  0
LINE
  5
5B
  8
1
 62
     7
 10
79.414179886004092
 20
2.6125131440589091
 30
0.0
 11
78.414179886004092
 21
2.6125131440589091
 31
0.0
  0
LINE
  5
5C
  8
1
 62
     7
 10
63.864179886004067
 20
10.91117389393176
 30
0.0
 11
62.964179886004104
 21
9.3523281671197935
 31
0.0
  0
LINE
  5
5D
  8
1
 62
     7
 10
64.459253810741984
 20
13.49214319018059
 30
0.0
 11
66.039056762658504
 21
14.35482658118573
 31
0.0
  0
LINE
  5
5E
  8
1
 62
     3
 10
64.8542045487211
 20
13.7078140379319
 30
0.0
 11
63.416398897046001
 21
16.340818957792649
 31
0.0
  0
LINE
  5
5F
  8
1
 62
     3
 10
64.206300373004183
 20
16.772160653295231
 30
0.0
 11
65.644106024679388
 21
14.13915573343442
 31
0.0
  0
LINE
  5
60
  8
1
 62
     3
 10
63.639179886004108
 20
10.521462462228749
 30
0.0
 11
61.041103674650792
 21
12.021462462228749
 31
0.0
  0
LINE
  5
61
  8
1
 62
     3
 10
60.59110367465081
 20
11.242039598822799
 30
0.0
 11
63.189179886004069
 21
9.7420395988227444
 31
0.0
  0
LINE
  5
62
  8
1
 62
     7
 10
75.216048810484509
 20
4.8450277580615486
 30
0.0
 11
78.414179886004092
 21
4.6678984118887934
 31
0.0
  0
LINE
  5
63
  8
1
  6
DASHDOT
 62
     3
 10
-170.88623648704811
 20
162.40404772791291
 30
0.0
 11
-177.88623648704811
 21
162.40404772791291
 31
0.0
  0
LINE
  5
64
  8
1
  6
DASHDOT
 62
     3
 10
-4.8862364870481994
 20
162.40404772791291
 30
0.0
 11
2.1137635129517989
 21
162.40404772791291
 31
0.0
  0
LINE
  5
65
  8
1
  6
DASHDOT
 62
     3
 10
-170.88623648704811
 20
6.1125131440589016
 30
0.0
 11
-177.88623648704811
 21
6.1125131440589016
 31
0.0
  0
LINE
  5
66
  8
1
  6
DASHDOT
 62
     3
 10
-4.8862364870481994
 20
6.1125131440589016
 30
0.0
 11
2.1137635129517989
 21
6.1125131440589016
 31
0.0
  0
LINE
  5
67
  8
1
 62
     7
 10
-170.88623648704811
 20
160.40404772791291
 30
0.0
 11
-152.88623648704811
 21
160.40404772791291
 31
0.0
  0
LINE
  5
68
  8
1
 62
     7
 10
-152.88623648704811
 20
164.40404772791291
 30
0.0
 11
-170.88623648704811
 21
164.40404772791291
 31
0.0
  0
LINE
  5
69
  8
1
 62
     7
 10
-170.38623648704819
 20
156.404047727913
 30
0.0
 11
-170.38623648704819
 21
160.40404772791291
 31
0.0
  0
LINE
  5
6A
  8
1
 62
     7
 10
-170.88623648704811
 20
156.904047727913
 30
0.0
 11
-170.38623648704819
 21
156.404047727913
 31
0.0
  0
LINE
  5
6B
  8
1
 62
     7
 10
-170.38623648704819
 20
168.40404772791291
 30
0.0
 11
-170.88623648704811
 21
167.904047727913
 31
0.0
  0
LINE
  5
6C
  8
1
 62
     7
 10
-170.38623648704819
 20
164.40404772791291
 30
0.0
 11
-170.38623648704819
 21
168.40404772791291
 31
0.0
  0
LINE
  5
6D
  8
1
 62
     7
 10
-140.88623648704811
 20
156.404047727913
 30
0.0
 11
-170.38623648704819
 21
156.404047727913
 31
0.0
  0
LINE
  5
6E
  8
1
 62
     7
 10
-170.88623648704811
 20
156.904047727913
 30
0.0
 11
-170.88623648704811
 21
167.904047727913
 31
0.0
  0
LINE
  5
6F
  8
1
 62
     7
 10
-170.38623648704819
 20
168.40404772791291
 30
0.0
 11
-140.88623648704811
 21
168.40404772791291
 31
0.0
  0
LINE
  5
70
  8
1
 62
     7
 10
-22.886236487048201
 20
160.40404772791291
 30
0.0
 11
-4.8862364870481994
 21
160.40404772791291
 31
0.0
  0
LINE
  5
71
  8
1
 62
     7
 10
-4.8862364870481994
 20
164.40404772791291
 30
0.0
 11
-22.886236487048201
 21
164.40404772791291
 31
0.0
  0
LINE
  5
72
  8
1
 62
     7
 10
-5.3862364870481994
 20
160.40404772791291
 30
0.0
 11
-5.3862364870481994
 21
156.404047727913
 31
0.0
  0
LINE
  5
73
  8
1
 62
     7
 10
-5.3862364870481994
 20
156.404047727913
 30
0.0
 11
-4.8862364870481994
 21
156.904047727913
 31
0.0
  0
LINE
  5
74
  8
1
 62
     7
 10
-4.8862364870481994
 20
167.904047727913
 30
0.0
 11
-5.3862364870481994
 21
168.40404772791291
 31
0.0
  0
LINE
  5
75
  8
1
 62
     7
 10
-5.3862364870481994
 20
168.40404772791291
 30
0.0
 11
-5.3862364870481994
 21
164.40404772791291
 31
0.0
  0
LINE
  5
76
  8
1
 62
     7
 10
-5.3862364870481994
 20
156.404047727913
 30
0.0
 11
-34.886236487048187
 21
156.404047727913
 31
0.0
  0
LINE
  5
77
  8
1
 62
     7
 10
-4.8862364870481994
 20
167.904047727913
 30
0.0
 11
-4.8862364870481994
 21
156.904047727913
 31
0.0
  0
LINE
  5
78
  8
1
 62
     7
 10
-34.886236487048187
 20
168.40404772791291
 30
0.0
 11
-5.3862364870481994
 21
168.40404772791291
 31
0.0
  0
LINE
  5
79
  8
1
 62
     7
 10
-170.88623648704811
 20
0.6125131440589016
 30
0.0
 11
-170.88623648704811
 21
13.612513144058889
 31
0.0
  0
LINE
  5
7A
  8
1
 62
     7
 10
-170.88623648704811
 20
13.612513144058889
 30
0.0
 11
-150.88623648704811
 21
13.612513144058889
 31
0.0
  0
LINE
  5
7B
  8
1
 62
     7
 10
-150.88623648704811
 20
13.612513144058889
 30
0.0
 11
-150.88623648704811
 21
12.1125131440589
 31
0.0
  0
LINE
  5
7C
  8
1
 62
     7
 10
-170.38623648704819
 20
12.1125131440589
 30
0.0
 11
-170.38623648704819
 21
0.1125131440589016
 31
0.0
  0
LINE
  5
7D
  8
1
 62
     7
 10
-170.88623648704811
 20
0.6125131440589016
 30
0.0
 11
-170.38623648704819
 21
0.1125131440589016
 31
0.0
  0
LINE
  5
7E
  8
1
 62
     7
 10
-170.38623648704819
 20
12.1125131440589
 30
0.0
 11
-170.88623648704811
 21
11.6125131440589
 31
0.0
  0
LINE
  5
7F
  8
1
 62
     7
 10
-140.88623648704811
 20
0.1125131440589016
 30
0.0
 11
-170.38623648704819
 21
0.1125131440589016
 31
0.0
  0
LINE
  5
80
  8
1
 62
     7
 10
-170.38623648704819
 20
12.1125131440589
 30
0.0
 11
-140.88623648704811
 21
12.1125131440589
 31
0.0
  0
LINE
  5
81
  8
1
 62
     7
 10
-4.8862364870481994
 20
13.612513144058889
 30
0.0
 11
-4.8862364870481994
 21
0.6125131440589016
 31
0.0
  0
LINE
  5
82
  8
1
 62
     7
 10
-24.886236487048201
 20
13.612513144058889
 30
0.0
 11
-4.8862364870481994
 21
13.612513144058889
 31
0.0
  0
LINE
  5
83
  8
1
 62
     7
 10
-24.886236487048201
 20
12.1125131440589
 30
0.0
 11
-24.886236487048201
 21
13.612513144058889
 31
0.0
  0
LINE
  5
84
  8
1
 62
     7
 10
-5.3862364870481994
 20
0.1125131440589016
 30
0.0
 11
-5.3862364870481994
 21
12.1125131440589
 31
0.0
  0
LINE
  5
85
  8
1
 62
     7
 10
-5.3862364870481994
 20
0.1125131440589016
 30
0.0
 11
-4.8862364870481994
 21
0.6125131440589016
 31
0.0
  0
LINE
  5
86
  8
1
 62
     7
 10
-4.8862364870481994
 20
11.6125131440589
 30
0.0
 11
-5.3862364870481994
 21
12.1125131440589
 31
0.0
  0
LINE
  5
87
  8
1
 62
     7
 10
-5.3862364870481994
 20
0.1125131440589016
 30
0.0
 11
-34.886236487048187
 21
0.1125131440589016
 31
0.0
  0
LINE
  5
88
  8
1
 62
     7
 10
-34.886236487048187
 20
12.1125131440589
 30
0.0
 11
-5.3862364870481994
 21
12.1125131440589
 31
0.0
  0
LINE
  5
89
  8
1
  6
DASHDOT
 62
     3
 10
113.43465982433921
 20
6.1125131440589016
 30
0.0
 11
119.39369994766891
 21
6.1125131440589016
 31
0.0
  0
LINE
  5
8A
  8
1
  6
DASHDOT
 62
     3
 10
116.41417988600401
 20
9.09203320572378
 30
0.0
 11
116.41417988600401
 21
3.1329930823940231
 31
0.0
  0
LINE
  5
8B
  8
1
 62
     7
 10
112.214179886004
 20
-0.9465136221169315
 30
0.0
 11
112.214179886004
 21
0.0277473528354904
 31
0.0
  0
LINE
  5
8C
  8
1
 62
     7
 10
114.114179886004
 20
-2.8465136221169289
 30
0.0
 11
115.714179886004
 21
-2.8465136221169289
 31
0.0
  0
LINE
  5
8D
  8
1
 62
     7
 10
115.714179886004
 20
0.1534863778830697
 30
0.0
 11
115.714179886004
 21
-2.8465136221169289
 31
0.0
  0
LINE
  5
8E
  8
1
 62
     7
 10
117.114179886004
 20
-2.8465136221169289
 30
0.0
 11
117.114179886004
 21
0.1534863778830697
 31
0.0
  0
LINE
  5
8F
  8
1
 62
     7
 10
117.114179886004
 20
-2.8465136221169289
 30
0.0
 11
118.714179886004
 21
-2.8465136221169289
 31
0.0
  0
LINE
  5
90
  8
1
 62
     7
 10
120.614179886004
 20
0.0277473528354904
 30
0.0
 11
120.614179886004
 21
-0.9465136221169315
 31
0.0
  0
LINE
  5
91
  8
1
 62
     7
 10
114.41417988600401
 20
9.6125131440589016
 30
0.0
 11
114.41417988600401
 21
13.612513144058889
 31
0.0
  0
LINE
  5
92
  8
1
 62
     7
 10
118.41417988600401
 20
9.6125131440589016
 30
0.0
 11
114.41417988600401
 21
9.6125131440589016
 31
0.0
  0
LINE
  5
93
  8
1
 62
     7
 10
118.41417988600401
 20
13.612513144058889
 30
0.0
 11
118.41417988600401
 21
9.6125131440589016
 31
0.0
  0
LINE
  5
94
  8
1
 62
     7
 10
114.41417988600401
 20
13.612513144058889
 30
0.0
 11
118.41417988600401
 21
13.612513144058889
 31
0.0
  0
LINE
  5
95
  8
1
 62
     7
 10
144.32345113346599
 20
-24.671758103403
 30
0.0
 11
145.07345113346591
 21
-24.671758103403
 31
0.0
  0
LINE
  5
96
  8
1
 62
     7
 10
142.19845113346591
 20
-21.796758103403
 30
0.0
 11
142.19845113346591
 21
-22.54675810340299
 31
0.0
  0
LINE
  5
97
  8
1
 62
     7
 10
145.07345113346591
 20
-19.671758103403
 30
0.0
 11
144.32345113346599
 21
-19.671758103403
 31
0.0
  0
LINE
  5
98
  8
1
 62
     7
 10
147.19845113346591
 20
-22.54675810340299
 30
0.0
 11
147.19845113346591
 21
-21.796758103403
 31
0.0
  0
LINE
  5
99
  8
1
 62
     7
 10
85.62990863854219
 20
-21.796758103402979
 30
0.0
 11
85.62990863854219
 21
-22.546758103402979
 31
0.0
  0
LINE
  5
9A
  8
1
 62
     7
 10
88.50490863854219
 20
-19.671758103402979
 30
0.0
 11
87.75490863854219
 21
-19.671758103402979
 31
0.0
  0
LINE
  5
9B
  8
1
 62
     7
 10
90.62990863854219
 20
-22.546758103402979
 30
0.0
 11
90.62990863854219
 21
-21.796758103402979
 31
0.0
  0
LINE
  5
9C
  8
1
 62
     7
 10
87.75490863854219
 20
-24.671758103402979
 30
0.0
 11
88.50490863854219
 21
-24.671758103402979
 31
0.0
  0
LINE
  5
9D
  8
1
 62
     7
 10
88.504908638542219
 20
36.896784391520789
 30
0.0
 11
87.754908638542204
 21
36.896784391520789
 31
0.0
  0
LINE
  5
9E
  8
1
 62
     7
 10
90.629908638542219
 20
34.021784391520796
 30
0.0
 11
90.629908638542219
 21
34.771784391520796
 31
0.0
  0
LINE
  5
9F
  8
1
 62
     7
 10
87.754908638542204
 20
31.896784391520811
 30
0.0
 11
88.504908638542219
 21
31.896784391520811
 31
0.0
  0
LINE
  5
A0
  8
1
 62
     7
 10
85.629908638542219
 20
34.771784391520796
 30
0.0
 11
85.629908638542219
 21
34.021784391520796
 31
0.0
  0
LINE
  5
A1
  8
1
 62
     7
 10
147.19845113346591
 20
34.021784391520789
 30
0.0
 11
147.19845113346591
 21
34.771784391520789
 31
0.0
  0
LINE
  5
A2
  8
1
 62
     7
 10
144.32345113346599
 20
31.896784391520779
 30
0.0
 11
145.07345113346591
 21
31.896784391520779
 31
0.0
  0
LINE
  5
A3
  8
1
 62
     7
 10
142.19845113346591
 20
34.771784391520789
 30
0.0
 11
142.19845113346591
 21
34.021784391520789
 31
0.0
  0
LINE
  5
A4
  8
1
 62
     7
 10
145.07345113346591
 20
36.896784391520782
 30
0.0
 11
144.32345113346599
 21
36.896784391520782
 31
0.0
  0
LINE
  5
A5
  8
1
 62
     7
 10
-132.88623648704819
 20
125.404047727913
 30
0.0
 11
-42.88623648704818
 21
125.404047727913
 31
0.0
  0
LINE
  5
A6
  8
1
 62
     7
 10
-132.88623648704819
 20
199.404047727913
 30
0.0
 11
-42.88623648704818
 21
199.404047727913
 31
0.0
  0
LINE
  5
A7
  8
1
 62
     7
 10
-140.88623648704811
 20
179.53675232621791
 30
0.0
 11
-140.88623648704811
 21
145.271343129608
 31
0.0
  0
LINE
  5
A8
  8
1
 62
     7
 10
-134.74481513081091
 20
143.52670181987901
 30
0.0
 11
-140.02765784328551
 21
144.2813936359469
 31
0.0
  0
LINE
  5
A9
  8
1
 62
     7
 10
-140.02765784328551
 20
180.52670181987909
 30
0.0
 11
-134.74481513081091
 21
181.2813936359469
 31
0.0
  0
LINE
  5
AA
  8
1
 62
     7
 10
-133.88623648704819
 20
126.404047727913
 30
0.0
 11
-133.88623648704819
 21
198.404047727913
 31
0.0
  0
LINE
  5
AB
  8
1
 62
     7
 10
-34.886236487048187
 20
145.271343129608
 30
0.0
 11
-34.886236487048187
 21
179.53675232621791
 31
0.0
  0
LINE
  5
AC
  8
1
 62
     7
 10
-35.744815130810892
 20
144.2813936359469
 30
0.0
 11
-41.027657843285489
 21
143.52670181987901
 31
0.0
  0
LINE
  5
AD
  8
1
 62
     7
 10
-41.027657843285489
 20
181.2813936359469
 30
0.0
 11
-35.744815130810892
 21
180.52670181987909
 31
0.0
  0
LINE
  5
AE
  8
1
 62
     7
 10
-41.88623648704818
 20
198.404047727913
 30
0.0
 11
-41.88623648704818
 21
126.404047727913
 31
0.0
  0
LINE
  5
AF
  8
1
 62
     7
 10
-132.88623648704819
 20
-30.887486855941098
 30
0.0
 11
-42.88623648704818
 21
-30.887486855941098
 31
0.0
  0
LINE
  5
B0
  8
1
 62
     7
 10
-132.88623648704819
 20
43.112513144058887
 30
0.0
 11
-42.88623648704818
 21
43.112513144058887
 31
0.0
  0
LINE
  5
B1
  8
1
 62
     7
 10
-140.88623648704811
 20
23.245217742363831
 30
0.0
 11
-140.88623648704811
 21
-11.02019145424603
 31
0.0
  0
LINE
  5
B2
  8
1
 62
     7
 10
-134.74481513081091
 20
-12.764832763975001
 30
0.0
 11
-140.02765784328551
 21
-12.010140947907191
 31
0.0
  0
LINE
  5
B3
  8
1
 62
     7
 10
-140.02765784328551
 20
24.235167236024989
 30
0.0
 11
-134.74481513081091
 21
24.9898590520928
 31
0.0
  0
LINE
  5
B4
  8
1
 62
     7
 10
-133.88623648704819
 20
-29.887486855941091
 30
0.0
 11
-133.88623648704819
 21
42.112513144058902
 31
0.0
  0
LINE
  5
B5
  8
1
 62
     7
 10
-34.886236487048187
 20
-11.02019145424603
 30
0.0
 11
-34.886236487048187
 21
23.245217742363831
 31
0.0
  0
LINE
  5
B6
  8
1
 62
     7
 10
-35.744815130810892
 20
-12.010140947907191
 30
0.0
 11
-41.027657843285489
 21
-12.764832763975001
 31
0.0
  0
LINE
  5
B7
  8
1
 62
     7
 10
-41.027657843285489
 20
24.9898590520928
 30
0.0
 11
-35.744815130810892
 21
24.235167236024989
 31
0.0
  0
LINE
  5
B8
  8
1
 62
     7
 10
-41.88623648704818
 20
42.112513144058902
 30
0.0
 11
-41.88623648704818
 21
-29.887486855941091
 31
0.0
  0
LINE
  5
B9
  8
1
 62
     7
 10
-48.586236487048211
 20
9.1125131440589016
 30
0.0
 11
-48.586236487048211
 21
3.1125131440589011
 31
0.0
  0
LINE
  5
BA
  8
1
  6
DASHDOT
 62
     3
 10
-117.88623648704819
 20
213.5466927631162
 30
0.0
 11
-117.88623648704819
 21
201.26140269270979
 31
0.0
  0
LINE
  5
BB
  8
1
  6
DASHDOT
 62
     3
 10
-124.0288815222514
 20
207.404047727913
 30
0.0
 11
-111.74359145184501
 21
207.404047727913
 31
0.0
  0
LINE
  5
BC
  8
1
  6
CENTER
 62
     3
 10
-107.88623648704819
 20
209.404047727913
 30
0.0
 11
-107.88623648704819
 21
210.404047727913
 31
0.0
  0
LINE
  5
BD
  8
1
  6
CENTER
 62
     3
 10
-112.88623648704819
 20
215.404047727913
 30
0.0
 11
-122.88623648704819
 21
215.404047727913
 31
0.0
  0
LINE
  5
BE
  8
1
  6
CENTER
 62
     3
 10
-127.88623648704819
 20
210.404047727913
 30
0.0
 11
-127.88623648704819
 21
199.404047727913
 31
0.0
  0
LINE
  5
BF
  8
1
 62
     7
 10
-108.88623648704819
 20
208.404047727913
 30
0.0
 11
-108.88623648704819
 21
200.404047727913
 31
0.0
  0
LINE
  5
C0
  8
1
 62
     7
 10
-67.886236487048222
 20
209.404047727913
 30
0.0
 11
-107.88623648704819
 21
209.404047727913
 31
0.0
  0
LINE
  5
C1
  8
1
  6
CENTER
 62
     3
 10
-107.88623648704819
 20
-49.887486855941098
 30
0.0
 11
-107.88623648704819
 21
-41.887486855941091
 31
0.0
  0
LINE
  5
C2
  8
1
  6
CENTER
 62
     3
 10
-127.88623648704819
 20
-49.887486855941098
 30
0.0
 11
-107.88623648704819
 21
-49.887486855941098
 31
0.0
  0
LINE
  5
C3
  8
1
  6
CENTER
 62
     3
 10
-127.88623648704819
 20
-49.887486855941098
 30
0.0
 11
-127.88623648704819
 21
-41.887486855941091
 31
0.0
  0
LINE
  5
C4
  8
1
  6
CENTER
 62
     3
 10
82.414179886004106
 20
-48.887486855941098
 30
0.0
 11
150.41417988600401
 21
-48.887486855941098
 31
0.0
  0
LINE
  5
C5
  8
1
  6
CENTER
 62
     3
 10
63.414179886004113
 20
-41.887486855941091
 30
0.0
 11
84.414179886004106
 21
-41.887486855941091
 31
0.0
  0
LINE
  5
C6
  8
1
  6
CENTER
 62
     3
 10
169.41417988600401
 20
-41.887486855941091
 30
0.0
 11
169.41417988600401
 21
-49.887486855941098
 31
0.0
  0
LINE
  5
C7
  8
1
  6
CENTER
 62
     3
 10
169.41417988600401
 20
-49.887486855941098
 30
0.0
 11
151.41417988600401
 21
-49.887486855941098
 31
0.0
  0
LINE
  5
C8
  8
1
  6
CENTER
 62
     3
 10
63.414179886004113
 20
-49.887486855941098
 30
0.0
 11
63.414179886004113
 21
-41.887486855941091
 31
0.0
  0
LINE
  5
C9
  8
1
  6
CENTER
 62
     3
 10
81.414179886004106
 20
-49.887486855941098
 30
0.0
 11
63.414179886004113
 21
-49.887486855941098
 31
0.0
  0
LINE
  5
CA
  8
1
 62
     7
 10
79.414179886004106
 20
-25.887486855941098
 30
0.0
 11
79.414179886004106
 21
38.112513144058902
 31
0.0
  0
LINE
  5
CB
  8
1
 62
     7
 10
84.414179886004106
 20
43.112513144058887
 30
0.0
 11
148.41417988600401
 21
43.112513144058887
 31
0.0
  0
LINE
  5
CC
  8
1
 62
     7
 10
153.41417988600409
 20
38.112513144058902
 30
0.0
 11
153.41417988600409
 21
-25.887486855941098
 31
0.0
  0
LINE
  5
CD
  8
1
 62
     7
 10
148.41417988600401
 20
-30.887486855941098
 30
0.0
 11
84.414179886004106
 21
-30.887486855941098
 31
0.0
  0
LINE
  5
CE
  8
1
 62
     7
 10
84.414179886004106
 20
-33.303685343036761
 30
0.0
 11
84.414179886004106
 21
-41.887486855941091
 31
0.0
  0
LINE
  5
CF
  8
1
 62
     7
 10
101.41417988600401
 20
-41.887486855941091
 30
0.0
 11
101.41417988600401
 21
-41.387486855941098
 31
0.0
  0
LINE
  5
D0
  8
1
 62
     7
 10
103.41417988600401
 20
-39.387486855941091
 30
0.0
 11
129.41417988600401
 21
-39.387486855941091
 31
0.0
  0
LINE
  5
D1
  8
1
 62
     7
 10
131.41417988600409
 20
-41.387486855941098
 30
0.0
 11
131.41417988600409
 21
-41.887486855941091
 31
0.0
  0
LINE
  5
D2
  8
1
 62
     7
 10
148.41417988600401
 20
-41.887486855941091
 30
0.0
 11
148.41417988600401
 21
-33.303685343036761
 31
0.0
  0
LINE
  5
D3
  8
1
 62
     7
 10
-128.88623648704819
 20
-30.887486855941098
 30
0.0
 11
-128.88623648704819
 21
43.112513144058887
 31
0.0
  0
LINE
  5
D4
  8
1
 62
     7
 10
-46.88623648704818
 20
43.112513144058887
 30
0.0
 11
-46.88623648704818
 21
-30.887486855941098
 31
0.0
  0
LINE
  5
D5
  8
1
 62
     7
 10
-127.88623648704819
 20
-41.887486855941091
 30
0.0
 11
-47.88623648704818
 21
-41.887486855941091
 31
0.0
  0
LINE
  5
D6
  8
1
 62
     7
 10
-128.88623648704819
 20
-32.887486855941091
 30
0.0
 11
-127.88623648704819
 21
-32.887486855941091
 31
0.0
  0
LINE
  5
D7
  8
1
 62
     7
 10
-128.88623648704819
 20
-37.887486855941091
 30
0.0
 11
-128.88623648704819
 21
-32.887486855941091
 31
0.0
  0
LINE
  5
D8
  8
1
 62
     7
 10
-127.88623648704819
 20
-37.887486855941091
 30
0.0
 11
-128.88623648704819
 21
-37.887486855941091
 31
0.0
  0
LINE
  5
D9
  8
1
 62
     7
 10
78.469480400843892
 20
15.06019071005454
 30
0.0
 11
70.358879371164306
 21
14.610982899764331
 31
0.0
  0
LINE
  5
DA
  8
1
 62
     7
 10
70.358879371164306
 20
12.614043388353471
 30
0.0
 11
78.469480400843892
 21
12.164835578063251
 31
0.0
  0
LINE
  5
DB
  8
1
 62
     7
 10
78.469480400843892
 20
22.560190710054538
 30
0.0
 11
70.358879371164306
 21
22.11098289976432
 31
0.0
  0
LINE
  5
DC
  8
1
 62
     7
 10
70.358879371164306
 20
20.114043388353469
 30
0.0
 11
78.469480400843892
 21
19.664835578063261
 31
0.0
  0
LINE
  5
DD
  8
1
 62
     7
 10
78.469480400843892
 20
30.060190710054538
 30
0.0
 11
70.358879371164306
 21
29.61098289976432
 31
0.0
  0
LINE
  5
DE
  8
1
 62
     7
 10
70.358879371164306
 20
27.614043388353458
 30
0.0
 11
78.469480400843892
 21
27.164835578063261
 31
0.0
  0
LINE
  5
DF
  8
1
 62
     7
 10
70.358879371164306
 20
35.114043388353458
 30
0.0
 11
78.469480400843892
 21
34.664835578063261
 31
0.0
  0
LINE
  5
E0
  8
1
 62
     7
 10
78.486159631676898
 20
37.561114493721419
 30
0.0
 11
70.358879371164306
 21
37.110982899764331
 31
0.0
  0
LINE
  5
E1
  8
1
 62
     7
 10
70.358879371164306
 20
-2.3859566116465301
 30
0.0
 11
78.469480400843892
 21
-2.8351644219367409
 31
0.0
  0
LINE
  5
E2
  8
1
 62
     7
 10
78.469480400843892
 20
0.0601907100545391
 30
0.0
 11
70.358879371164306
 21
-0.3890171002356705
 31
0.0
  0
LINE
  5
E3
  8
1
 62
     7
 10
70.358879371164306
 20
-9.8859566116465327
 30
0.0
 11
78.469480400843892
 21
-10.33516442193674
 31
0.0
  0
LINE
  5
E4
  8
1
 62
     7
 10
78.469480400843892
 20
-7.4398092899454618
 30
0.0
 11
70.358879371164306
 21
-7.8890171002356739
 31
0.0
  0
LINE
  5
E5
  8
1
 62
     7
 10
70.358879371164306
 20
-17.38595661164652
 30
0.0
 11
78.469480400843892
 21
-17.835164421936749
 31
0.0
  0
LINE
  5
E6
  8
1
 62
     7
 10
78.469480400843892
 20
-14.93980928994546
 30
0.0
 11
70.358879371164306
 21
-15.389017100235669
 31
0.0
  0
LINE
  5
E7
  8
1
 62
     7
 10
78.469480400843892
 20
-22.439809289945469
 30
0.0
 11
70.358879371164306
 21
-22.88901710023568
 31
0.0
  0
LINE
  5
E8
  8
1
 62
     7
 10
70.358879371164306
 20
-24.885956611646531
 30
0.0
 11
78.486159631676898
 21
-25.33608820560362
 31
0.0
  0
LINE
  5
E9
  8
1
 62
     7
 10
153.41417988600409
 20
38.112513144058902
 30
0.0
 11
153.41417988600409
 21
-25.887486855941098
 31
0.0
  0
LINE
  5
EA
  8
1
 62
     7
 10
162.46948040084391
 20
7.1109828997643314
 30
0.0
 11
154.35887937116431
 21
7.5601907100545418
 31
0.0
  0
LINE
  5
EB
  8
1
 62
     7
 10
154.35887937116431
 20
4.6648355780632587
 30
0.0
 11
162.46948040084391
 21
5.1140433883534708
 31
0.0
  0
LINE
  5
EC
  8
1
 62
     7
 10
162.46948040084391
 20
14.610982899764331
 30
0.0
 11
154.35887937116431
 21
15.06019071005454
 31
0.0
  0
LINE
  5
ED
  8
1
 62
     7
 10
154.35887937116431
 20
12.164835578063251
 30
0.0
 11
162.46948040084391
 21
12.614043388353471
 31
0.0
  0
LINE
  5
EE
  8
1
 62
     7
 10
162.46948040084391
 20
22.11098289976432
 30
0.0
 11
154.35887937116431
 21
22.560190710054538
 31
0.0
  0
LINE
  5
EF
  8
1
 62
     7
 10
154.35887937116431
 20
19.664835578063261
 30
0.0
 11
162.46948040084391
 21
20.114043388353469
 31
0.0
  0
LINE
  5
F0
  8
1
 62
     7
 10
162.46948040084391
 20
29.61098289976432
 30
0.0
 11
154.35887937116431
 21
30.060190710054538
 31
0.0
  0
LINE
  5
F1
  8
1
 62
     7
 10
154.35887937116431
 20
27.164835578063261
 30
0.0
 11
162.46948040084391
 21
27.614043388353458
 31
0.0
  0
LINE
  5
F2
  8
1
 62
     7
 10
154.35887937116431
 20
34.664835578063261
 30
0.0
 11
162.46948040084391
 21
35.114043388353458
 31
0.0
  0
LINE
  5
F3
  8
1
 62
     7
 10
162.46948040084391
 20
37.110982899764331
 30
0.0
 11
154.3422001403313
 21
37.561114493721419
 31
0.0
  0
LINE
  5
F4
  8
1
 62
     7
 10
154.35887937116431
 20
-2.8351644219367409
 30
0.0
 11
162.46948040084391
 21
-2.3859566116465301
 31
0.0
  0
LINE
  5
F5
  8
1
 62
     7
 10
162.46948040084391
 20
-0.3890171002356705
 30
0.0
 11
154.35887937116431
 21
0.0601907100545391
 31
0.0
  0
LINE
  5
F6
  8
1
 62
     7
 10
154.35887937116431
 20
-10.33516442193674
 30
0.0
 11
162.46948040084391
 21
-9.8859566116465327
 31
0.0
  0
LINE
  5
F7
  8
1
 62
     7
 10
162.46948040084391
 20
-7.8890171002356739
 30
0.0
 11
154.35887937116431
 21
-7.4398092899454618
 31
0.0
  0
LINE
  5
F8
  8
1
 62
     7
 10
154.35887937116431
 20
-17.835164421936749
 30
0.0
 11
162.46948040084391
 21
-17.38595661164652
 31
0.0
  0
LINE
  5
F9
  8
1
 62
     7
 10
162.46948040084391
 20
-15.389017100235669
 30
0.0
 11
154.35887937116431
 21
-14.93980928994546
 31
0.0
  0
LINE
  5
FA
  8
1
 62
     7
 10
162.46948040084391
 20
-22.88901710023568
 30
0.0
 11
154.35887937116431
 21
-22.439809289945469
 31
0.0
  0
LINE
  5
FB
  8
1
 62
     7
 10
154.3422001403313
 20
-25.33608820560362
 30
0.0
 11
162.46948040084391
 21
-24.885956611646531
 31
0.0
  0
LINE
  5
FC
  8
1
 62
     7
 10
-107.38623648704819
 20
7.6125131440589016
 30
0.0
 11
-68.386236487048222
 21
7.6125131440589016
 31
0.0
  0
LINE
  5
FD
  8
1
 62
     7
 10
-107.38623648704819
 20
4.6125131440589016
 30
0.0
 11
-68.386236487048222
 21
4.6125131440589016
 31
0.0
  0
LINE
  5
FE
  8
1
 62
     7
 10
-107.38623648704819
 20
15.1125131440589
 30
0.0
 11
-68.386236487048222
 21
15.1125131440589
 31
0.0
  0
LINE
  5
FF
  8
1
 62
     7
 10
-107.38623648704819
 20
12.1125131440589
 30
0.0
 11
-68.386236487048222
 21
12.1125131440589
 31
0.0
  0
LINE
  5
100
  8
1
 62
     7
 10
-107.38623648704819
 20
22.612513144058902
 30
0.0
 11
-68.386236487048222
 21
22.612513144058902
 31
0.0
  0
LINE
  5
101
  8
1
 62
     7
 10
-107.38623648704819
 20
19.612513144058891
 30
0.0
 11
-68.386236487048222
 21
19.612513144058891
 31
0.0
  0
LINE
  5
102
  8
1
 62
     7
 10
-107.38623648704819
 20
30.112513144058902
 30
0.0
 11
-68.386236487048222
 21
30.112513144058902
 31
0.0
  0
LINE
  5
103
  8
1
 62
     7
 10
-107.38623648704819
 20
27.112513144058902
 30
0.0
 11
-68.386236487048222
 21
27.112513144058902
 31
0.0
  0
LINE
  5
104
  8
1
 62
     7
 10
-107.38623648704819
 20
37.612513144058902
 30
0.0
 11
-68.386236487048222
 21
37.612513144058902
 31
0.0
  0
LINE
  5
105
  8
1
 62
     7
 10
-107.38623648704819
 20
34.612513144058902
 30
0.0
 11
-68.386236487048222
 21
34.612513144058902
 31
0.0
  0
LINE
  5
106
  8
1
 62
     7
 10
-68.386236487048222
 20
-2.887486855941098
 30
0.0
 11
-107.38623648704819
 21
-2.887486855941098
 31
0.0
  0
LINE
  5
107
  8
1
 62
     7
 10
-68.386236487048222
 20
0.1125131440589016
 30
0.0
 11
-107.38623648704819
 21
0.1125131440589016
 31
0.0
  0
LINE
  5
108
  8
1
 62
     7
 10
-68.386236487048222
 20
-10.3874868559411
 30
0.0
 11
-107.38623648704819
 21
-10.3874868559411
 31
0.0
  0
LINE
  5
109
  8
1
 62
     7
 10
-68.386236487048222
 20
-7.3874868559410967
 30
0.0
 11
-107.38623648704819
 21
-7.3874868559410967
 31
0.0
  0
LINE
  5
10A
  8
1
 62
     7
 10
-68.386236487048222
 20
-17.887486855941098
 30
0.0
 11
-107.38623648704819
 21
-17.887486855941098
 31
0.0
  0
LINE
  5
10B
  8
1
 62
     7
 10
-68.386236487048222
 20
-14.8874868559411
 30
0.0
 11
-107.38623648704819
 21
-14.8874868559411
 31
0.0
  0
LINE
  5
10C
  8
1
 62
     7
 10
-68.386236487048222
 20
-25.387486855941091
 30
0.0
 11
-107.38623648704819
 21
-25.387486855941091
 31
0.0
  0
LINE
  5
10D
  8
1
 62
     7
 10
-68.386236487048222
 20
-22.387486855941098
 30
0.0
 11
-107.38623648704819
 21
-22.387486855941098
 31
0.0
  0
LINE
  5
10E
  8
1
 62
     7
 10
-107.88623648704819
 20
33.612513144058902
 30
0.0
 11
-107.88623648704819
 21
31.112513144058902
 31
0.0
  0
LINE
  5
10F
  8
1
 62
     7
 10
-107.88623648704819
 20
26.112513144058902
 30
0.0
 11
-107.88623648704819
 21
23.612513144058902
 31
0.0
  0
LINE
  5
110
  8
1
 62
     7
 10
-67.886236487048194
 20
31.112513144058902
 30
0.0
 11
-67.886236487048194
 21
33.612513144058902
 31
0.0
  0
LINE
  5
111
  8
1
 62
     7
 10
-67.886236487048194
 20
23.612513144058902
 30
0.0
 11
-67.886236487048194
 21
26.112513144058902
 31
0.0
  0
LINE
  5
112
  8
1
 62
     7
 10
-46.88623648704818
 20
9.1125131440589016
 30
0.0
 11
-52.083460849316083
 21
9.1125131440589016
 31
0.0
  0
LINE
  5
113
  8
1
 62
     7
 10
-128.88623648704819
 20
125.404047727913
 30
0.0
 11
-128.88623648704819
 21
199.404047727913
 31
0.0
  0
LINE
  5
114
  8
1
 62
     7
 10
-46.88623648704818
 20
199.404047727913
 30
0.0
 11
-46.88623648704818
 21
125.404047727913
 31
0.0
  0
LINE
  5
115
  8
1
 62
     7
 10
-107.88623648704819
 20
115.4040477279129
 30
0.0
 11
-67.886236487048222
 21
115.4040477279129
 31
0.0
  0
LINE
  5
116
  8
1
  6
DASHED
 62
     3
 10
-121.88623648704819
 20
-30.887486855941098
 30
0.0
 11
-121.88623648704819
 21
-41.887486855941091
 31
0.0
  0
LINE
  5
117
  8
1
  6
DASHED
 62
     3
 10
-113.88623648704819
 20
-30.887486855941098
 30
0.0
 11
-113.88623648704819
 21
-41.887486855941091
 31
0.0
  0
LINE
  5
118
  8
1
  6
DASHED
 62
     7
 10
-121.0862364870482
 20
-30.887486855941098
 30
0.0
 11
-121.0862364870482
 21
-41.887486855941091
 31
0.0
  0
LINE
  5
119
  8
1
  6
DASHED
 62
     7
 10
-114.68623648704821
 20
-30.887486855941098
 30
0.0
 11
-114.68623648704821
 21
-41.887486855941091
 31
0.0
  0
LINE
  5
11A
  8
1
  6
DASHDOT
 62
     3
 10
-117.88623648704819
 20
-52.087486855941087
 30
0.0
 11
-117.88623648704819
 21
-28.687486855941088
 31
0.0
  0
LINE
  5
11B
  8
1
 62
     7
 10
-127.88623648704819
 20
-41.887486855941091
 30
0.0
 11
-127.88623648704819
 21
-31.887486855941091
 31
0.0
  0
LINE
  5
11C
  8
1
  6
CENTER
 62
     3
 10
-67.886236487048194
 20
-41.887486855941091
 30
0.0
 11
-67.886236487048194
 21
-49.887486855941098
 31
0.0
  0
LINE
  5
11D
  8
1
  6
CENTER
 62
     3
 10
-67.886236487048194
 20
-49.887486855941098
 30
0.0
 11
-47.886236487048201
 21
-49.887486855941098
 31
0.0
  0
LINE
  5
11E
  8
1
  6
CENTER
 62
     3
 10
-47.88623648704818
 20
-41.887486855941091
 30
0.0
 11
-47.886236487048201
 21
-49.887486855941098
 31
0.0
  0
LINE
  5
11F
  8
1
 62
     7
 10
-47.886236487048201
 20
-32.887486855941091
 30
0.0
 11
-46.88623648704818
 21
-32.887486855941091
 31
0.0
  0
LINE
  5
120
  8
1
 62
     7
 10
-46.88623648704818
 20
-32.887486855941091
 30
0.0
 11
-46.88623648704818
 21
-37.887486855941091
 31
0.0
  0
LINE
  5
121
  8
1
 62
     7
 10
-46.88623648704818
 20
-37.887486855941091
 30
0.0
 11
-47.886236487048201
 21
-37.887486855941091
 31
0.0
  0
LINE
  5
122
  8
1
  6
DASHED
 62
     3
 10
-53.886236487048208
 20
-41.887486855941091
 30
0.0
 11
-53.886236487048208
 21
-30.887486855941098
 31
0.0
  0
LINE
  5
123
  8
1
  6
DASHED
 62
     3
 10
-61.886236487048208
 20
-41.887486855941091
 30
0.0
 11
-61.886236487048208
 21
-30.887486855941098
 31
0.0
  0
LINE
  5
124
  8
1
  6
DASHED
 62
     7
 10
-54.686236487048198
 20
-41.887486855941091
 30
0.0
 11
-54.686236487048198
 21
-30.887486855941098
 31
0.0
  0
LINE
  5
125
  8
1
  6
DASHED
 62
     7
 10
-61.086236487048211
 20
-41.887486855941091
 30
0.0
 11
-61.086236487048211
 21
-30.887486855941098
 31
0.0
  0
LINE
  5
126
  8
1
  6
DASHDOT
 62
     3
 10
-57.886236487048201
 20
-28.687486855941088
 30
0.0
 11
-57.886236487048201
 21
-52.087486855941087
 31
0.0
  0
LINE
  5
127
  8
1
 62
     7
 10
-47.886236487048201
 20
-31.887486855941091
 30
0.0
 11
-47.88623648704818
 21
-41.887486855941091
 31
0.0
  0
LINE
  5
128
  8
1
  6
CENTER
 62
     3
 10
101.41417988600401
 20
-41.887486855941091
 30
0.0
 11
131.41417988600409
 21
-41.887486855941091
 31
0.0
  0
LINE
  5
129
  8
1
 62
     7
 10
84.414179886004106
 20
-41.887486855941091
 30
0.0
 11
101.41417988600401
 21
-41.887486855941091
 31
0.0
  0
LINE
  5
12A
  8
1
 62
     7
 10
131.41417988600409
 20
-41.887486855941091
 30
0.0
 11
148.41417988600401
 21
-41.887486855941091
 31
0.0
  0
LINE
  5
12B
  8
1
  6
CENTER
 62
     3
 10
148.41417988600401
 20
-41.887486855941091
 30
0.0
 11
169.41417988600401
 21
-41.887486855941091
 31
0.0
  0
LINE
  5
12C
  8
1
  6
DASHED
 62
     3
 10
137.41417988600401
 20
-30.887486855941098
 30
0.0
 11
137.41417988600401
 21
-41.887486855941091
 31
0.0
  0
LINE
  5
12D
  8
1
  6
DASHED
 62
     3
 10
145.41417988600401
 20
-30.887486855941098
 30
0.0
 11
145.41417988600401
 21
-41.887486855941091
 31
0.0
  0
LINE
  5
12E
  8
1
  6
DASHDOT
 62
     3
 10
141.41417988600401
 20
-28.687486855941088
 30
0.0
 11
141.41417988600401
 21
-44.087486855941087
 31
0.0
  0
LINE
  5
12F
  8
1
  6
DASHED
 62
     7
 10
138.21417988600399
 20
-30.887486855941098
 30
0.0
 11
138.21417988600399
 21
-41.887486855941091
 31
0.0
  0
LINE
  5
130
  8
1
  6
DASHED
 62
     7
 10
144.614179886004
 20
-30.887486855941098
 30
0.0
 11
144.614179886004
 21
-41.887486855941091
 31
0.0
  0
LINE
  5
131
  8
1
  6
DASHED
 62
     3
 10
87.414179886004106
 20
-30.887486855941098
 30
0.0
 11
87.414179886004106
 21
-41.887486855941091
 31
0.0
  0
LINE
  5
132
  8
1
  6
DASHED
 62
     3
 10
95.414179886004135
 20
-30.887486855941098
 30
0.0
 11
95.414179886004135
 21
-41.887486855941091
 31
0.0
  0
LINE
  5
133
  8
1
  6
DASHDOT
 62
     3
 10
91.414179886004121
 20
-28.687486855941088
 30
0.0
 11
91.414179886004121
 21
-44.087486855941087
 31
0.0
  0
LINE
  5
134
  8
1
  6
DASHED
 62
     7
 10
88.214179886004118
 20
-30.887486855941098
 30
0.0
 11
88.214179886004118
 21
-41.887486855941091
 31
0.0
  0
LINE
  5
135
  8
1
  6
DASHED
 62
     7
 10
94.614179886004067
 20
-30.887486855941098
 30
0.0
 11
94.614179886004067
 21
-41.887486855941091
 31
0.0
  0
LINE
  5
136
  8
1
  6
DASHDOT
 62
     3
 10
-57.886236487048173
 20
201.26140269270979
 30
0.0
 11
-57.88623648704818
 21
213.5466927631162
 31
0.0
  0
LINE
  5
137
  8
1
  6
DASHDOT
 62
     3
 10
-64.028881522251382
 20
207.404047727913
 30
0.0
 11
-51.743591451844978
 21
207.404047727913
 31
0.0
  0
LINE
  5
138
  8
1
  6
CENTER
 62
     3
 10
-67.88623648704818
 20
210.404047727913
 30
0.0
 11
-67.886236487048222
 21
209.404047727913
 31
0.0
  0
LINE
  5
139
  8
1
  6
CENTER
 62
     3
 10
-52.886236487048173
 20
215.404047727913
 30
0.0
 11
-62.886236487048173
 21
215.404047727913
 31
0.0
  0
LINE
  5
13A
  8
1
  6
CENTER
 62
     3
 10
-47.886236487048158
 20
199.404047727913
 30
0.0
 11
-47.88623648704818
 21
210.404047727913
 31
0.0
  0
LINE
  5
13B
  8
1
 62
     7
 10
-66.886236487048222
 20
200.404047727913
 30
0.0
 11
-66.88623648704818
 21
208.404047727913
 31
0.0
  0
LINE
  5
13C
  8
1
 62
     3
 10
-42.757930673314512
 20
109.4062667389549
 30
0.0
 11
-45.3909355931752
 21
110.84407239063
 31
0.0
  0
LINE
  5
13D
  8
1
 62
     3
 10
-44.95959389767269
 20
111.63397386658821
 30
0.0
 11
-42.326588977811987
 21
110.1961682149132
 31
0.0
  0
LINE
  5
13E
  8
1
 62
     3
 10
-48.877287168878397
 20
107.0309715165597
 30
0.0
 11
-50.377287168878411
 21
109.6290477279129
 31
0.0
  0
LINE
  5
13F
  8
1
 62
     3
 10
-51.156710032284387
 20
109.179047727913
 30
0.0
 11
-49.656710032284401
 21
106.5809715165596
 31
0.0
  0
LINE
  5
140
  8
1
 62
     7
 10
-44.74392304992147
 20
112.02892460456739
 30
0.0
 11
-45.606606440926477
 21
110.4491216526511
 31
0.0
  0
LINE
  5
141
  8
1
 62
     7
 10
-51.546421463987393
 20
108.95404772791289
 30
0.0
 11
-49.987575737175391
 21
109.8540477279132
 31
0.0
  0
LINE
  5
142
  8
1
 62
     7
 10
-57.386236487048187
 20
124.404047727913
 30
0.0
 11
-50.386236487048187
 21
124.404047727913
 31
0.0
  0
LINE
  5
143
  8
1
 62
     7
 10
-50.386236487048187
 20
125.404047727913
 30
0.0
 11
-50.386236487048187
 21
124.404047727913
 31
0.0
  0
LINE
  5
144
  8
1
 62
     7
 10
-57.386236487048187
 20
124.404047727913
 30
0.0
 11
-57.386236487048208
 21
125.404047727913
 31
0.0
  0
LINE
  5
145
  8
1
  6
DASHDOT
 62
     3
 10
-57.886236487048187
 20
111.26140269270969
 30
0.0
 11
-57.886236487048187
 21
123.5466927631162
 31
0.0
  0
LINE
  5
146
  8
1
  6
DASHDOT
 62
     3
 10
-51.743591451844992
 20
117.4040477279129
 30
0.0
 11
-64.028881522251396
 21
117.4040477279129
 31
0.0
  0
LINE
  5
147
  8
1
  6
CENTER
 62
     3
 10
-67.886236487048222
 20
115.4040477279129
 30
0.0
 11
-67.886236487048194
 21
114.4040477279129
 31
0.0
  0
LINE
  5
148
  8
1
  6
CENTER
 62
     3
 10
-62.886236487048187
 20
109.4040477279129
 30
0.0
 11
-52.886236487048187
 21
109.4040477279129
 31
0.0
  0
LINE
  5
149
  8
1
  6
CENTER
 62
     3
 10
-47.886236487048187
 20
114.4040477279129
 30
0.0
 11
-47.886236487048187
 21
125.404047727913
 31
0.0
  0
LINE
  5
14A
  8
1
 62
     7
 10
-66.886236487048194
 20
116.4040477279129
 30
0.0
 11
-66.886236487048194
 21
124.404047727913
 31
0.0
  0
LINE
  5
14B
  8
1
  6
DASHDOT
 62
     3
 10
-64.2862364870482
 20
187.404047727913
 30
0.0
 11
-51.48623648704821
 21
187.404047727913
 31
0.0
  0
LINE
  5
14C
  8
1
  6
DASHDOT
 62
     3
 10
-57.886236487048201
 20
181.00404772791299
 30
0.0
 11
-57.886236487048201
 21
193.804047727913
 31
0.0
  0
LINE
  5
14D
  8
1
  6
CENTER
 62
     3
 10
-64.2862364870482
 20
137.40404772791291
 30
0.0
 11
-51.48623648704821
 21
137.40404772791291
 31
0.0
  0
LINE
  5
14E
  8
1
  6
CENTER
 62
     3
 10
-57.886236487048201
 20
131.0040477279129
 30
0.0
 11
-57.886236487048201
 21
143.80404772791289
 31
0.0
  0
LINE
  5
14F
  8
1
  6
DASHDOT
 62
     3
 10
-124.2862364870481
 20
187.404047727913
 30
0.0
 11
-111.4862364870482
 21
187.404047727913
 31
0.0
  0
LINE
  5
150
  8
1
  6
DASHDOT
 62
     3
 10
-117.88623648704819
 20
181.00404772791299
 30
0.0
 11
-117.88623648704819
 21
193.804047727913
 31
0.0
  0
LINE
  5
151
  8
1
  6
CENTER
 62
     3
 10
-124.2862364870481
 20
137.40404772791291
 30
0.0
 11
-111.4862364870482
 21
137.40404772791291
 31
0.0
  0
LINE
  5
152
  8
1
  6
CENTER
 62
     3
 10
-117.88623648704819
 20
131.0040477279129
 30
0.0
 11
-117.88623648704819
 21
143.80404772791289
 31
0.0
  0
LINE
  5
153
  8
1
  6
DASHDOT
 62
     3
 10
71.414179886004106
 20
-39.887486855941098
 30
0.0
 11
71.414179886004106
 21
-51.887486855941098
 31
0.0
  0
LINE
  5
154
  8
1
  6
DASHDOT
 62
     3
 10
161.41417988600409
 20
-51.887486855941098
 30
0.0
 11
161.41417988600409
 21
-39.887486855941098
 31
0.0
  0
ARC
  5
155
  8
1
 62
     7
 10
-121.3862364870494
 20
120.4040477279127
 30
0.0
 40
2.749999999999968
 50
101.0931789924186
 51
101.6168047800906
  0
ARC
  5
156
  8
1
 62
     7
 10
-150.98623648704799
 20
124.404047727913
 30
0.0
 40
30.899999999999959
 50
329.99999999999977
 51
0.0
  0
ARC
  5
157
  8
1
 62
     7
 10
-150.98623648704799
 20
124.404047727913
 30
0.0
 40
29.099999999999849
 50
330.00000000000011
 51
0.0
  0
ARC
  5
158
  8
1
 62
     7
 10
-137.78623648704809
 20
124.404047727913
 30
0.0
 40
15.89999999999986
 50
298.63764079145409
 51
0.0
  0
ARC
  5
159
  8
1
 62
     7
 10
-137.78623648704809
 20
124.404047727913
 30
0.0
 40
14.10000000000003
 50
298.63764079145398
 51
0.0
  0
ARC
  5
15A
  8
1
  6
CENTER
 62
     3
 10
-117.88623648704819
 20
117.4040477279129
 30
0.0
 40
4.2500000000000382
 50
211.77144644211981
 51
124.34657175127469
  0
ARC
  5
15B
  8
1
 62
     7
 10
-109.88623648704819
 20
124.404047727913
 30
0.0
 40
1.0
 50
0.0
 51
90.0
  0
ARC
  5
15C
  8
1
 62
     7
 10
-107.88623648704819
 20
116.4040477279129
 30
0.0
 40
1.0
 50
180.0
 51
270.0
  0
ARC
  5
15D
  8
1
 62
     7
 10
-123.0862364870482
 20
6.1125131440589087
 30
0.0
 40
1.1999999999999891
 50
90.0
 51
270.0
  0
ARC
  5
15E
  8
1
 62
     7
 10
-120.68623648704821
 20
6.1125131440589087
 30
0.0
 40
1.1999999999999891
 50
270.0
 51
90.0
  0
ARC
  5
15F
  8
1
 62
     7
 10
-52.686236487048248
 20
6.1125131440589087
 30
0.0
 40
1.1999999999999891
 50
270.0
 51
90.0
  0
ARC
  5
160
  8
1
 62
     7
 10
-55.086236487048247
 20
6.1125131440589087
 30
0.0
 40
1.1999999999999891
 50
90.0
 51
270.0
  0
ARC
  5
161
  8
1
 62
     7
 10
78.414179886004092
 20
36.112513144058902
 30
0.0
 40
29.099999999999991
 50
239.99999999999989
 51
270.0
  0
ARC
  5
162
  8
1
 62
     7
 10
78.414179886004092
 20
36.112513144058902
 30
0.0
 40
30.899999999999959
 50
239.99999999999989
 51
270.0
  0
ARC
  5
163
  8
1
 62
     7
 10
78.414179886004092
 20
-23.887486855941091
 30
0.0
 40
30.900000000000009
 50
103.86243211643389
 51
119.9999999999999
  0
ARC
  5
164
  8
1
 62
     7
 10
78.414179886004092
 20
-23.887486855941091
 30
0.0
 40
29.10000000000003
 50
90.0
 51
119.9999999999999
  0
ARC
  5
165
  8
1
 62
     7
 10
78.414179886004092
 20
21.112513144058902
 30
0.0
 40
15.90000000000005
 50
208.6376407914538
 51
230.67691081875071
  0
ARC
  5
166
  8
1
 62
     7
 10
78.414179886004092
 20
21.112513144058902
 30
0.0
 40
14.09999999999998
 50
208.63764079145361
 51
270.0
  0
ARC
  5
167
  8
1
 62
     7
 10
78.414179886004092
 20
-8.8874868559410913
 30
0.0
 40
15.9
 50
129.32308918124909
 51
151.36235920854631
  0
ARC
  5
168
  8
1
 62
     7
 10
78.414179886004092
 20
-8.8874868559410913
 30
0.0
 40
14.10000000000003
 50
90.0
 51
151.362359208546
  0
ARC
  5
169
  8
1
 62
     7
 10
70.414179886004106
 20
6.1125131440589016
 30
0.0
 40
1.0000000000000091
 50
155.62369104104749
 51
204.37630895895001
  0
ARC
  5
16A
  8
1
 62
     7
 10
-152.88623648704811
 20
162.40404772791291
 30
0.0
 40
2.0
 50
270.0
 51
90.0
  0
ARC
  5
16B
  8
1
 62
     7
 10
-22.886236487048201
 20
162.40404772791291
 30
0.0
 40
2.0
 50
90.0
 51
270.0
  0
ARC
  5
16C
  8
1
 62
     7
 10
116.41417988600401
 20
6.9125131440588978
 30
0.0
 40
7.2000000000000126
 50
312.91018402167612
 51
227.0898159783238
  0
ARC
  5
16D
  8
1
 62
     7
 10
116.41417988600401
 20
6.1125131440589016
 30
0.0
 40
5.5
 50
111.3236862634979
 51
68.676313736502067
  0
ARC
  5
16E
  8
1
 62
     7
 10
116.41417988600401
 20
6.1125131440589016
 30
0.0
 40
5.9999999999999973
 50
109.47122063449071
 51
70.528779365509308
  0
ARC
  5
16F
  8
1
 62
     7
 10
142.19845113346591
 20
-24.671758103403
 30
0.0
 40
2.125
 50
0.0
 51
90.0
  0
ARC
  5
170
  8
1
 62
     7
 10
142.19845113346591
 20
-19.671758103403
 30
0.0
 40
2.125
 50
270.0
 51
0.0
  0
ARC
  5
171
  8
1
 62
     7
 10
147.19845113346591
 20
-19.671758103403
 30
0.0
 40
2.125
 50
180.0
 51
270.0
  0
ARC
  5
172
  8
1
 62
     7
 10
147.19845113346591
 20
-24.671758103403
 30
0.0
 40
2.125
 50
90.0
 51
180.0
  0
ARC
  5
173
  8
1
 62
     7
 10
85.62990863854219
 20
-19.671758103402979
 30
0.0
 40
2.125
 50
270.0
 51
0.0
  0
ARC
  5
174
  8
1
 62
     7
 10
90.62990863854219
 20
-19.671758103402979
 30
0.0
 40
2.125
 50
180.0
 51
270.0
  0
ARC
  5
175
  8
1
 62
     7
 10
90.62990863854219
 20
-24.671758103402979
 30
0.0
 40
2.125
 50
90.0
 51
180.0
  0
ARC
  5
176
  8
1
 62
     7
 10
85.62990863854219
 20
-24.671758103402979
 30
0.0
 40
2.125
 50
0.0
 51
90.0
  0
ARC
  5
177
  8
1
 62
     7
 10
90.629908638542219
 20
36.896784391520789
 30
0.0
 40
2.125
 50
180.0
 51
270.0
  0
ARC
  5
178
  8
1
 62
     7
 10
90.629908638542219
 20
31.896784391520811
 30
0.0
 40
2.1249999999999849
 50
90.0
 51
180.0
  0
ARC
  5
179
  8
1
 62
     7
 10
85.629908638542219
 20
31.896784391520811
 30
0.0
 40
2.125
 50
0.0
 51
90.0
  0
ARC
  5
17A
  8
1
 62
     7
 10
85.629908638542219
 20
36.896784391520789
 30
0.0
 40
2.125
 50
270.0
 51
0.0
  0
ARC
  5
17B
  8
1
 62
     7
 10
147.19845113346591
 20
31.896784391520779
 30
0.0
 40
2.125
 50
90.0
 51
180.0
  0
ARC
  5
17C
  8
1
 62
     7
 10
142.19845113346591
 20
31.896784391520779
 30
0.0
 40
2.125
 50
0.0
 51
90.0
  0
ARC
  5
17D
  8
1
 62
     7
 10
142.19845113346591
 20
36.896784391520782
 30
0.0
 40
2.125
 50
270.0
 51
0.0
  0
ARC
  5
17E
  8
1
 62
     7
 10
147.19845113346591
 20
36.896784391520782
 30
0.0
 40
2.125
 50
180.0
 51
270.0
  0
ARC
  5
17F
  8
1
 62
     7
 10
-139.88623648704811
 20
145.271343129608
 30
0.0
 40
1.0
 50
180.0
 51
261.86989764584399
  0
ARC
  5
180
  8
1
 62
     7
 10
-134.88623648704819
 20
142.53675232621791
 30
0.0
 40
1.0
 50
0.0
 51
81.869897645845398
  0
ARC
  5
181
  8
1
 62
     7
 10
-139.88623648704811
 20
179.53675232621791
 30
0.0
 40
1.0000000000000191
 50
98.130102354156207
 51
180.0
  0
ARC
  5
182
  8
1
 62
     7
 10
-134.88623648704819
 20
182.271343129608
 30
0.0
 40
1.000000000000044
 50
278.13010235415442
 51
0.0
  0
ARC
  5
183
  8
1
 62
     7
 10
-35.88623648704818
 20
145.271343129608
 30
0.0
 40
1.0000000000000451
 50
278.13010235415481
 51
0.0
  0
ARC
  5
184
  8
1
 62
     7
 10
-40.88623648704818
 20
142.53675232621791
 30
0.0
 40
1.0000000000000191
 50
98.130102354156207
 51
180.0
  0
ARC
  5
185
  8
1
 62
     7
 10
-35.88623648704818
 20
179.53675232621791
 30
0.0
 40
1.0
 50
0.0
 51
81.869897645845015
  0
ARC
  5
186
  8
1
 62
     7
 10
-40.88623648704818
 20
182.271343129608
 30
0.0
 40
1.0
 50
180.0
 51
261.86989764584399
  0
ARC
  5
187
  8
1
 62
     7
 10
-139.88623648704811
 20
-11.02019145424603
 30
0.0
 40
1.0
 50
180.0
 51
261.86989764584359
  0
ARC
  5
188
  8
1
 62
     7
 10
-134.88623648704819
 20
-13.754782257636171
 30
0.0
 40
1.0
 50
0.0
 51
81.869897645845285
  0
ARC
  5
189
  8
1
 62
     7
 10
-139.88623648704811
 20
23.245217742363831
 30
0.0
 40
1.000000000000002
 50
98.130102354156392
 51
180.0
  0
ARC
  5
18A
  8
1
 62
     7
 10
-134.88623648704819
 20
25.979808545753961
 30
0.0
 40
0.9999999999999985
 50
278.13010235415459
 51
0.0
  0
ARC
  5
18B
  8
1
 62
     7
 10
-35.88623648704818
 20
-11.02019145424603
 30
0.0
 40
1.0000000000000011
 50
278.13010235415499
 51
0.0
  0
ARC
  5
18C
  8
1
 62
     7
 10
-40.88623648704818
 20
-13.754782257636171
 30
0.0
 40
1.0000000000000031
 50
98.130102354156335
 51
180.0
  0
ARC
  5
18D
  8
1
 62
     7
 10
-35.88623648704818
 20
23.245217742363831
 30
0.0
 40
1.0
 50
0.0
 51
81.869897645844858
  0
ARC
  5
18E
  8
1
 62
     7
 10
-40.88623648704818
 20
25.979808545753961
 30
0.0
 40
1.0
 50
180.0
 51
261.86989764584359
  0
ARC
  5
18F
  8
1
 62
     7
 10
-109.88623648704819
 20
200.404047727913
 30
0.0
 40
1.0
 50
270.0
 51
0.0
  0
ARC
  5
190
  8
1
 62
     7
 10
-107.88623648704819
 20
208.404047727913
 30
0.0
 40
1.0
 50
90.0
 51
180.0
  0
ARC
  5
191
  8
1
  6
CENTER
 62
     3
 10
150.41417988600401
 20
-49.887486855941098
 30
0.0
 40
1.0
 50
0.0
 51
90.0
  0
ARC
  5
192
  8
1
  6
CENTER
 62
     3
 10
82.414179886004106
 20
-49.887486855941098
 30
0.0
 40
1.0
 50
90.0
 51
180.0
  0
ARC
  5
193
  8
1
 62
     7
 10
81.414179886004106
 20
-33.303685343036761
 30
0.0
 40
3.0
 50
0.0
 51
67.97568716295784
  0
ARC
  5
194
  8
1
 62
     7
 10
103.41417988600401
 20
-41.387486855941098
 30
0.0
 40
2.0
 50
90.0
 51
180.0
  0
ARC
  5
195
  8
1
 62
     7
 10
129.41417988600401
 20
-41.387486855941098
 30
0.0
 40
2.0
 50
0.0
 51
90.0
  0
ARC
  5
196
  8
1
 62
     7
 10
151.41417988600401
 20
-33.303685343036761
 30
0.0
 40
2.9999999999999978
 50
112.0243128370421
 51
180.0
  0
ARC
  5
197
  8
1
 62
     7
 10
-128.88623648704819
 20
-31.887486855941091
 30
0.0
 40
1.0
 50
0.0
 51
90.0
  0
ARC
  5
198
  8
1
 62
     7
 10
78.414179886004106
 20
16.058660465759971
 30
0.0
 40
1.0000000000000031
 50
273.17010328106147
 51
0.0
  0
ARC
  5
199
  8
1
 62
     7
 10
70.414179886004106
 20
13.612513144058889
 30
0.0
 40
1.0000000000000051
 50
93.170103281062325
 51
266.82989671893762
  0
ARC
  5
19A
  8
1
 62
     7
 10
78.414179886004106
 20
11.166365822357831
 30
0.0
 40
1.0
 50
0.0
 51
86.829896718938443
  0
ARC
  5
19B
  8
1
 62
     7
 10
78.414179886004106
 20
23.55866046575996
 30
0.0
 40
1.0000000000000051
 50
273.17010328106147
 51
0.0
  0
ARC
  5
19C
  8
1
 62
     7
 10
70.414179886004106
 20
21.112513144058891
 30
0.0
 40
1.000000000000002
 50
93.170103281062325
 51
266.82989671893762
  0
ARC
  5
19D
  8
1
 62
     7
 10
78.414179886004106
 20
18.666365822357829
 30
0.0
 40
1.0
 50
0.0
 51
86.829896718938443
  0
ARC
  5
19E
  8
1
 62
     7
 10
78.414179886004106
 20
31.058660465759971
 30
0.0
 40
1.0000000000000051
 50
273.17010328106147
 51
0.0
  0
ARC
  5
19F
  8
1
 62
     7
 10
70.414179886004106
 20
28.612513144058902
 30
0.0
 40
1.000000000000002
 50
93.170103281062325
 51
266.82989671893762
  0
ARC
  5
1A0
  8
1
 62
     7
 10
78.414179886004106
 20
26.166365822357839
 30
0.0
 40
1.0
 50
0.0
 51
86.829896718938443
  0
ARC
  5
1A1
  8
1
 62
     7
 10
70.414179886004106
 20
36.112513144058902
 30
0.0
 40
1.000000000000002
 50
93.170103281062325
 51
266.82989671893762
  0
ARC
  5
1A2
  8
1
 62
     7
 10
78.414179886004106
 20
33.666365822357818
 30
0.0
 40
1.0
 50
0.0
 51
86.829896718938443
  0
ARC
  5
1A3
  8
1
 62
     7
 10
78.430859116837098
 20
38.559584249426841
 30
0.0
 40
0.9999999999999888
 50
273.17010328106232
 51
355.72682505954589
  0
ARC
  5
1A4
  8
1
 62
     7
 10
78.414179886004106
 20
-3.8336341776421712
 30
0.0
 40
1.0
 50
0.0
 51
86.829896718938443
  0
ARC
  5
1A5
  8
1
 62
     7
 10
70.414179886004106
 20
-1.3874868559411011
 30
0.0
 40
1.0000000000000051
 50
93.170103281062325
 51
266.82989671893762
  0
ARC
  5
1A6
  8
1
 62
     7
 10
78.414179886004106
 20
1.0586604657599661
 30
0.0
 40
1.0000000000000011
 50
273.17010328106147
 51
0.0
  0
ARC
  5
1A7
  8
1
 62
     7
 10
78.414179886004106
 20
-11.333634177642161
 30
0.0
 40
1.0
 50
0.0
 51
86.829896718938443
  0
ARC
  5
1A8
  8
1
 62
     7
 10
70.414179886004106
 20
-8.8874868559411038
 30
0.0
 40
1.0000000000000031
 50
93.170103281062325
 51
266.82989671893762
  0
ARC
  5
1A9
  8
1
 62
     7
 10
78.414179886004106
 20
-6.4413395342400372
 30
0.0
 40
0.9999999999999987
 50
273.17010328106147
 51
0.0
  0
ARC
  5
1AA
  8
1
 62
     7
 10
78.414179886004106
 20
-18.833634177642171
 30
0.0
 40
1.0
 50
0.0
 51
86.829896718938443
  0
ARC
  5
1AB
  8
1
 62
     7
 10
70.414179886004106
 20
-16.387486855941098
 30
0.0
 40
1.0000000000000131
 50
93.170103281062325
 51
266.82989671893762
  0
ARC
  5
1AC
  8
1
 62
     7
 10
78.414179886004106
 20
-13.941339534240029
 30
0.0
 40
0.9999999999999936
 50
273.17010328106147
 51
0.0
  0
ARC
  5
1AD
  8
1
 62
     7
 10
70.414179886004106
 20
-23.887486855941098
 30
0.0
 40
1.000000000000002
 50
93.170103281062325
 51
266.82989671893762
  0
ARC
  5
1AE
  8
1
 62
     7
 10
78.414179886004106
 20
-21.44133953424004
 30
0.0
 40
1.0000000000000011
 50
273.17010328106147
 51
0.0
  0
ARC
  5
1AF
  8
1
 62
     7
 10
78.430859116837098
 20
-26.334557961309049
 30
0.0
 40
1.0000000000000131
 50
4.2731749404539512
 51
86.829896718937619
  0
ARC
  5
1B0
  8
1
 62
     7
 10
154.41417988600401
 20
8.5586604657599707
 30
0.0
 40
1.0
 50
180.0
 51
266.82989671893841
  0
ARC
  5
1B1
  8
1
 62
     7
 10
162.41417988600409
 20
6.1125131440589016
 30
0.0
 40
1.0000000000000051
 50
273.17010328106312
 51
86.829896718936837
  0
ARC
  5
1B2
  8
1
 62
     7
 10
154.41417988600401
 20
3.666365822357835
 30
0.0
 40
0.9999999999999987
 50
93.170103281061571
 51
180.0
  0
ARC
  5
1B3
  8
1
 62
     7
 10
154.41417988600401
 20
16.058660465759971
 30
0.0
 40
1.0
 50
180.0
 51
266.82989671893841
  0
ARC
  5
1B4
  8
1
 62
     7
 10
162.41417988600409
 20
13.612513144058889
 30
0.0
 40
1.0000000000000031
 50
273.17010328106312
 51
86.829896718936837
  0
ARC
  5
1B5
  8
1
 62
     7
 10
154.41417988600401
 20
11.166365822357831
 30
0.0
 40
1.0000000000000011
 50
93.170103281061571
 51
180.0
  0
ARC
  5
1B6
  8
1
 62
     7
 10
154.41417988600401
 20
23.55866046575996
 30
0.0
 40
1.0
 50
180.0
 51
266.82989671893841
  0
ARC
  5
1B7
  8
1
 62
     7
 10
162.41417988600409
 20
21.112513144058891
 30
0.0
 40
1.0000000000000071
 50
273.17010328106312
 51
86.829896718936808
  0
ARC
  5
1B8
  8
1
 62
     7
 10
154.41417988600401
 20
18.666365822357829
 30
0.0
 40
0.9999999999999952
 50
93.170103281061571
 51
180.0
  0
ARC
  5
1B9
  8
1
 62
     7
 10
154.41417988600401
 20
31.058660465759971
 30
0.0
 40
1.0
 50
180.0
 51
266.82989671893841
  0
ARC
  5
1BA
  8
1
 62
     7
 10
162.41417988600409
 20
28.612513144058902
 30
0.0
 40
1.0000000000000071
 50
273.17010328106312
 51
86.829896718936808
  0
ARC
  5
1BB
  8
1
 62
     7
 10
154.41417988600401
 20
26.166365822357839
 30
0.0
 40
0.9999999999999952
 50
93.170103281061571
 51
180.0
  0
ARC
  5
1BC
  8
1
 62
     7
 10
162.41417988600409
 20
36.112513144058902
 30
0.0
 40
1.0000000000000031
 50
273.17010328106312
 51
86.829896718936808
  0
ARC
  5
1BD
  8
1
 62
     7
 10
154.41417988600401
 20
33.666365822357818
 30
0.0
 40
1.0000000000000011
 50
93.170103281061571
 51
180.0
  0
ARC
  5
1BE
  8
1
 62
     7
 10
154.397500655171
 20
38.559584249426841
 30
0.0
 40
1.0
 50
184.273174940454
 51
266.82989671893841
  0
ARC
  5
1BF
  8
1
 62
     7
 10
154.41417988600401
 20
-3.8336341776421712
 30
0.0
 40
1.000000000000002
 50
93.170103281061571
 51
180.0
  0
ARC
  5
1C0
  8
1
 62
     7
 10
162.41417988600409
 20
-1.3874868559411011
 30
0.0
 40
1.0000000000000031
 50
273.17010328106312
 51
86.829896718936837
  0
ARC
  5
1C1
  8
1
 62
     7
 10
154.41417988600401
 20
1.0586604657599661
 30
0.0
 40
1.0
 50
180.0
 51
266.82989671893841
  0
ARC
  5
1C2
  8
1
 62
     7
 10
154.41417988600401
 20
-11.333634177642161
 30
0.0
 40
1.0000000000000011
 50
93.170103281061571
 51
180.0
  0
ARC
  5
1C3
  8
1
 62
     7
 10
162.41417988600409
 20
-8.8874868559411038
 30
0.0
 40
1.0000000000000031
 50
273.17010328106312
 51
86.829896718936837
  0
ARC
  5
1C4
  8
1
 62
     7
 10
154.41417988600401
 20
-6.4413395342400372
 30
0.0
 40
1.0
 50
180.0
 51
266.82989671893841
  0
ARC
  5
1C5
  8
1
 62
     7
 10
154.41417988600401
 20
-18.833634177642171
 30
0.0
 40
0.9999999999999952
 50
93.170103281061571
 51
180.0
  0
ARC
  5
1C6
  8
1
 62
     7
 10
162.41417988600409
 20
-16.387486855941098
 30
0.0
 40
0.9999999999999966
 50
273.17010328106312
 51
86.829896718936837
  0
ARC
  5
1C7
  8
1
 62
     7
 10
154.41417988600401
 20
-13.941339534240029
 30
0.0
 40
1.0
 50
180.0
 51
266.82989671893841
  0
ARC
  5
1C8
  8
1
 62
     7
 10
162.41417988600409
 20
-23.887486855941098
 30
0.0
 40
0.9999999999999966
 50
273.17010328106312
 51
86.829896718936808
  0
ARC
  5
1C9
  8
1
 62
     7
 10
154.41417988600401
 20
-21.44133953424004
 30
0.0
 40
1.0
 50
180.0
 51
266.82989671893841
  0
ARC
  5
1CA
  8
1
 62
     7
 10
154.397500655171
 20
-26.334557961309049
 30
0.0
 40
0.9999999999999915
 50
93.170103281061571
 51
175.72682505954589
  0
ARC
  5
1CB
  8
1
 62
     7
 10
-107.38623648704819
 20
6.1125131440589016
 30
0.0
 40
1.5
 50
90.0
 51
270.0
  0
ARC
  5
1CC
  8
1
 62
     7
 10
-68.386236487048222
 20
6.1125131440589016
 30
0.0
 40
1.5
 50
270.0
 51
90.0
  0
ARC
  5
1CD
  8
1
 62
     7
 10
-107.38623648704819
 20
13.612513144058889
 30
0.0
 40
1.5
 50
90.0
 51
270.0
  0
ARC
  5
1CE
  8
1
 62
     7
 10
-68.386236487048222
 20
13.612513144058889
 30
0.0
 40
1.5
 50
270.0
 51
90.0
  0
ARC
  5
1CF
  8
1
 62
     7
 10
-107.38623648704819
 20
21.112513144058891
 30
0.0
 40
1.5
 50
90.0
 51
270.0
  0
ARC
  5
1D0
  8
1
 62
     7
 10
-68.386236487048222
 20
21.112513144058891
 30
0.0
 40
1.5
 50
270.0
 51
90.0
  0
ARC
  5
1D1
  8
1
 62
     7
 10
-107.38623648704819
 20
28.612513144058902
 30
0.0
 40
1.5
 50
90.0
 51
270.0
  0
ARC
  5
1D2
  8
1
 62
     7
 10
-68.386236487048222
 20
28.612513144058902
 30
0.0
 40
1.5
 50
270.0
 51
90.0
  0
ARC
  5
1D3
  8
1
 62
     7
 10
-107.38623648704819
 20
36.112513144058902
 30
0.0
 40
1.5
 50
90.0
 51
270.0
  0
ARC
  5
1D4
  8
1
 62
     7
 10
-68.386236487048222
 20
36.112513144058902
 30
0.0
 40
1.5
 50
270.0
 51
90.0
  0
ARC
  5
1D5
  8
1
 62
     7
 10
-107.38623648704819
 20
-1.3874868559410971
 30
0.0
 40
1.5
 50
90.0
 51
270.0
  0
ARC
  5
1D6
  8
1
 62
     7
 10
-68.386236487048222
 20
-1.3874868559410971
 30
0.0
 40
1.5
 50
270.0
 51
90.0
  0
ARC
  5
1D7
  8
1
 62
     7
 10
-107.38623648704819
 20
-8.8874868559410984
 30
0.0
 40
1.5
 50
90.0
 51
270.0
  0
ARC
  5
1D8
  8
1
 62
     7
 10
-68.386236487048222
 20
-8.8874868559410984
 30
0.0
 40
1.5000000000000011
 50
270.0
 51
90.0
  0
ARC
  5
1D9
  8
1
 62
     7
 10
-107.38623648704819
 20
-16.387486855941098
 30
0.0
 40
1.499999999999998
 50
90.0
 51
270.0
  0
ARC
  5
1DA
  8
1
 62
     7
 10
-68.386236487048222
 20
-16.387486855941098
 30
0.0
 40
1.5
 50
270.0
 51
90.0
  0
ARC
  5
1DB
  8
1
 62
     7
 10
-107.38623648704819
 20
-23.887486855941098
 30
0.0
 40
1.5
 50
90.0
 51
270.0
  0
ARC
  5
1DC
  8
1
 62
     7
 10
-68.386236487048222
 20
-23.887486855941098
 30
0.0
 40
1.5
 50
270.0
 51
90.0
  0
ARC
  5
1DD
  8
1
 62
     7
 10
-106.88623648704819
 20
33.612513144058902
 30
0.0
 40
1.0
 50
90.0
 51
180.0
  0
ARC
  5
1DE
  8
1
 62
     7
 10
-106.88623648704819
 20
31.112513144058902
 30
0.0
 40
1.0
 50
180.0
 51
270.0
  0
ARC
  5
1DF
  8
1
 62
     7
 10
-106.88623648704819
 20
26.112513144058902
 30
0.0
 40
1.0
 50
90.0
 51
180.0
  0
ARC
  5
1E0
  8
1
 62
     7
 10
-106.88623648704819
 20
23.612513144058902
 30
0.0
 40
1.0
 50
180.0
 51
270.0
  0
ARC
  5
1E1
  8
1
 62
     7
 10
-68.886236487048194
 20
33.612513144058902
 30
0.0
 40
1.0
 50
0.0
 51
90.0
  0
ARC
  5
1E2
  8
1
 62
     7
 10
-68.886236487048194
 20
31.112513144058902
 30
0.0
 40
1.0
 50
270.0
 51
0.0
  0
ARC
  5
1E3
  8
1
 62
     7
 10
-68.886236487048194
 20
26.112513144058902
 30
0.0
 40
1.0
 50
0.0
 51
90.0
  0
ARC
  5
1E4
  8
1
 62
     7
 10
-68.886236487048194
 20
23.612513144058902
 30
0.0
 40
1.0
 50
270.0
 51
0.0
  0
ARC
  5
1E5
  8
1
 62
     7
 10
-46.88623648704818
 20
-31.887486855941091
 30
0.0
 40
1.0
 50
90.0
 51
180.0
  0
ARC
  5
1E6
  8
1
 62
     7
 10
-65.886236487048222
 20
200.404047727913
 30
0.0
 40
1.0
 50
180.0
 51
270.0
  0
ARC
  5
1E7
  8
1
 62
     7
 10
-67.886236487048166
 20
208.404047727913
 30
0.0
 40
0.9999999999999857
 50
0.0
 51
90.0
  0
ARC
  5
1E8
  8
1
 62
     7
 10
-54.386236487047043
 20
120.4040477279127
 30
0.0
 40
2.749999999999976
 50
78.38319521990816
 51
78.906821007580405
  0
ARC
  5
1E9
  8
1
 62
     7
 10
-24.786236487048299
 20
124.404047727913
 30
0.0
 40
30.899999999999881
 50
180.0
 51
210.0
  0
ARC
  5
1EA
  8
1
 62
     7
 10
-24.786236487048299
 20
124.404047727913
 30
0.0
 40
29.099999999999891
 50
180.0
 51
209.9999999999996
  0
ARC
  5
1EB
  8
1
 62
     7
 10
-37.98623648704821
 20
124.404047727913
 30
0.0
 40
15.899999999999981
 50
180.0
 51
241.362359208546
  0
ARC
  5
1EC
  8
1
 62
     7
 10
-37.98623648704821
 20
124.404047727913
 30
0.0
 40
14.10000000000003
 50
180.0
 51
241.362359208546
  0
ARC
  5
1ED
  8
1
  6
CENTER
 62
     3
 10
-57.886236487048187
 20
117.4040477279129
 30
0.0
 40
4.2500000000000444
 50
55.653428248725412
 51
328.2285535578801
  0
ARC
  5
1EE
  8
1
 62
     7
 10
-65.886236487048194
 20
124.404047727913
 30
0.0
 40
1.0
 50
90.0
 51
180.0
  0
ARC
  5
1EF
  8
1
 62
     7
 10
-67.886236487048194
 20
116.4040477279129
 30
0.0
 40
1.0
 50
270.0
 51
0.0
  0
ARC
  5
1F0
  8
1
  6
CENTER
 62
     3
 10
-122.88623648704819
 20
114.4040477279129
 30
0.0
 40
5.0000000000000178
 50
258.15669792180711
 51
270.0
  0
ARC
  5
1F1
  8
1
  6
CENTER
 62
     3
 10
-122.88623648704819
 20
114.4040477279129
 30
0.0
 40
5.0000000000000613
 50
204.46808323850911
 51
237.27168502526021
  0
ARC
  5
1F2
  8
1
 62
     7
 10
-132.88623648704819
 20
126.404047727913
 30
0.0
 40
1.0
 50
180.0
 51
270.0
  0
ARC
  5
1F3
  8
1
  6
CENTER
 62
     3
 10
-112.88623648704819
 20
114.4040477279129
 30
0.0
 40
5.0
 50
270.0
 51
0.0
  0
ARC
  5
1F4
  8
1
 62
     7
 10
-122.88623648704819
 20
114.4040477279129
 30
0.0
 40
5.0
 50
180.0
 51
180.45567122119641
  0
ARC
  5
1F5
  8
1
 62
     7
 10
110.014179886004
 20
0.0277473528354904
 30
0.0
 40
2.200000000000002
 50
0.0
 51
47.089815978324893
  0
ARC
  5
1F6
  8
1
 62
     7
 10
114.114179886004
 20
-0.9465136221169315
 30
0.0
 40
1.899999999999991
 50
180.0
 51
270.0
  0
ARC
  5
1F7
  8
1
 62
     7
 10
118.714179886004
 20
-0.9465136221169315
 30
0.0
 40
1.899999999999997
 50
270.0
 51
0.0
  0
ARC
  5
1F8
  8
1
 62
     7
 10
122.814179886004
 20
0.0277473528354904
 30
0.0
 40
2.1999999999999842
 50
132.91018402167521
 51
180.0
  0
ARC
  5
1F9
  8
1
 62
     7
 10
-132.88623648704819
 20
198.404047727913
 30
0.0
 40
1.0
 50
90.0
 51
180.0
  0
ARC
  5
1FA
  8
1
 62
     7
 10
-132.88623648704819
 20
-29.887486855941098
 30
0.0
 40
1.0
 50
180.0
 51
270.0
  0
ARC
  5
1FB
  8
1
 62
     7
 10
-132.88623648704819
 20
42.112513144058902
 30
0.0
 40
1.0
 50
90.0
 51
180.0
  0
ARC
  5
1FC
  8
1
 62
     7
 10
-42.886236487048187
 20
42.112513144058902
 30
0.0
 40
1.0
 50
0.0
 51
90.0
  0
ARC
  5
1FD
  8
1
  6
CENTER
 62
     3
 10
-112.88623648704819
 20
210.404047727913
 30
0.0
 40
5.0
 50
0.0
 51
90.0
  0
ARC
  5
1FE
  8
1
  6
CENTER
 62
     3
 10
-122.88623648704819
 20
210.404047727913
 30
0.0
 40
5.0
 50
90.0
 51
180.0
  0
ARC
  5
1FF
  8
1
 62
     7
 10
148.41417988600401
 20
38.112513144058902
 30
0.0
 40
5.0
 50
0.0
 51
90.0
  0
ARC
  5
200
  8
1
 62
     7
 10
84.414179886004106
 20
38.112513144058902
 30
0.0
 40
5.0
 50
90.0
 51
180.0
  0
ARC
  5
201
  8
1
 62
     7
 10
84.414179886004106
 20
-25.887486855941098
 30
0.0
 40
5.0
 50
180.0
 51
270.0
  0
ARC
  5
202
  8
1
 62
     7
 10
148.41417988600401
 20
-25.887486855941098
 30
0.0
 40
5.0
 50
270.0
 51
0.0
  0
ARC
  5
203
  8
1
 62
     7
 10
-42.886236487048187
 20
-29.887486855941098
 30
0.0
 40
1.0
 50
270.0
 51
0.0
  0
ARC
  5
204
  8
1
 62
     7
 10
-42.886236487048173
 20
198.404047727913
 30
0.0
 40
0.9999999999999857
 50
0.0
 51
90.0
  0
ARC
  5
205
  8
1
  6
CENTER
 62
     3
 10
-62.88623648704818
 20
210.404047727913
 30
0.0
 40
5.0
 50
90.0
 51
180.0
  0
ARC
  5
206
  8
1
  6
CENTER
 62
     3
 10
-52.88623648704818
 20
210.404047727913
 30
0.0
 40
5.0
 50
0.0
 51
90.0
  0
ARC
  5
207
  8
1
  6
CENTER
 62
     3
 10
-52.886236487048187
 20
114.4040477279129
 30
0.0
 40
5.0
 50
270.0
 51
281.84330207819261
  0
ARC
  5
208
  8
1
  6
CENTER
 62
     3
 10
-52.886236487048187
 20
114.4040477279129
 30
0.0
 40
5.0000000000000231
 50
302.72831497473948
 51
335.53191676149061
  0
ARC
  5
209
  8
1
 62
     7
 10
-42.886236487048187
 20
126.404047727913
 30
0.0
 40
1.0
 50
270.0
 51
0.0
  0
ARC
  5
20A
  8
1
  6
CENTER
 62
     3
 10
-62.886236487048187
 20
114.4040477279129
 30
0.0
 40
5.0000000000000062
 50
180.0
 51
270.0
  0
ARC
  5
20B
  8
1
 62
     7
 10
-52.88623648704818
 20
114.4040477279149
 30
0.0
 40
4.9999999999999929
 50
359.5443287787819
 51
359.99999999997812
  0
CIRCLE
  5
20C
  8
1
 62
     7
 10
-121.88623648704819
 20
6.1125131440589087
 30
0.0
 40
3.5
  0
CIRCLE
  5
20D
  8
1
 62
     7
 10
-122.7862364870482
 20
6.1125131440589087
 30
0.0
 40
0.9000000000000056
  0
CIRCLE
  5
20E
  8
1
 62
     7
 10
-120.9862364870482
 20
6.1125131440589087
 30
0.0
 40
0.9000000000000056
  0
CIRCLE
  5
20F
  8
1
 62
     7
 10
-53.886236487048208
 20
6.1125131440589087
 30
0.0
 40
3.5000000000000711
  0
CIRCLE
  5
210
  8
1
 62
     7
 10
-52.986236487048217
 20
6.1125131440589087
 30
0.0
 40
0.8999999999999772
  0
CIRCLE
  5
211
  8
1
 62
     7
 10
-54.786236487048249
 20
6.1125131440589087
 30
0.0
 40
0.9000000000000483
  0
CIRCLE
  5
212
  8
1
 62
     7
 10
114.1724163746032
 20
-1.1508006328798861
 30
0.0
 40
0.8999999999999914
  0
CIRCLE
  5
213
  8
1
 62
     7
 10
118.6559433974049
 20
-1.1508006328798861
 30
0.0
 40
0.9000000000000056
  0
CIRCLE
  5
214
  8
1
 62
     7
 10
139.91417988600401
 20
6.1125131440589016
 30
0.0
 40
2.9000000000000061
  0
CIRCLE
  5
215
  8
1
 62
     7
 10
116.41417988600401
 20
-17.387486855941091
 30
0.0
 40
2.899999999999991
  0
CIRCLE
  5
216
  8
1
 62
     7
 10
92.914179886004135
 20
6.1125131440589016
 30
0.0
 40
2.9000000000000061
  0
CIRCLE
  5
217
  8
1
 62
     7
 10
116.41417988600401
 20
29.612513144058902
 30
0.0
 40
2.899999999999991
  0
CIRCLE
  5
218
  8
1
 62
     7
 10
116.41417988600401
 20
6.1125131440589016
 30
0.0
 40
15.749999999999989
  0
CIRCLE
  5
219
  8
1
 62
     7
 10
116.41417988600401
 20
6.1125131440589016
 30
0.0
 40
18.999999999999979
  0
CIRCLE
  5
21A
  8
1
 62
     7
 10
116.41417988600401
 20
6.1125131440589016
 30
0.0
 40
17.999999999999979
  0
CIRCLE
  5
21B
  8
1
 62
     7
 10
144.69845113346591
 20
-22.171758103403
 30
0.0
 40
5.0
  0
CIRCLE
  5
21C
  8
1
 62
     7
 10
88.12990863854219
 20
-22.171758103402979
 30
0.0
 40
5.0
  0
CIRCLE
  5
21D
  8
1
 62
     7
 10
88.129908638542219
 20
34.396784391520796
 30
0.0
 40
5.0
  0
CIRCLE
  5
21E
  8
1
 62
     7
 10
144.69845113346591
 20
34.396784391520782
 30
0.0
 40
5.0
  0
CIRCLE
  5
21F
  8
1
  6
CENTER
 62
     3
 10
-117.88623648704819
 20
207.404047727913
 30
0.0
 40
4.25
  0
CIRCLE
  5
220
  8
1
  6
CENTER
 62
     3
 10
-57.886236487048173
 20
207.404047727913
 30
0.0
 40
4.2499999999999929
  0
CIRCLE
  5
221
  8
1
  6
DASHED
 62
     7
 10
-57.886236487048201
 20
187.404047727913
 30
0.0
 40
3.1999999999999882
  0
CIRCLE
  5
222
  8
1
  6
DASHED
 62
     3
 10
-57.886236487048201
 20
187.404047727913
 30
0.0
 40
4.0
  0
CIRCLE
  5
223
  8
1
  6
DASHED
 62
     7
 10
-57.886236487048201
 20
137.40404772791291
 30
0.0
 40
3.1999999999999882
  0
CIRCLE
  5
224
  8
1
  6
DASHED
 62
     3
 10
-57.886236487048201
 20
137.40404772791291
 30
0.0
 40
4.0
  0
CIRCLE
  5
225
  8
1
  6
DASHED
 62
     7
 10
-117.88623648704819
 20
187.404047727913
 30
0.0
 40
3.1999999999999882
  0
CIRCLE
  5
226
  8
1
  6
DASHED
 62
     3
 10
-117.88623648704819
 20
187.404047727913
 30
0.0
 40
4.0
  0
CIRCLE
  5
227
  8
1
  6
DASHED
 62
     7
 10
-117.88623648704819
 20
137.40404772791291
 30
0.0
 40
3.1999999999999882
  0
CIRCLE
  5
228
  8
1
  6
DASHED
 62
     3
 10
-117.88623648704819
 20
137.40404772791291
 30
0.0
 40
4.0
  0
TEXT
  5
229
  8
1
 62
     3
 10
86.914179886004106
 20
-37.887486855941091
 30
0.0
 40
5.0
  1
INPUT
 41
0.8732690999999999
  7
COMPLEX
  0
TEXT
  5
22A
  8
1
 62
     7
 10
-95.827668614069296
 20
78.669572879437283
 30
0.0
 40
5.0
  1
MP 40
 41
0.9
  7
SIMPLEX
  0
ENDSEC
  0
EOF
