  0
SECTION
  2
HEADER
  9
$ACADVER
  1
AC1009
  9
$INSBASE
 10
0.0
 20
0.0
 30
0.0
  9
$EXTMIN
 10
-17.318540362545701
 20
14.478046358199011
 30
0.0
  9
$EXTMAX
 10
250.16587982488801
 20
233.24794551211701
 30
0.0
  9
$LIMMIN
 10
-17.318540362545701
 20
14.478046358199011
  9
$LIMMAX
 10
250.16587982488801
 20
232.83373194974391
  9
$ORTHOMODE
 70
     0
  9
$REGENMODE
 70
     1
  9
$FILLMODE
 70
     1
  9
$QTEXTMODE
 70
     0
  9
$MIRRTEXT
 70
     1
  9
$DRAGMODE
 70
     2
  9
$LTSCALE
 40
1.0
  9
$OSMODE
 70
    37
  9
$ATTMODE
 70
     1
  9
$TEXTSIZE
 40
3.5
  9
$TRACEWID
 40
0.5
  9
$TEXTSTYLE
  7
STANDARD
  9
$CLAYER
  8
0
  9
$CELTYPE
  6
BYLAYER
  9
$CECOLOR
 62
   256
  9
$DIMSCALE
 40
1.0
  9
$DIMASZ
 40
0.18
  9
$DIMEXO
 40
0.0625
  9
$DIMDLI
 40
0.38
  9
$DIMRND
 40
0.0
  9
$DIMDLE
 40
0.0
  9
$DIMEXE
 40
0.18
  9
$DIMTP
 40
0.0
  9
$DIMTM
 40
0.0
  9
$DIMTXT
 40
0.18
  9
$DIMCEN
 40
0.09
  9
$DIMTSZ
 40
0.0
  9
$DIMTOL
 70
     0
  9
$DIMLIM
 70
     0
  9
$DIMTIH
 70
     1
  9
$DIMTOH
 70
     1
  9
$DIMSE1
 70
     0
  9
$DIMSE2
 70
     0
  9
$DIMTAD
 70
     0
  9
$DIMZIN
 70
     0
  9
$DIMBLK
  1

  9
$DIMASO
 70
     1
  9
$DIMSHO
 70
     1
  9
$DIMPOST
  1

  9
$DIMAPOST
  1

  9
$DIMALT
 70
     0
  9
$DIMALTD
 70
     2
  9
$DIMALTF
 40
25.399999999999999
  9
$DIMLFAC
 40
1.0
  9
$DIMTOFL
 70
     0
  9
$DIMTVP
 40
0.0
  9
$DIMTIX
 70
     0
  9
$DIMSOXD
 70
     0
  9
$DIMSAH
 70
     0
  9
$DIMBLK1
  1

  9
$DIMBLK2
  1

  9
$DIMSTYLE
  2
STANDARD
  9
$DIMCLRD
 70
     0
  9
$DIMCLRE
 70
     0
  9
$DIMCLRT
 70
     0
  9
$DIMTFAC
 40
1.0
  9
$DIMGAP
 40
0.09
  9
$LUNITS
 70
     2
  9
$LUPREC
 70
     4
  9
$SKETCHINC
 40
0.1
  9
$FILLETRAD
 40
2.0
  9
$AUNITS
 70
     0
  9
$AUPREC
 70
     0
  9
$MENU
  1
ACAD
  9
$ELEVATION
 40
0.0
  9
$PELEVATION
 40
0.0
  9
$THICKNESS
 40
0.0
  9
$LIMCHECK
 70
     0
  9
$BLIPMODE
 70
     0
  9
$CHAMFERA
 40
0.0
  9
$CHAMFERB
 40
0.0
  9
$SKPOLY
 70
     0
  9
$TDCREATE
 40
2452094.9097714121
  9
$TDUPDATE
 40
2452094.9104370368
  9
$TDINDWG
 40
0.0006833333
  9
$TDUSRTIMER
 40
0.0006833333
  9
$USRTIMER
 70
     1
  9
$ANGBASE
 50
0.0
  9
$ANGDIR
 70
     0
  9
$PDMODE
 70
     0
  9
$PDSIZE
 40
0.0
  9
$PLINEWID
 40
0.0
  9
$COORDS
 70
     1
  9
$SPLFRAME
 70
     0
  9
$SPLINETYPE
 70
     6
  9
$SPLINESEGS
 70
     8
  9
$ATTDIA
 70
     0
  9
$ATTREQ
 70
     1
  9
$HANDLING
 70
 10241
  9
$HANDSEED
  5
22D
  9
$SURFTAB1
 70
     6
  9
$SURFTAB2
 70
     6
  9
$SURFTYPE
 70
     6
  9
$SURFU
 70
     6
  9
$SURFV
 70
     6
  9
$UCSNAME
  2

  9
$UCSORG
 10
0.0
 20
0.0
 30
0.0
  9
$UCSXDIR
 10
1.0
 20
0.0
 30
0.0
  9
$UCSYDIR
 10
0.0
 20
1.0
 30
0.0
  9
$PUCSNAME
  2

  9
$PUCSORG
 10
0.0
 20
0.0
 30
0.0
  9
$PUCSXDIR
 10
1.0
 20
0.0
 30
0.0
  9
$PUCSYDIR
 10
0.0
 20
1.0
 30
0.0
  9
$USERI1
 70
     0
  9
$USERI2
 70
     0
  9
$USERI3
 70
     0
  9
$USERI4
 70
     0
  9
$USERI5
 70
     0
  9
$USERR1
 40
0.0
  9
$USERR2
 40
0.0
  9
$USERR3
 40
0.0
  9
$USERR4
 40
0.0
  9
$USERR5
 40
0.0
  9
$WORLDVIEW
 70
     1
  9
$SHADEDGE
 70
     3
  9
$SHADEDIF
 70
    70
  9
$TILEMODE
 70
     1
  9
$MAXACTVP
 70
    64
  9
$PLIMCHECK
 70
     0
  9
$PEXTMIN
 10
1.0000000000000000E+020
 20
1.0000000000000000E+020
 30
1.0000000000000000E+020
  9
$PEXTMAX
 10
-1.0000000000000000E+020
 20
-1.0000000000000000E+020
 30
-1.0000000000000000E+020
  9
$PLIMMIN
 10
0.0
 20
0.0
  9
$PLIMMAX
 10
12.0
 20
9.0
  9
$UNITMODE
 70
     0
  9
$VISRETAIN
 70
     1
  9
$PLINEGEN
 70
     0
  9
$PSLTSCALE
 70
     1
  0
ENDSEC
  0
SECTION
  2
TABLES
  0
TABLE
  2
VPORT
 70
     2
  0
VPORT
  2
*ACTIVE
 70
     0
 10
0.0
 20
0.0
 11
1.0
 21
1.0
 12
33.703562142252082
 22
101.638946631596
 13
0.0
 23
0.0
 14
1.0
 24
1.0
 15
0.0
 25
0.0
 16
0.0
 26
0.0
 36
1.0
 17
0.0
 27
0.0
 37
0.0
 40
8.9999997605013942
 41
2.4144144144144142
 42
50.0
 43
0.0
 44
0.0
 50
0.0
 51
0.0
 71
     0
 72
   100
 73
     1
 74
     1
 75
     0
 76
     0
 77
     0
 78
     0
  0
ENDTAB
  0
TABLE
  2
LTYPE
 70
     9
  0
LTYPE
  2
CONTINUOUS
 70
     0
  3
Solid line
 72
    65
 73
     0
 40
0.0
  0
LTYPE
  2
BORDER
 70
     0
  3
__ __ . __ __ .
 72
    65
 73
     6
 40
12.318361456000231
 49
3.519531844571496
 49
-1.759765922285748
 49
3.519531844571496
 49
-1.759765922285748
 49
0.0
 49
-1.759765922285748
  0
LTYPE
  2
CENTER
 70
     0
  3
____ _ ____ _
 72
    65
 73
     4
 40
14.078127378285981
 49
8.7988296114287419
 49
-1.759765922285748
 49
1.759765922285748
 49
-1.759765922285748
  0
LTYPE
  2
DASHDOT
 70
     0
  3
__ . __ . __ .
 72
    65
 73
     4
 40
7.0390636891429921
 49
3.519531844571496
 49
-1.759765922285748
 49
0.0
 49
-1.759765922285748
  0
LTYPE
  2
DASHED
 70
     0
  3
__ __ __ __ __
 72
    65
 73
     2
 40
5.2792977668572441
 49
3.519531844571496
 49
-1.759765922285748
  0
LTYPE
  2
DIVIDE
 70
     0
  3
__ . . __ . . 
 72
    65
 73
     6
 40
8.7988296114287419
 49
3.519531844571496
 49
-1.759765922285748
 49
0.0
 49
-1.759765922285748
 49
0.0
 49
-1.759765922285748
  0
LTYPE
  2
DOT
 70
     0
  3
..............
 72
    65
 73
     4
 40
3.519531844571496
 49
0.0
 49
-1.759765922285748
 49
0.0
 49
-1.759765922285748
  0
LTYPE
  2
HIDDEN
 70
     0
  3
_ _ _ _ _ _ _
 72
    65
 73
     2
 40
2.639648883428622
 49
1.759765922285748
 49
-0.8798829611428741
  0
LTYPE
  2
PHANTOM
 70
     0
  3
_____ _ _ _____ _ _ 
 72
    65
 73
     6
 40
17.59765922285748
 49
8.7988296114287419
 49
-1.759765922285748
 49
1.759765922285748
 49
-1.759765922285748
 49
1.759765922285748
 49
-1.759765922285748
  0
ENDTAB
  0
TABLE
  2
LAYER
 70
     2
  0
LAYER
  2
0
 70
     0
 62
     7
  6
CONTINUOUS
  0
LAYER
  2
1
 70
     0
 62
     7
  6
CONTINUOUS
  0
ENDTAB
  0
TABLE
  2
STYLE
 70
     4
  0
STYLE
  2
STANDARD
 70
     0
 40
0.0
 41
1.0
 50
0.0
 71
     0
 42
3.5
  3
txt
  4

  0
STYLE
  2
SIMPLEX
 70
     0
 40
0.0
 41
1.0
 50
0.0
 71
     0
 42
3.5
  3
simplex
  4

  0
STYLE
  2
COMPLEX
 70
     0
 40
0.0
 41
1.0
 50
0.0
 71
     0
 42
3.5
  3
complex
  4

  0
STYLE
  2
ITALIC
 70
     0
 40
0.0
 41
1.0
 50
0.0
 71
     0
 42
3.5
  3
italic
  4

  0
ENDTAB
  0
TABLE
  2
VIEW
 70
     0
  0
ENDTAB
  0
TABLE
  2
UCS
 70
     0
  0
ENDTAB
  0
TABLE
  2
APPID
 70
     1
  0
APPID
  2
ACAD
 70
     0
  0
ENDTAB
  0
TABLE
  2
DIMSTYLE
 70
     1
  0
DIMSTYLE
  2
STANDARD
 70
     0
  3

  4

  5

  6

  7

 40
1.0
 41
0.18
 42
0.0625
 43
0.38
 44
0.18
 45
0.0
 46
0.0
 47
0.0
 48
0.0
140
0.18
141
0.09
142
0.0
143
25.399999999999999
144
1.0
145
0.0
146
1.0
147
0.09
 71
     0
 72
     0
 73
     1
 74
     1
 75
     0
 76
     0
 77
     0
 78
     0
170
     0
171
     2
172
     0
173
     0
174
     0
175
     0
176
     0
177
     0
178
     0
  0
ENDTAB
  0
ENDSEC
  0
SECTION
  2
BLOCKS
  0
BLOCK
  8
0
  2
$MODEL_SPACE
 70
     0
 10
0.0
 20
0.0
 30
0.0
  3
$MODEL_SPACE
  1

  0
ENDBLK
  5
20
  8
0
  0
BLOCK
 67
     1
  8
0
  2
$PAPER_SPACE
 70
     0
 10
0.0
 20
0.0
 30
0.0
  3
$PAPER_SPACE
  1

  0
ENDBLK
  5
1C
 67
     1
  8
0
  0
ENDSEC
  0
SECTION
  2
ENTITIES
  0
LINE
  5
33
  8
1
 62
     3
 10
14.062221750987501
 20
154.83373194974391
 30
0.0
 11
12.562221750987501
 21
152.23565573839051
 31
0.0
  0
LINE
  5
34
  8
1
 62
     3
 10
5.8374829759693023
 20
155.23090169876491
 30
0.0
 11
8.4704878958300824
 21
156.66870735044009
 31
0.0
  0
LINE
  5
35
  8
1
 62
     7
 10
13.28279888758148
 20
155.28373194974401
 30
0.0
 11
14.841644614393459
 21
154.3837319497438
 31
0.0
  0
LINE
  5
36
  8
1
 62
     7
 10
8.9018295913325982
 20
155.87880587448191
 30
0.0
 11
8.0391462003275223
 21
157.45860882639829
 31
0.0
  0
LINE
  5
37
  8
1
 62
     3
 10
12.9519331826905
 20
152.0106557383906
 30
0.0
 11
14.451933182690469
 21
154.60873194974391
 31
0.0
  0
LINE
  5
38
  8
1
 62
     3
 10
13.67251031928447
 20
155.0587319497439
 30
0.0
 11
12.172510319284511
 21
152.4606557383905
 31
0.0
  0
LINE
  5
39
  8
1
 62
     3
 10
5.6218121282180462
 20
155.62585243674411
 30
0.0
 11
8.2548170480788272
 21
157.06365808841909
 31
0.0
  0
LINE
  5
3A
  8
1
 62
     3
 10
8.6861587435813377
 20
156.273756612461
 30
0.0
 11
6.0531538237205851
 21
154.83595096078591
 31
0.0
  0
LINE
  5
3B
  8
1
 62
     3
 10
62.800697523921109
 20
152.23565573839051
 30
0.0
 11
61.300697523921109
 21
154.83373194974391
 31
0.0
  0
LINE
  5
3C
  8
1
 62
     3
 10
66.892431379078531
 20
156.66870735044009
 30
0.0
 11
69.525436298939312
 21
155.23090169876491
 31
0.0
  0
LINE
  5
3D
  8
1
 62
     3
 10
169.56780361353461
 20
46.042679633323672
 30
0.0
 11
172.16587982488801
 21
47.542679633323651
 31
0.0
  0
LINE
  5
3E
  8
1
 62
     3
 10
174.0008552255841
 20
43.750945778166219
 30
0.0
 11
172.5630495739089
 21
41.117940858305452
 31
0.0
  0
LINE
  5
3F
  8
1
 62
     3
 10
174.39580596356319
 20
43.535274930414957
 30
0.0
 11
172.95800031188799
 21
40.902270010554183
 31
0.0
  0
LINE
  5
40
  8
1
 62
     3
 10
172.16809883592981
 20
41.333611706056743
 30
0.0
 11
173.60590448760499
 21
43.966616625917503
 31
0.0
  0
LINE
  5
41
  8
1
 62
     7
 10
174.79075670154239
 20
43.319604082663709
 30
0.0
 11
173.21095374962579
 21
44.182287473668787
 31
0.0
  0
LINE
  5
42
  8
1
 62
     3
 10
171.94087982488799
 20
47.932391065026628
 30
0.0
 11
169.34280361353461
 21
46.432391065026628
 31
0.0
  0
LINE
  5
43
  8
1
 62
     3
 10
169.7928036135346
 20
45.652968201620652
 30
0.0
 11
172.390879824888
 21
47.152968201620638
 31
0.0
  0
LINE
  5
44
  8
1
 62
     7
 10
171.71587982488791
 20
48.322102496729642
 30
0.0
 11
172.615879824888
 21
46.76325676991766
 31
0.0
  0
LINE
  5
45
  8
1
 62
     3
 10
172.16587982488801
 20
55.581155406257352
 30
0.0
 11
169.56780361353461
 21
57.081155406257317
 31
0.0
  0
LINE
  5
46
  8
1
 62
     3
 10
172.5630495739089
 20
62.005894181275529
 30
0.0
 11
174.0008552255841
 21
59.372889261414763
 31
0.0
  0
LINE
  5
47
  8
1
 62
     3
 10
172.95800031188799
 20
62.221565029026813
 30
0.0
 11
174.39580596356319
 21
59.588560109166032
 31
0.0
  0
LINE
  5
48
  8
1
 62
     3
 10
173.60590448760499
 20
59.157218413663493
 30
0.0
 11
172.16809883592981
 21
61.790223333524239
 31
0.0
  0
LINE
  5
49
  8
1
 62
     7
 10
173.21095374962579
 20
58.941547565912202
 30
0.0
 11
174.79075670154239
 21
59.804230956917287
 31
0.0
  0
LINE
  5
4A
  8
1
 62
     3
 10
169.34280361353461
 20
56.69144397455436
 30
0.0
 11
171.94087982488799
 21
55.19144397455436
 31
0.0
  0
LINE
  5
4B
  8
1
 62
     3
 10
172.390879824888
 20
55.970866837960351
 30
0.0
 11
169.7928036135346
 21
57.470866837960351
 31
0.0
  0
LINE
  5
4C
  8
1
 62
     7
 10
172.615879824888
 20
56.360578269663343
 30
0.0
 11
171.71587982488791
 21
54.801732542851347
 31
0.0
  0
LINE
  5
4D
  8
1
  6
CENTER
 62
     3
 10
221.66587982488801
 20
21.061917519790502
 30
0.0
 11
206.66587982488801
 21
21.061917519790502
 31
0.0
  0
LINE
  5
4E
  8
1
 62
     7
 10
235.16587982488801
 20
21.061917519790502
 30
0.0
 11
221.66587982488801
 21
21.061917519790502
 31
0.0
  0
LINE
  5
4F
  8
1
  6
CENTER
 62
     3
 10
193.16587982488801
 20
21.061917519790502
 30
0.0
 11
178.16587982488801
 21
21.061917519790502
 31
0.0
  0
LINE
  5
50
  8
1
 62
     7
 10
206.66587982488801
 20
21.061917519790502
 30
0.0
 11
193.16587982488801
 21
21.061917519790502
 31
0.0
  0
LINE
  5
51
  8
1
  6
CENTER
 62
     3
 10
62.68145963745431
 20
21.061917519790502
 30
0.0
 11
62.681459637454303
 21
16.061917519790491
 31
0.0
  0
LINE
  5
52
  8
1
  6
CENTER
 62
     3
 10
12.68145963745431
 20
21.061917519790502
 30
0.0
 11
12.681459637454291
 21
16.061917519790491
 31
0.0
  0
LINE
  5
53
  8
1
  6
CENTER
 62
     3
 10
60.681459637454303
 20
160.83373194974391
 30
0.0
 11
59.608187333659068
 21
160.83373194974391
 31
0.0
  0
LINE
  5
54
  8
1
 62
     7
 10
54.681459637454303
 20
169.83373194974391
 30
0.0
 11
54.681459637454303
 21
170.83373194974391
 31
0.0
  0
LINE
  5
55
  8
1
 62
     7
 10
61.68145963745431
 20
170.83373194974391
 30
0.0
 11
61.68145963745431
 21
169.83373194974391
 31
0.0
  0
LINE
  5
56
  8
1
 62
     7
 10
60.521274660515118
 20
154.3837319497438
 30
0.0
 11
62.080120387327113
 21
155.28373194974401
 31
0.0
  0
LINE
  5
57
  8
1
 62
     7
 10
67.323773074581069
 20
157.45860882639829
 30
0.0
 11
66.461089683575992
 21
155.87880587448191
 31
0.0
  0
LINE
  5
58
  8
1
 62
     7
 10
54.681459637454303
 20
169.83373194974391
 30
0.0
 11
61.68145963745431
 21
169.83373194974391
 31
0.0
  0
LINE
  5
59
  8
1
 62
     3
 10
60.91098609221811
 20
154.60873194974391
 30
0.0
 11
62.41098609221811
 21
152.0106557383906
 31
0.0
  0
LINE
  5
5A
  8
1
 62
     3
 10
63.190408955624108
 20
152.4606557383905
 30
0.0
 11
61.690408955624108
 21
155.0587319497439
 31
0.0
  0
LINE
  5
5B
  8
1
 62
     3
 10
67.108102226829786
 20
157.06365808841909
 30
0.0
 11
69.741107146690567
 21
155.62585243674411
 31
0.0
  0
LINE
  5
5C
  8
1
 62
     3
 10
69.309765451188014
 20
154.83595096078591
 30
0.0
 11
66.67676053132729
 21
156.273756612461
 31
0.0
  0
LINE
  5
5D
  8
1
  6
CENTER
 62
     3
 10
52.681459637454282
 20
162.83373194974391
 30
0.0
 11
52.681459637454282
 21
170.83373194974391
 31
0.0
  0
LINE
  5
5E
  8
1
  6
CENTER
 62
     3
 10
57.721182236861438
 20
160.83373194974391
 30
0.0
 11
54.681459637454282
 21
160.83373194974391
 31
0.0
  0
LINE
  5
5F
  8
1
  6
CENTER
 62
     3
 10
62.681459637454303
 20
170.83373194974391
 30
0.0
 11
62.681459637454303
 21
162.83373194974391
 31
0.0
  0
LINE
  5
60
  8
1
  6
DASHDOT
 62
     3
 10
53.923194512865102
 20
165.83373194974391
 30
0.0
 11
61.439724762043468
 21
165.83373194974391
 31
0.0
  0
LINE
  5
61
  8
1
  6
DASHDOT
 62
     3
 10
57.681459637454303
 20
169.59199707433311
 30
0.0
 11
57.681459637454303
 21
162.07546682515479
 31
0.0
  0
LINE
  5
62
  8
1
 62
     7
 10
65.88145963745427
 20
171.83373194974391
 30
0.0
 11
63.681459637454303
 21
171.83373194974391
 31
0.0
  0
LINE
  5
63
  8
1
  6
CENTER
 62
     3
 10
15.754731941249529
 20
160.83373194974391
 30
0.0
 11
14.681459637454291
 21
160.83373194974391
 31
0.0
  0
LINE
  5
64
  8
1
 62
     7
 10
211.76587982488789
 20
46.876955208470633
 30
0.0
 11
211.76587982488789
 21
47.967326879408269
 31
0.0
  0
LINE
  5
65
  8
1
 62
     7
 10
212.66587982488801
 20
45.976955208470642
 30
0.0
 11
213.86587982488791
 21
45.976955208470642
 31
0.0
  0
LINE
  5
66
  8
1
 62
     7
 10
213.86587982488791
 20
46.776955208470639
 30
0.0
 11
213.86587982488791
 21
45.976955208470642
 31
0.0
  0
LINE
  5
67
  8
1
 62
     7
 10
213.11587982488791
 20
46.776955208470639
 30
0.0
 11
213.86587982488791
 21
46.776955208470639
 31
0.0
  0
LINE
  5
68
  8
1
 62
     7
 10
213.86587982488791
 20
47.87695520847064
 30
0.0
 11
213.11587982488791
 21
47.87695520847064
 31
0.0
  0
LINE
  5
69
  8
1
 62
     7
 10
213.86587982488791
 20
48.576955208470643
 30
0.0
 11
213.86587982488791
 21
47.87695520847064
 31
0.0
  0
LINE
  5
6A
  8
1
 62
     7
 10
214.46587982488799
 20
47.87695520847064
 30
0.0
 11
214.46587982488799
 21
48.576955208470643
 31
0.0
  0
LINE
  5
6B
  8
1
 62
     7
 10
215.21587982488791
 20
47.87695520847064
 30
0.0
 11
214.46587982488799
 21
47.87695520847064
 31
0.0
  0
LINE
  5
6C
  8
1
 62
     7
 10
214.46587982488799
 20
46.776955208470639
 30
0.0
 11
215.21587982488791
 21
46.776955208470639
 31
0.0
  0
LINE
  5
6D
  8
1
 62
     7
 10
214.46587982488799
 20
45.976955208470642
 30
0.0
 11
214.46587982488799
 21
46.776955208470639
 31
0.0
  0
LINE
  5
6E
  8
1
 62
     7
 10
214.46587982488799
 20
45.976955208470642
 30
0.0
 11
215.66587982488801
 21
45.976955208470642
 31
0.0
  0
LINE
  5
6F
  8
1
 62
     7
 10
216.56587982488799
 20
47.967326879408269
 30
0.0
 11
216.56587982488799
 21
46.876955208470633
 31
0.0
  0
LINE
  5
70
  8
1
  6
DASHDOT
 62
     3
 10
214.1658798248879
 20
53.261179342677487
 30
0.0
 11
214.1658798248879
 21
49.862655696903488
 31
0.0
  0
LINE
  5
71
  8
1
  6
DASHDOT
 62
     3
 10
215.86514164777489
 20
51.561917519790498
 30
0.0
 11
212.4666180020009
 21
51.561917519790498
 31
0.0
  0
LINE
  5
72
  8
1
 62
     7
 10
215.16587982488801
 20
53.661917519790499
 30
0.0
 11
213.16587982488801
 21
53.661917519790499
 31
0.0
  0
LINE
  5
73
  8
1
 62
     7
 10
215.16587982488801
 20
55.461917519790497
 30
0.0
 11
215.16587982488801
 21
53.661917519790499
 31
0.0
  0
LINE
  5
74
  8
1
 62
     7
 10
213.16587982488801
 20
55.461917519790497
 30
0.0
 11
215.16587982488801
 21
55.461917519790497
 31
0.0
  0
LINE
  5
75
  8
1
 62
     7
 10
213.16587982488801
 20
53.661917519790499
 30
0.0
 11
213.16587982488801
 21
55.461917519790497
 31
0.0
  0
LINE
  5
76
  8
1
  6
DASHDOT
 62
     3
 10
-17.318540362545701
 20
196.83373194974391
 30
0.0
 11
-12.318540362545709
 21
196.83373194974391
 31
0.0
  0
LINE
  5
77
  8
1
  6
DASHDOT
 62
     3
 10
87.681459637454282
 20
196.83373194974391
 30
0.0
 11
92.681459637454282
 21
196.83373194974391
 31
0.0
  0
LINE
  5
78
  8
1
  6
DASHDOT
 62
     3
 10
-17.318540362545701
 20
51.561917519790498
 30
0.0
 11
-12.318540362545709
 21
51.561917519790498
 31
0.0
  0
LINE
  5
79
  8
1
  6
DASHDOT
 62
     3
 10
87.681459637454282
 20
51.561917519790498
 30
0.0
 11
92.681459637454282
 21
51.561917519790498
 31
0.0
  0
LINE
  5
7A
  8
1
 62
     7
 10
20.681459637454299
 20
170.83373194974391
 30
0.0
 11
20.681459637454299
 21
169.83373194974391
 31
0.0
  0
LINE
  5
7B
  8
1
 62
     7
 10
13.681459637454299
 20
169.83373194974391
 30
0.0
 11
13.681459637454299
 21
170.83373194974391
 31
0.0
  0
LINE
  5
7C
  8
1
 62
     7
 10
13.681459637454299
 20
169.83373194974391
 30
0.0
 11
20.681459637454299
 21
169.83373194974391
 31
0.0
  0
LINE
  5
7D
  8
1
  6
CENTER
 62
     3
 10
22.68145963745431
 20
170.83373194974391
 30
0.0
 11
22.68145963745431
 21
162.83373194974391
 31
0.0
  0
LINE
  5
7E
  8
1
  6
CENTER
 62
     3
 10
20.681459637454299
 20
160.83373194974391
 30
0.0
 11
17.64173703804715
 21
160.83373194974391
 31
0.0
  0
LINE
  5
7F
  8
1
  6
CENTER
 62
     3
 10
12.681459637454291
 20
162.83373194974391
 30
0.0
 11
12.681459637454291
 21
170.83373194974391
 31
0.0
  0
LINE
  5
80
  8
1
  6
DASHDOT
 62
     3
 10
13.9231945128651
 20
165.83373194974391
 30
0.0
 11
21.43972476204349
 21
165.83373194974391
 31
0.0
  0
LINE
  5
81
  8
1
  6
DASHDOT
 62
     3
 10
17.681459637454289
 20
162.07546682515479
 30
0.0
 11
17.681459637454289
 21
169.59199707433311
 31
0.0
  0
LINE
  5
82
  8
1
 62
     7
 10
-11.818540362545701
 20
199.83373194974391
 30
0.0
 11
-11.818540362545701
 21
197.83373194974391
 31
0.0
  0
LINE
  5
83
  8
1
 62
     7
 10
-12.318540362545701
 20
195.83373194974391
 30
0.0
 11
0.6814596374543023
 21
195.83373194974391
 31
0.0
  0
LINE
  5
84
  8
1
 62
     7
 10
-12.318540362545701
 20
197.83373194974391
 30
0.0
 11
0.6814596374543023
 21
197.83373194974391
 31
0.0
  0
LINE
  5
85
  8
1
 62
     7
 10
-11.818540362545701
 20
195.83373194974391
 30
0.0
 11
-11.818540362545701
 21
193.83373194974391
 31
0.0
  0
LINE
  5
86
  8
1
 62
     7
 10
-12.318540362545701
 20
194.33373194974379
 30
0.0
 11
-11.818540362545701
 21
193.83373194974391
 31
0.0
  0
LINE
  5
87
  8
1
 62
     7
 10
-11.818540362545701
 20
199.83373194974391
 30
0.0
 11
-12.318540362545701
 21
199.33373194974379
 31
0.0
  0
LINE
  5
88
  8
1
 62
     7
 10
3.4814596374543281
 20
193.83373194974391
 30
0.0
 11
-11.818540362545701
 21
193.83373194974391
 31
0.0
  0
LINE
  5
89
  8
1
 62
     7
 10
-12.318540362545701
 20
194.33373194974379
 30
0.0
 11
-12.318540362545701
 21
199.33373194974379
 31
0.0
  0
LINE
  5
8A
  8
1
 62
     7
 10
-11.818540362545701
 20
199.83373194974391
 30
0.0
 11
3.4814596374543281
 21
199.83373194974391
 31
0.0
  0
LINE
  5
8B
  8
1
 62
     7
 10
87.181459637454282
 20
197.83373194974391
 30
0.0
 11
87.181459637454282
 21
199.83373194974391
 31
0.0
  0
LINE
  5
8C
  8
1
 62
     7
 10
74.681459637454282
 20
195.83373194974391
 30
0.0
 11
87.681459637454282
 21
195.83373194974391
 31
0.0
  0
LINE
  5
8D
  8
1
 62
     7
 10
74.681459637454282
 20
197.83373194974391
 30
0.0
 11
87.681459637454282
 21
197.83373194974391
 31
0.0
  0
LINE
  5
8E
  8
1
 62
     7
 10
87.181459637454282
 20
193.83373194974391
 30
0.0
 11
87.181459637454282
 21
195.83373194974391
 31
0.0
  0
LINE
  5
8F
  8
1
 62
     7
 10
87.181459637454282
 20
193.83373194974391
 30
0.0
 11
87.681459637454282
 21
194.33373194974379
 31
0.0
  0
LINE
  5
90
  8
1
 62
     7
 10
87.681459637454282
 20
199.33373194974379
 30
0.0
 11
87.181459637454282
 21
199.83373194974391
 31
0.0
  0
LINE
  5
91
  8
1
 62
     7
 10
87.181459637454282
 20
193.83373194974391
 30
0.0
 11
71.881459637454284
 21
193.83373194974391
 31
0.0
  0
LINE
  5
92
  8
1
 62
     7
 10
87.681459637454282
 20
199.33373194974379
 30
0.0
 11
87.681459637454282
 21
194.33373194974379
 31
0.0
  0
LINE
  5
93
  8
1
 62
     7
 10
71.881459637454284
 20
199.83373194974391
 30
0.0
 11
87.181459637454282
 21
199.83373194974391
 31
0.0
  0
LINE
  5
94
  8
1
 62
     7
 10
-12.318540362545701
 20
55.461917519790497
 30
0.0
 11
1.6814596374543029
 21
55.461917519790497
 31
0.0
  0
LINE
  5
95
  8
1
 62
     7
 10
1.6814596374543029
 20
55.461917519790497
 30
0.0
 11
1.6814596374543029
 21
54.561917519790498
 31
0.0
  0
LINE
  5
96
  8
1
 62
     7
 10
-11.818540362545701
 20
54.561917519790498
 30
0.0
 11
-11.818540362545701
 21
48.561917519790498
 31
0.0
  0
LINE
  5
97
  8
1
 62
     7
 10
-12.318540362545701
 20
49.061917519790498
 30
0.0
 11
-11.818540362545701
 21
48.561917519790498
 31
0.0
  0
LINE
  5
98
  8
1
 62
     7
 10
-11.818540362545701
 20
54.561917519790498
 30
0.0
 11
-12.318540362545701
 21
54.061917519790498
 31
0.0
  0
LINE
  5
99
  8
1
 62
     7
 10
3.4814596374543281
 20
48.561917519790498
 30
0.0
 11
-11.818540362545701
 21
48.561917519790498
 31
0.0
  0
LINE
  5
9A
  8
1
 62
     7
 10
-12.318540362545701
 20
55.461917519790497
 30
0.0
 11
-12.318540362545701
 21
49.061917519790498
 31
0.0
  0
LINE
  5
9B
  8
1
 62
     7
 10
-11.818540362545701
 20
54.561917519790498
 30
0.0
 11
3.4814596374543281
 21
54.561917519790498
 31
0.0
  0
LINE
  5
9C
  8
1
 62
     7
 10
73.681459637454282
 20
55.461917519790497
 30
0.0
 11
87.681459637454282
 21
55.461917519790497
 31
0.0
  0
LINE
  5
9D
  8
1
 62
     7
 10
73.681459637454282
 20
54.561917519790498
 30
0.0
 11
73.681459637454282
 21
55.461917519790497
 31
0.0
  0
LINE
  5
9E
  8
1
 62
     7
 10
87.181459637454282
 20
48.561917519790498
 30
0.0
 11
87.181459637454282
 21
54.561917519790498
 31
0.0
  0
LINE
  5
9F
  8
1
 62
     7
 10
87.181459637454282
 20
48.561917519790498
 30
0.0
 11
87.681459637454282
 21
49.061917519790498
 31
0.0
  0
LINE
  5
A0
  8
1
 62
     7
 10
87.681459637454282
 20
54.061917519790498
 30
0.0
 11
87.181459637454282
 21
54.561917519790498
 31
0.0
  0
LINE
  5
A1
  8
1
 62
     7
 10
87.181459637454282
 20
48.561917519790498
 30
0.0
 11
71.881459637454284
 21
48.561917519790498
 31
0.0
  0
LINE
  5
A2
  8
1
 62
     7
 10
87.681459637454282
 20
49.061917519790498
 30
0.0
 11
87.681459637454282
 21
55.461917519790497
 31
0.0
  0
LINE
  5
A3
  8
1
 62
     7
 10
71.881459637454284
 20
54.561917519790498
 30
0.0
 11
87.181459637454282
 21
54.561917519790498
 31
0.0
  0
LINE
  5
A4
  8
1
 62
     7
 10
184.5598425265411
 20
50.418994036849391
 30
0.0
 11
187.16587982488801
 21
50.160939378833
 31
0.0
  0
LINE
  5
A5
  8
1
 62
     7
 10
70.881459637454284
 20
207.33373194974391
 30
0.0
 11
67.881459637454284
 21
207.33373194974391
 31
0.0
  0
LINE
  5
A6
  8
1
 62
     7
 10
71.881459637454284
 20
187.33373194974391
 30
0.0
 11
71.881459637454284
 21
206.33373194974379
 31
0.0
  0
LINE
  5
A7
  8
1
 62
     7
 10
67.881459637454284
 20
186.33373194974391
 30
0.0
 11
70.881459637454284
 21
186.33373194974391
 31
0.0
  0
LINE
  5
A8
  8
1
 62
     7
 10
7.4814596374543028
 20
207.33373194974391
 30
0.0
 11
4.4814596374543028
 21
207.33373194974391
 31
0.0
  0
LINE
  5
A9
  8
1
 62
     7
 10
3.4814596374543032
 20
206.33373194974379
 30
0.0
 11
3.4814596374543032
 21
187.33373194974391
 31
0.0
  0
LINE
  5
AA
  8
1
 62
     7
 10
4.4814596374543028
 20
186.33373194974391
 30
0.0
 11
7.4814596374543028
 21
186.33373194974391
 31
0.0
  0
LINE
  5
AB
  8
1
 62
     7
 10
50.681459637454289
 20
164.83373194974391
 30
0.0
 11
24.681459637454289
 21
164.83373194974391
 31
0.0
  0
LINE
  5
AC
  8
1
 62
     7
 10
23.681459637454289
 20
165.83373194974391
 30
0.0
 11
23.681459637454289
 21
169.83373194974391
 31
0.0
  0
LINE
  5
AD
  8
1
 62
     7
 10
51.681459637454289
 20
227.83373194974391
 30
0.0
 11
51.68145963745431
 21
223.83373194974391
 31
0.0
  0
LINE
  5
AE
  8
1
 62
     7
 10
24.681459637454289
 20
228.83373194974391
 30
0.0
 11
50.681459637454289
 21
228.83373194974391
 31
0.0
  0
LINE
  5
AF
  8
1
 62
     7
 10
63.681459637454303
 20
222.83373194974379
 30
0.0
 11
63.681459637454303
 21
170.83373194974391
 31
0.0
  0
LINE
  5
B0
  8
1
 62
     7
 10
11.681459637454291
 20
170.83373194974391
 30
0.0
 11
11.681459637454291
 21
222.83373194974379
 31
0.0
  0
LINE
  5
B1
  8
1
  6
CENTER
 62
     3
 10
52.681459637454303
 20
16.061917519790491
 30
0.0
 11
52.681459637454303
 21
21.061917519790502
 31
0.0
  0
LINE
  5
B2
  8
1
  6
CENTER
 62
     3
 10
62.681459637454303
 20
16.061917519790491
 30
0.0
 11
52.681459637454303
 21
16.061917519790491
 31
0.0
  0
LINE
  5
B3
  8
1
  6
CENTER
 62
     3
 10
22.681459637454299
 20
16.061917519790491
 30
0.0
 11
22.681459637454299
 21
21.061917519790502
 31
0.0
  0
LINE
  5
B4
  8
1
  6
CENTER
 62
     3
 10
12.681459637454291
 20
16.061917519790491
 30
0.0
 11
22.681459637454299
 21
16.061917519790491
 31
0.0
  0
LINE
  5
B5
  8
1
  6
CENTER
 62
     3
 10
250.16587982488801
 20
21.061917519790502
 30
0.0
 11
235.16587982488801
 21
21.061917519790502
 31
0.0
  0
LINE
  5
B6
  8
1
  6
CENTER
 62
     3
 10
250.16587982488801
 20
16.061917519790491
 30
0.0
 11
250.16587982488801
 21
21.061917519790502
 31
0.0
  0
LINE
  5
B7
  8
1
  6
CENTER
 62
     3
 10
240.16587982488801
 20
16.061917519790491
 30
0.0
 11
250.16587982488801
 21
16.061917519790491
 31
0.0
  0
LINE
  5
B8
  8
1
  6
CENTER
 62
     3
 10
240.16587982488801
 20
17.061917519790491
 30
0.0
 11
240.16587982488801
 21
16.061917519790491
 31
0.0
  0
LINE
  5
B9
  8
1
  6
CENTER
 62
     3
 10
188.16587982488801
 20
17.061917519790491
 30
0.0
 11
240.16587982488801
 21
17.061917519790491
 31
0.0
  0
LINE
  5
BA
  8
1
  6
CENTER
 62
     3
 10
188.16587982488801
 20
16.061917519790491
 30
0.0
 11
188.16587982488801
 21
17.061917519790491
 31
0.0
  0
LINE
  5
BB
  8
1
  6
CENTER
 62
     3
 10
178.16587982488801
 20
16.061917519790491
 30
0.0
 11
188.16587982488801
 21
16.061917519790491
 31
0.0
  0
LINE
  5
BC
  8
1
  6
CENTER
 62
     3
 10
178.16587982488801
 20
21.061917519790502
 30
0.0
 11
178.16587982488801
 21
16.061917519790491
 31
0.0
  0
LINE
  5
BD
  8
1
 62
     7
 10
61.881459637454313
 20
54.561917519790498
 30
0.0
 11
61.881459637454313
 21
48.561917519790498
 31
0.0
  0
LINE
  5
BE
  8
1
 62
     7
 10
13.4814596374543
 20
54.561917519790498
 30
0.0
 11
13.4814596374543
 21
48.561917519790498
 31
0.0
  0
LINE
  5
BF
  8
1
 62
     7
 10
7.4814596374543028
 20
62.061917519790498
 30
0.0
 11
4.4814596374543028
 21
62.061917519790498
 31
0.0
  0
LINE
  5
C0
  8
1
 62
     7
 10
3.4814596374543032
 20
61.061917519790498
 30
0.0
 11
3.4814596374543032
 21
42.061917519790512
 31
0.0
  0
LINE
  5
C1
  8
1
 62
     7
 10
4.4814596374543028
 20
41.061917519790498
 30
0.0
 11
7.4814596374543028
 21
41.061917519790498
 31
0.0
  0
LINE
  5
C2
  8
1
 62
     7
 10
70.881459637454284
 20
62.061917519790498
 30
0.0
 11
67.881459637454284
 21
62.061917519790498
 31
0.0
  0
LINE
  5
C3
  8
1
 62
     7
 10
71.881459637454284
 20
42.061917519790512
 30
0.0
 11
71.881459637454284
 21
61.061917519790498
 31
0.0
  0
LINE
  5
C4
  8
1
 62
     7
 10
67.881459637454284
 20
41.061917519790498
 30
0.0
 11
70.881459637454284
 21
41.061917519790498
 31
0.0
  0
LINE
  5
C5
  8
1
 62
     7
 10
63.681459637454303
 20
48.561917519790498
 30
0.0
 11
59.984235275186307
 21
48.561917519790498
 31
0.0
  0
LINE
  5
C6
  8
1
 62
     7
 10
11.68145963745431
 20
54.561917519790498
 30
0.0
 11
15.378683999722311
 21
54.561917519790498
 31
0.0
  0
LINE
  5
C7
  8
1
 62
     7
 10
48.681459637454303
 20
61.061917519790498
 30
0.0
 11
48.681459637454303
 21
63.061917519790491
 31
0.0
  0
LINE
  5
C8
  8
1
 62
     7
 10
26.681459637454299
 20
63.061917519790491
 30
0.0
 11
26.681459637454299
 21
61.061917519790498
 31
0.0
  0
LINE
  5
C9
  8
1
 62
     7
 10
48.681459637454303
 20
68.061917519790484
 30
0.0
 11
48.681459637454303
 21
70.061917519790484
 31
0.0
  0
LINE
  5
CA
  8
1
 62
     7
 10
26.681459637454299
 20
70.061917519790484
 30
0.0
 11
26.681459637454299
 21
68.061917519790484
 31
0.0
  0
LINE
  5
CB
  8
1
 62
     7
 10
25.18145963745431
 20
29.061917519790502
 30
0.0
 11
50.181459637454282
 21
29.061917519790502
 31
0.0
  0
LINE
  5
CC
  8
1
 62
     7
 10
25.18145963745431
 20
32.061917519790498
 30
0.0
 11
50.181459637454282
 21
32.061917519790498
 31
0.0
  0
LINE
  5
CD
  8
1
 62
     7
 10
25.18145963745431
 20
36.061917519790498
 30
0.0
 11
50.181459637454282
 21
36.061917519790498
 31
0.0
  0
LINE
  5
CE
  8
1
 62
     7
 10
25.18145963745431
 20
39.061917519790498
 30
0.0
 11
50.181459637454282
 21
39.061917519790498
 31
0.0
  0
LINE
  5
CF
  8
1
 62
     7
 10
25.18145963745431
 20
43.061917519790491
 30
0.0
 11
50.181459637454282
 21
43.061917519790491
 31
0.0
  0
LINE
  5
D0
  8
1
 62
     7
 10
25.18145963745431
 20
46.061917519790491
 30
0.0
 11
50.181459637454282
 21
46.061917519790491
 31
0.0
  0
LINE
  5
D1
  8
1
 62
     7
 10
25.18145963745431
 20
50.061917519790491
 30
0.0
 11
50.181459637454282
 21
50.061917519790491
 31
0.0
  0
LINE
  5
D2
  8
1
 62
     7
 10
25.18145963745431
 20
53.061917519790491
 30
0.0
 11
50.181459637454282
 21
53.061917519790491
 31
0.0
  0
LINE
  5
D3
  8
1
 62
     7
 10
25.18145963745431
 20
57.061917519790498
 30
0.0
 11
50.181459637454282
 21
57.061917519790498
 31
0.0
  0
LINE
  5
D4
  8
1
 62
     7
 10
25.18145963745431
 20
60.061917519790491
 30
0.0
 11
50.181459637454282
 21
60.061917519790491
 31
0.0
  0
LINE
  5
D5
  8
1
 62
     7
 10
25.18145963745431
 20
64.061917519790498
 30
0.0
 11
50.181459637454282
 21
64.061917519790498
 31
0.0
  0
LINE
  5
D6
  8
1
 62
     7
 10
25.18145963745431
 20
67.061917519790498
 30
0.0
 11
50.181459637454282
 21
67.061917519790498
 31
0.0
  0
LINE
  5
D7
  8
1
 62
     7
 10
25.18145963745431
 20
71.061917519790498
 30
0.0
 11
50.181459637454282
 21
71.061917519790498
 31
0.0
  0
LINE
  5
D8
  8
1
 62
     7
 10
25.18145963745431
 20
74.061917519790498
 30
0.0
 11
50.181459637454282
 21
74.061917519790498
 31
0.0
  0
LINE
  5
D9
  8
1
 62
     7
 10
11.68145963745431
 20
21.811917519790502
 30
0.0
 11
12.68145963745431
 21
21.811917519790502
 31
0.0
  0
LINE
  5
DA
  8
1
 62
     7
 10
11.68145963745431
 20
24.811917519790502
 30
0.0
 11
11.68145963745431
 21
21.811917519790502
 31
0.0
  0
LINE
  5
DB
  8
1
 62
     7
 10
12.68145963745431
 20
24.811917519790502
 30
0.0
 11
11.68145963745431
 21
24.811917519790502
 31
0.0
  0
LINE
  5
DC
  8
1
 62
     7
 10
63.68145963745431
 20
21.811917519790502
 30
0.0
 11
62.68145963745431
 21
21.811917519790502
 31
0.0
  0
LINE
  5
DD
  8
1
 62
     7
 10
63.68145963745431
 20
24.811917519790502
 30
0.0
 11
63.68145963745431
 21
21.811917519790502
 31
0.0
  0
LINE
  5
DE
  8
1
 62
     7
 10
62.68145963745431
 20
24.811917519790502
 30
0.0
 11
63.68145963745431
 21
24.811917519790502
 31
0.0
  0
LINE
  5
DF
  8
1
 62
     7
 10
62.68145963745431
 20
25.061917519790502
 30
0.0
 11
62.68145963745431
 21
21.061917519790502
 31
0.0
  0
LINE
  5
E0
  8
1
 62
     7
 10
12.68145963745431
 20
21.061917519790502
 30
0.0
 11
62.68145963745431
 21
21.061917519790502
 31
0.0
  0
LINE
  5
E1
  8
1
 62
     7
 10
12.68145963745431
 20
25.061917519790502
 30
0.0
 11
12.68145963745431
 21
21.061917519790502
 31
0.0
  0
LINE
  5
E2
  8
1
 62
     7
 10
63.681459637454303
 20
77.561917519790484
 30
0.0
 11
63.681459637454303
 21
25.561917519790502
 31
0.0
  0
LINE
  5
E3
  8
1
 62
     7
 10
11.681459637454291
 20
25.561917519790502
 30
0.0
 11
11.681459637454291
 21
77.561917519790484
 31
0.0
  0
LINE
  5
E4
  8
1
 62
     7
 10
235.16587982488801
 20
21.061917519790502
 30
0.0
 11
235.16587982488801
 21
23.145719032694821
 31
0.0
  0
LINE
  5
E5
  8
1
 62
     7
 10
240.24404494272349
 20
29.069657575070849
 30
0.0
 11
245.2644197542264
 21
29.566784421996001
 31
0.0
  0
LINE
  5
E6
  8
1
 62
     7
 10
240.24404494272349
 20
74.054177464510161
 30
0.0
 11
245.2644197542264
 21
73.557050617584977
 31
0.0
  0
LINE
  5
E7
  8
1
 62
     7
 10
245.2644197542264
 20
31.557050617584981
 30
0.0
 11
240.6166098602188
 21
32.017285393765739
 31
0.0
  0
LINE
  5
E8
  8
1
 62
     7
 10
240.6166098602188
 20
36.10654964581525
 30
0.0
 11
245.2644197542264
 21
36.566784421995997
 31
0.0
  0
LINE
  5
E9
  8
1
 62
     7
 10
245.2644197542264
 20
38.557050617584991
 30
0.0
 11
240.6166098602188
 21
39.017285393765739
 31
0.0
  0
LINE
  5
EA
  8
1
 62
     7
 10
240.6166098602188
 20
43.10654964581525
 30
0.0
 11
245.2644197542264
 21
43.566784421995997
 31
0.0
  0
LINE
  5
EB
  8
1
 62
     7
 10
245.2644197542264
 20
45.557050617584991
 30
0.0
 11
240.6166098602188
 21
46.017285393765746
 31
0.0
  0
LINE
  5
EC
  8
1
 62
     7
 10
240.6166098602188
 20
50.10654964581525
 30
0.0
 11
245.2644197542264
 21
50.566784421996012
 31
0.0
  0
LINE
  5
ED
  8
1
 62
     7
 10
245.2644197542264
 20
52.557050617584991
 30
0.0
 11
240.6166098602188
 21
53.017285393765761
 31
0.0
  0
LINE
  5
EE
  8
1
 62
     7
 10
240.6166098602188
 20
57.10654964581525
 30
0.0
 11
245.2644197542264
 21
57.566784421995997
 31
0.0
  0
LINE
  5
EF
  8
1
 62
     7
 10
245.2644197542264
 20
59.557050617584991
 30
0.0
 11
240.6166098602188
 21
60.017285393765746
 31
0.0
  0
LINE
  5
F0
  8
1
 62
     7
 10
240.6166098602188
 20
64.106549645815235
 30
0.0
 11
245.2644197542264
 21
64.566784421996019
 31
0.0
  0
LINE
  5
F1
  8
1
 62
     7
 10
245.2644197542264
 20
66.557050617584991
 30
0.0
 11
240.6166098602188
 21
67.017285393765761
 31
0.0
  0
LINE
  5
F2
  8
1
 62
     7
 10
240.6166098602188
 20
71.10654964581525
 30
0.0
 11
245.2644197542264
 21
71.566784421996019
 31
0.0
  0
LINE
  5
F3
  8
1
 62
     7
 10
240.16587982488801
 20
72.561917519790484
 30
0.0
 11
240.16587982488801
 21
30.561917519790502
 31
0.0
  0
LINE
  5
F4
  8
1
 62
     7
 10
208.16587982488801
 20
22.561917519790502
 30
0.0
 11
220.16587982488801
 21
22.561917519790502
 31
0.0
  0
LINE
  5
F5
  8
1
 62
     7
 10
193.16587982488801
 20
23.145719032694821
 30
0.0
 11
193.16587982488801
 21
21.061917519790502
 31
0.0
  0
LINE
  5
F6
  8
1
 62
     7
 10
183.06733989554971
 20
29.566784421996001
 30
0.0
 11
188.08771470705241
 21
29.069657575070849
 31
0.0
  0
LINE
  5
F7
  8
1
 62
     7
 10
183.06733989554971
 20
73.557050617584977
 30
0.0
 11
188.08771470705241
 21
74.054177464510161
 31
0.0
  0
LINE
  5
F8
  8
1
 62
     7
 10
187.7151497895571
 20
32.017285393765739
 30
0.0
 11
183.06733989554971
 21
31.557050617584981
 31
0.0
  0
LINE
  5
F9
  8
1
 62
     7
 10
183.06733989554971
 20
36.566784421995997
 30
0.0
 11
187.7151497895571
 21
36.10654964581525
 31
0.0
  0
LINE
  5
FA
  8
1
 62
     7
 10
187.7151497895571
 20
39.017285393765739
 30
0.0
 11
183.06733989554971
 21
38.557050617584991
 31
0.0
  0
LINE
  5
FB
  8
1
 62
     7
 10
183.06733989554971
 20
43.566784421995997
 30
0.0
 11
187.7151497895571
 21
43.10654964581525
 31
0.0
  0
LINE
  5
FC
  8
1
 62
     7
 10
187.7151497895571
 20
46.017285393765746
 30
0.0
 11
183.06733989554971
 21
45.557050617584991
 31
0.0
  0
LINE
  5
FD
  8
1
 62
     7
 10
183.06733989554971
 20
57.566784421995997
 30
0.0
 11
187.7151497895571
 21
57.10654964581525
 31
0.0
  0
LINE
  5
FE
  8
1
 62
     7
 10
187.7151497895571
 20
60.017285393765746
 30
0.0
 11
183.06733989554971
 21
59.557050617584991
 31
0.0
  0
LINE
  5
FF
  8
1
 62
     7
 10
183.06733989554971
 20
64.566784421996019
 30
0.0
 11
187.7151497895571
 21
64.106549645815235
 31
0.0
  0
LINE
  5
100
  8
1
 62
     7
 10
187.7151497895571
 20
67.017285393765761
 30
0.0
 11
183.06733989554971
 21
66.557050617584991
 31
0.0
  0
LINE
  5
101
  8
1
 62
     7
 10
183.06733989554971
 20
71.566784421996019
 30
0.0
 11
187.7151497895571
 21
71.10654964581525
 31
0.0
  0
LINE
  5
102
  8
1
 62
     7
 10
193.16587982488801
 20
25.561917519790502
 30
0.0
 11
235.16587982488801
 21
25.561917519790502
 31
0.0
  0
LINE
  5
103
  8
1
 62
     7
 10
193.16587982488801
 20
77.561917519790484
 30
0.0
 11
235.16587982488801
 21
77.561917519790484
 31
0.0
  0
LINE
  5
104
  8
1
 62
     7
 10
188.16587982488801
 20
30.561917519790502
 30
0.0
 11
188.16587982488801
 21
72.561917519790484
 31
0.0
  0
LINE
  5
105
  8
1
  6
CENTER
 62
     3
 10
52.681459637454303
 20
222.83373194974379
 30
0.0
 11
52.681459637454303
 21
230.83373194974391
 31
0.0
  0
LINE
  5
106
  8
1
  6
CENTER
 62
     3
 10
54.681459637454303
 20
232.83373194974391
 30
0.0
 11
60.681459637454303
 21
232.83373194974391
 31
0.0
  0
LINE
  5
107
  8
1
  6
CENTER
 62
     3
 10
62.681459637454303
 20
230.83373194974391
 30
0.0
 11
62.681459637454303
 21
222.83373194974379
 31
0.0
  0
LINE
  5
108
  8
1
  6
DASHDOT
 62
     3
 10
61.439724762043497
 20
227.83373194974391
 30
0.0
 11
53.923194512865102
 21
227.83373194974391
 31
0.0
  0
LINE
  5
109
  8
1
  6
DASHDOT
 62
     3
 10
57.681459637454303
 20
231.59199707433299
 30
0.0
 11
57.681459637454303
 21
224.07546682515471
 31
0.0
  0
LINE
  5
10A
  8
1
  6
CENTER
 62
     3
 10
12.681459637454291
 20
222.83373194974379
 30
0.0
 11
12.681459637454291
 21
230.83373194974391
 31
0.0
  0
LINE
  5
10B
  8
1
  6
CENTER
 62
     3
 10
14.681459637454291
 20
232.83373194974391
 30
0.0
 11
20.681459637454299
 21
232.83373194974391
 31
0.0
  0
LINE
  5
10C
  8
1
  6
CENTER
 62
     3
 10
22.681459637454299
 20
230.83373194974391
 30
0.0
 11
22.681459637454299
 21
222.83373194974379
 31
0.0
  0
LINE
  5
10D
  8
1
  6
DASHDOT
 62
     3
 10
21.43972476204349
 20
227.83373194974391
 30
0.0
 11
13.9231945128651
 21
227.83373194974391
 31
0.0
  0
LINE
  5
10E
  8
1
  6
DASHDOT
 62
     3
 10
17.681459637454289
 20
231.59199707433299
 30
0.0
 11
17.681459637454289
 21
224.07546682515471
 31
0.0
  0
LINE
  5
10F
  8
1
 62
     7
 10
15.9814596374543
 20
52.761917519790487
 30
0.0
 11
18.381459637454299
 21
52.761917519790487
 31
0.0
  0
LINE
  5
110
  8
1
 62
     7
 10
18.381459637454299
 20
50.361917519790502
 30
0.0
 11
15.9814596374543
 21
50.361917519790502
 31
0.0
  0
LINE
  5
111
  8
1
 62
     7
 10
15.37868399972232
 20
48.561917519790498
 30
0.0
 11
11.68145963745431
 21
48.561917519790498
 31
0.0
  0
LINE
  5
112
  8
1
 62
     7
 10
56.981459637454279
 20
52.761917519790487
 30
0.0
 11
59.38145963745427
 21
52.761917519790487
 31
0.0
  0
LINE
  5
113
  8
1
 62
     7
 10
59.38145963745427
 20
50.361917519790502
 30
0.0
 11
56.981459637454279
 21
50.361917519790502
 31
0.0
  0
LINE
  5
114
  8
1
 62
     7
 10
59.984235275186307
 20
54.561917519790498
 30
0.0
 11
63.681459637454303
 21
54.561917519790498
 31
0.0
  0
LINE
  5
115
  8
1
 62
     7
 10
188.16587982488801
 20
48.061917519790491
 30
0.0
 11
187.16587982488801
 21
48.061917519790491
 31
0.0
  0
LINE
  5
116
  8
1
 62
     7
 10
187.16587982488801
 20
48.061917519790491
 30
0.0
 11
187.16587982488801
 21
55.061917519790491
 31
0.0
  0
LINE
  5
117
  8
1
 62
     7
 10
187.16587982488801
 20
55.061917519790491
 30
0.0
 11
188.16587982488801
 21
55.061917519790491
 31
0.0
  0
LINE
  5
118
  8
1
 62
     7
 10
187.16587982488801
 20
52.962895660748003
 30
0.0
 11
184.5598425265411
 21
52.704841002731598
 31
0.0
  0
LINE
  5
119
  8
1
 62
     7
 10
233.87381630751801
 20
72.757354002420556
 30
0.0
 11
233.34881630751801
 21
72.757354002420556
 31
0.0
  0
LINE
  5
11A
  8
1
 62
     7
 10
231.861316307518
 20
71.269854002420544
 30
0.0
 11
231.861316307518
 21
70.744854002420553
 31
0.0
  0
LINE
  5
11B
  8
1
 62
     7
 10
233.34881630751801
 20
69.257354002420556
 30
0.0
 11
233.87381630751801
 21
69.257354002420556
 31
0.0
  0
LINE
  5
11C
  8
1
 62
     7
 10
235.361316307518
 20
70.744854002420553
 30
0.0
 11
235.361316307518
 21
71.269854002420544
 31
0.0
  0
LINE
  5
11D
  8
1
 62
     7
 10
192.97044334225791
 20
71.269854002420544
 30
0.0
 11
192.97044334225791
 21
70.744854002420553
 31
0.0
  0
LINE
  5
11E
  8
1
 62
     7
 10
194.45794334225789
 20
69.257354002420556
 30
0.0
 11
194.9829433422579
 21
69.257354002420556
 31
0.0
  0
LINE
  5
11F
  8
1
 62
     7
 10
196.47044334225799
 20
70.744854002420553
 30
0.0
 11
196.47044334225799
 21
71.269854002420544
 31
0.0
  0
LINE
  5
120
  8
1
 62
     7
 10
194.9829433422579
 20
72.757354002420556
 30
0.0
 11
194.45794334225789
 21
72.757354002420556
 31
0.0
  0
LINE
  5
121
  8
1
 62
     7
 10
194.45794334225789
 20
30.36648103716043
 30
0.0
 11
194.9829433422579
 21
30.36648103716043
 31
0.0
  0
LINE
  5
122
  8
1
 62
     7
 10
196.47044334225791
 20
31.85398103716042
 30
0.0
 11
196.47044334225791
 21
32.378981037160429
 31
0.0
  0
LINE
  5
123
  8
1
 62
     7
 10
194.9829433422579
 20
33.866481037160433
 30
0.0
 11
194.45794334225789
 21
33.866481037160433
 31
0.0
  0
LINE
  5
124
  8
1
 62
     7
 10
192.97044334225779
 20
32.378981037160429
 30
0.0
 11
192.97044334225779
 21
31.85398103716042
 31
0.0
  0
LINE
  5
125
  8
1
 62
     7
 10
235.361316307518
 20
31.853981037160409
 30
0.0
 11
235.361316307518
 21
32.378981037160393
 31
0.0
  0
LINE
  5
126
  8
1
 62
     7
 10
233.87381630751801
 20
33.866481037160391
 30
0.0
 11
233.34881630751801
 21
33.866481037160391
 31
0.0
  0
LINE
  5
127
  8
1
 62
     7
 10
231.861316307518
 20
32.378981037160393
 30
0.0
 11
231.861316307518
 21
31.853981037160409
 31
0.0
  0
LINE
  5
128
  8
1
 62
     7
 10
233.34881630751801
 20
30.366481037160391
 30
0.0
 11
233.87381630751801
 21
30.366481037160391
 31
0.0
  0
LINE
  5
129
  8
1
 62
     7
 10
234.16587982488801
 20
76.561917519790498
 30
0.0
 11
194.16587982488801
 21
76.561917519790498
 31
0.0
  0
LINE
  5
12A
  8
1
 62
     7
 10
189.16587982488801
 20
71.561917519790498
 30
0.0
 11
189.16587982488801
 21
31.56191751979048
 31
0.0
  0
LINE
  5
12B
  8
1
 62
     7
 10
194.16587982488801
 20
26.56191751979048
 30
0.0
 11
234.16587982488801
 21
26.56191751979048
 31
0.0
  0
LINE
  5
12C
  8
1
 62
     7
 10
239.1658798248879
 20
31.56191751979047
 30
0.0
 11
239.1658798248879
 21
71.56191751979047
 31
0.0
  0
LINE
  5
12D
  8
1
 62
     7
 10
63.681459637454303
 20
76.561917519790498
 30
0.0
 11
65.881459637454284
 21
76.561917519790498
 31
0.0
  0
LINE
  5
12E
  8
1
 62
     7
 10
63.681459637454303
 20
26.561917519790502
 30
0.0
 11
65.881459637454284
 21
26.561917519790502
 31
0.0
  0
LINE
  5
12F
  8
1
 62
     7
 10
66.881459637454284
 20
27.561917519790502
 30
0.0
 11
66.881459637454284
 21
75.561917519790484
 31
0.0
  0
LINE
  5
130
  8
1
 62
     7
 10
11.681459637454291
 20
25.561917519790502
 30
0.0
 11
63.681459637454303
 21
25.561917519790502
 31
0.0
  0
LINE
  5
131
  8
1
 62
     7
 10
11.681459637454291
 20
77.561917519790484
 30
0.0
 11
63.681459637454303
 21
77.561917519790484
 31
0.0
  0
LINE
  5
132
  8
1
 62
     7
 10
9.4814596374543285
 20
76.561917519790498
 30
0.0
 11
11.68145963745431
 21
76.561917519790498
 31
0.0
  0
LINE
  5
133
  8
1
 62
     7
 10
9.4814596374543285
 20
26.561917519790502
 30
0.0
 11
11.68145963745431
 21
26.561917519790502
 31
0.0
  0
LINE
  5
134
  8
1
 62
     7
 10
8.4814596374543285
 20
75.561917519790484
 30
0.0
 11
8.4814596374543285
 21
27.561917519790502
 31
0.0
  0
LINE
  5
135
  8
1
 62
     7
 10
63.681459637454303
 20
221.83373194974391
 30
0.0
 11
65.881459637454284
 21
221.83373194974391
 31
0.0
  0
LINE
  5
136
  8
1
 62
     7
 10
66.881459637454284
 20
220.83373194974379
 30
0.0
 11
66.881459637454284
 21
172.83373194974391
 31
0.0
  0
LINE
  5
137
  8
1
 62
     7
 10
63.681459637454303
 20
170.83373194974391
 30
0.0
 11
11.681459637454291
 21
170.83373194974391
 31
0.0
  0
LINE
  5
138
  8
1
 62
     7
 10
11.681459637454291
 20
222.83373194974379
 30
0.0
 11
63.681459637454303
 21
222.83373194974379
 31
0.0
  0
LINE
  5
139
  8
1
 62
     7
 10
11.681459637454291
 20
171.83373194974391
 30
0.0
 11
9.4814596374543196
 21
171.83373194974391
 31
0.0
  0
LINE
  5
13A
  8
1
 62
     7
 10
9.4814596374543196
 20
221.83373194974391
 30
0.0
 11
11.681459637454291
 21
221.83373194974391
 31
0.0
  0
LINE
  5
13B
  8
1
 62
     7
 10
8.4814596374543214
 20
172.83373194974391
 30
0.0
 11
8.4814596374543214
 21
220.83373194974379
 31
0.0
  0
LINE
  5
13C
  8
1
  6
DASHDOT
 62
     3
 10
183.16587982488801
 20
22.645788681382019
 30
0.0
 11
183.16587982488801
 21
14.478046358199011
 31
0.0
  0
LINE
  5
13D
  8
1
  6
DASHDOT
 62
     3
 10
245.16587982488801
 20
22.645788681382019
 30
0.0
 11
245.16587982488801
 21
14.478046358199011
 31
0.0
  0
LINE
  5
13E
  8
1
  6
DASHED
 62
     3
 10
227.66587982488801
 20
25.561917519790502
 30
0.0
 11
227.66587982488801
 21
21.061917519790502
 31
0.0
  0
LINE
  5
13F
  8
1
  6
DASHED
 62
     3
 10
232.66587982488801
 20
25.561917519790502
 30
0.0
 11
232.66587982488801
 21
21.061917519790502
 31
0.0
  0
LINE
  5
140
  8
1
  6
DASHDOT
 62
     3
 10
230.16587982488801
 20
26.4619175197905
 30
0.0
 11
230.16587982488801
 21
20.161917519790499
 31
0.0
  0
LINE
  5
141
  8
1
  6
DASHED
 62
     7
 10
228.16587982488801
 20
25.561917519790502
 30
0.0
 11
228.16587982488801
 21
21.061917519790502
 31
0.0
  0
LINE
  5
142
  8
1
  6
DASHED
 62
     7
 10
232.16587982488801
 20
25.561917519790502
 30
0.0
 11
232.16587982488801
 21
21.061917519790502
 31
0.0
  0
LINE
  5
143
  8
1
  6
DASHED
 62
     3
 10
195.66587982488801
 20
25.561917519790502
 30
0.0
 11
195.66587982488801
 21
21.061917519790502
 31
0.0
  0
LINE
  5
144
  8
1
  6
DASHED
 62
     3
 10
200.66587982488801
 20
25.561917519790502
 30
0.0
 11
200.66587982488801
 21
21.061917519790502
 31
0.0
  0
LINE
  5
145
  8
1
  6
DASHDOT
 62
     3
 10
198.1658798248879
 20
26.4619175197905
 30
0.0
 11
198.1658798248879
 21
20.161917519790499
 31
0.0
  0
LINE
  5
146
  8
1
  6
DASHED
 62
     7
 10
196.16587982488801
 20
25.561917519790502
 30
0.0
 11
196.16587982488801
 21
21.061917519790502
 31
0.0
  0
LINE
  5
147
  8
1
  6
DASHED
 62
     7
 10
200.16587982488801
 20
25.561917519790502
 30
0.0
 11
200.16587982488801
 21
21.061917519790502
 31
0.0
  0
LINE
  5
148
  8
1
  6
DASHED
 62
     3
 10
55.181459637454282
 20
25.561917519790502
 30
0.0
 11
55.181459637454282
 21
21.061917519790502
 31
0.0
  0
LINE
  5
149
  8
1
  6
DASHED
 62
     3
 10
60.181459637454282
 20
25.561917519790502
 30
0.0
 11
60.181459637454282
 21
21.061917519790502
 31
0.0
  0
LINE
  5
14A
  8
1
  6
DASHDOT
 62
     3
 10
57.681459637454282
 20
26.4619175197905
 30
0.0
 11
57.681459637454303
 21
14.478046358199011
 31
0.0
  0
LINE
  5
14B
  8
1
  6
DASHED
 62
     7
 10
55.681459637454282
 20
25.561917519790502
 30
0.0
 11
55.681459637454282
 21
21.061917519790502
 31
0.0
  0
LINE
  5
14C
  8
1
  6
DASHED
 62
     7
 10
59.681459637454282
 20
25.561917519790502
 30
0.0
 11
59.681459637454282
 21
21.061917519790502
 31
0.0
  0
LINE
  5
14D
  8
1
  6
DASHED
 62
     3
 10
15.181459637454269
 20
25.561917519790502
 30
0.0
 11
15.181459637454269
 21
21.061917519790502
 31
0.0
  0
LINE
  5
14E
  8
1
  6
DASHED
 62
     3
 10
20.181459637454282
 20
25.561917519790502
 30
0.0
 11
20.181459637454282
 21
21.061917519790502
 31
0.0
  0
LINE
  5
14F
  8
1
  6
DASHED
 62
     7
 10
15.681459637454269
 20
25.561917519790502
 30
0.0
 11
15.681459637454269
 21
21.061917519790502
 31
0.0
  0
LINE
  5
150
  8
1
  6
DASHED
 62
     7
 10
19.681459637454282
 20
25.561917519790502
 30
0.0
 11
19.681459637454282
 21
21.061917519790502
 31
0.0
  0
LINE
  5
151
  8
1
  6
DASHDOT
 62
     3
 10
17.68145963745426
 20
26.4619175197905
 30
0.0
 11
17.681459637454282
 21
14.478046358199011
 31
0.0
  0
LINE
  5
152
  8
1
  6
DASHDOT
 62
     3
 10
53.681459637454282
 20
212.83373194974391
 30
0.0
 11
61.681459637454282
 21
212.83373194974391
 31
0.0
  0
LINE
  5
153
  8
1
  6
DASHDOT
 62
     3
 10
57.681459637454282
 20
208.83373194974391
 30
0.0
 11
57.681459637454282
 21
216.83373194974379
 31
0.0
  0
LINE
  5
154
  8
1
  6
DASHDOT
 62
     3
 10
53.681459637454282
 20
180.83373194974391
 30
0.0
 11
61.681459637454282
 21
180.83373194974391
 31
0.0
  0
LINE
  5
155
  8
1
  6
DASHDOT
 62
     3
 10
57.681459637454282
 20
176.83373194974379
 30
0.0
 11
57.681459637454282
 21
184.83373194974391
 31
0.0
  0
LINE
  5
156
  8
1
  6
DASHDOT
 62
     3
 10
13.681459637454269
 20
212.83373194974391
 30
0.0
 11
21.681459637454282
 21
212.83373194974391
 31
0.0
  0
LINE
  5
157
  8
1
  6
DASHDOT
 62
     3
 10
17.681459637454282
 20
208.83373194974391
 30
0.0
 11
17.681459637454282
 21
216.83373194974379
 31
0.0
  0
LINE
  5
158
  8
1
  6
DASHDOT
 62
     3
 10
13.681459637454269
 20
180.83373194974391
 30
0.0
 11
21.681459637454282
 21
180.83373194974391
 31
0.0
  0
LINE
  5
159
  8
1
  6
DASHDOT
 62
     3
 10
17.681459637454282
 20
176.83373194974379
 30
0.0
 11
17.681459637454282
 21
184.83373194974391
 31
0.0
  0
LINE
  5
15A
  8
1
 62
     7
 10
51.68145963745431
 20
169.83373194974391
 30
0.0
 11
51.68145963745431
 21
165.83373194974391
 31
0.0
  0
LINE
  5
15B
  8
1
 62
     7
 10
23.681459637454289
 20
223.83373194974391
 30
0.0
 11
23.681459637454289
 21
227.83373194974391
 31
0.0
  0
ARC
  5
15C
  8
1
  6
CENTER
 62
     3
 10
60.681459637454303
 20
162.83373194974391
 30
0.0
 40
1.999999999999974
 50
331.50667724884659
 51
0.0
  0
ARC
  5
15D
  8
1
  6
CENTER
 62
     3
 10
54.681459637454282
 20
162.83373194974391
 30
0.0
 40
2.0
 50
180.0
 51
270.0
  0
ARC
  5
15E
  8
1
  6
CENTER
 62
     3
 10
60.681459637454303
 20
162.83373194974391
 30
0.0
 40
2.0
 50
270.0
 51
278.01792702141779
  0
ARC
  5
15F
  8
1
 62
     7
 10
50.681459637454303
 20
165.83373194974391
 30
0.0
 40
1.0
 50
270.0
 51
0.0
  0
ARC
  5
160
  8
1
 62
     7
 10
65.88145963745427
 20
172.83373194974391
 30
0.0
 40
1.0
 50
270.0
 51
0.0
  0
ARC
  5
161
  8
1
  6
CENTER
 62
     3
 10
14.681459637454291
 20
162.83373194974391
 30
0.0
 40
2.0
 50
180.0
 51
208.49332275115279
  0
ARC
  5
162
  8
1
  6
CENTER
 62
     3
 10
60.681459637454303
 20
230.83373194974391
 30
0.0
 40
2.0
 50
0.0
 51
90.0
  0
ARC
  5
163
  8
1
  6
CENTER
 62
     3
 10
54.681459637454303
 20
230.83373194974391
 30
0.0
 40
2.0
 50
90.0
 51
180.0
  0
ARC
  5
164
  8
1
  6
CENTER
 62
     3
 10
20.681459637454299
 20
230.83373194974391
 30
0.0
 40
2.0
 50
0.0
 51
90.0
  0
ARC
  5
165
  8
1
  6
CENTER
 62
     3
 10
14.681459637454291
 20
230.83373194974391
 30
0.0
 40
2.0
 50
90.0
 51
180.0
  0
ARC
  5
166
  8
1
  6
CENTER
 62
     3
 10
20.681459637454299
 20
162.83373194974391
 30
0.0
 40
2.0
 50
270.0
 51
0.0
  0
ARC
  5
167
  8
1
  6
CENTER
 62
     3
 10
14.681459637454291
 20
162.83373194974391
 30
0.0
 40
2.000000000000016
 50
261.98207297858193
 51
270.0
  0
ARC
  5
168
  8
1
 62
     7
 10
210.365879824888
 20
47.967326879408269
 30
0.0
 40
1.400000000000005
 50
0.0
 51
44.194203722926638
  0
ARC
  5
169
  8
1
 62
     7
 10
212.66587982488801
 20
46.876955208470633
 30
0.0
 40
0.9000000000000056
 50
180.0
 51
270.0
  0
ARC
  5
16A
  8
1
 62
     7
 10
215.66587982488801
 20
46.876955208470633
 30
0.0
 40
0.8999999999999985
 50
270.0
 51
0.0
  0
ARC
  5
16B
  8
1
 62
     7
 10
217.96587982488791
 20
47.967326879408269
 30
0.0
 40
1.400000000000035
 50
135.8057962770722
 51
180.0
  0
ARC
  5
16C
  8
1
 62
     7
 10
67.881459637454284
 20
208.33373194974379
 30
0.0
 40
1.0
 50
180.0
 51
270.0
  0
ARC
  5
16D
  8
1
 62
     7
 10
70.881459637454284
 20
206.33373194974379
 30
0.0
 40
1.0
 50
0.0
 51
90.0
  0
ARC
  5
16E
  8
1
 62
     7
 10
70.881459637454284
 20
187.33373194974391
 30
0.0
 40
1.0
 50
270.0
 51
0.0
  0
ARC
  5
16F
  8
1
 62
     7
 10
67.881459637454284
 20
185.33373194974391
 30
0.0
 40
1.0
 50
90.0
 51
180.0
  0
ARC
  5
170
  8
1
 62
     7
 10
7.4814596374543028
 20
208.33373194974379
 30
0.0
 40
1.0
 50
270.0
 51
0.0
  0
ARC
  5
171
  8
1
 62
     7
 10
4.4814596374543028
 20
206.33373194974379
 30
0.0
 40
1.0
 50
90.0
 51
180.0
  0
ARC
  5
172
  8
1
 62
     7
 10
4.4814596374543028
 20
187.33373194974391
 30
0.0
 40
0.9999999999999996
 50
180.0
 51
270.0
  0
ARC
  5
173
  8
1
 62
     7
 10
7.4814596374543028
 20
185.33373194974391
 30
0.0
 40
1.0
 50
0.0
 51
90.0
  0
ARC
  5
174
  8
1
 62
     7
 10
24.681459637454289
 20
165.83373194974391
 30
0.0
 40
1.0
 50
180.0
 51
270.0
  0
ARC
  5
175
  8
1
 62
     7
 10
24.681459637454289
 20
227.83373194974391
 30
0.0
 40
1.0
 50
90.0
 51
180.0
  0
ARC
  5
176
  8
1
 62
     7
 10
50.681459637454289
 20
227.83373194974391
 30
0.0
 40
1.0
 50
0.0
 51
90.0
  0
ARC
  5
177
  8
1
 62
     7
 10
65.881459637454284
 20
220.83373194974379
 30
0.0
 40
1.0
 50
0.0
 51
90.0
  0
ARC
  5
178
  8
1
 62
     7
 10
7.4814596374543028
 20
63.061917519790491
 30
0.0
 40
1.0
 50
270.0
 51
0.0
  0
ARC
  5
179
  8
1
 62
     7
 10
4.4814596374543028
 20
61.061917519790498
 30
0.0
 40
1.0
 50
90.0
 51
180.0
  0
ARC
  5
17A
  8
1
 62
     7
 10
4.4814596374543028
 20
42.061917519790512
 30
0.0
 40
0.9999999999999996
 50
180.0
 51
270.0
  0
ARC
  5
17B
  8
1
 62
     7
 10
7.4814596374543028
 20
40.061917519790498
 30
0.0
 40
1.0
 50
0.0
 51
90.0
  0
ARC
  5
17C
  8
1
 62
     7
 10
65.881459637454284
 20
75.561917519790484
 30
0.0
 40
1.0
 50
0.0
 51
90.0
  0
ARC
  5
17D
  8
1
 62
     7
 10
67.881459637454284
 20
63.061917519790491
 30
0.0
 40
1.0
 50
180.0
 51
270.0
  0
ARC
  5
17E
  8
1
 62
     7
 10
70.881459637454284
 20
61.061917519790498
 30
0.0
 40
1.0
 50
0.0
 51
90.0
  0
ARC
  5
17F
  8
1
 62
     7
 10
70.881459637454284
 20
42.061917519790512
 30
0.0
 40
1.0
 50
270.0
 51
0.0
  0
ARC
  5
180
  8
1
 62
     7
 10
67.881459637454284
 20
40.061917519790498
 30
0.0
 40
1.0
 50
90.0
 51
180.0
  0
ARC
  5
181
  8
1
 62
     7
 10
65.881459637454284
 20
27.561917519790502
 30
0.0
 40
1.0
 50
270.0
 51
0.0
  0
ARC
  5
182
  8
1
 62
     7
 10
235.16587982488801
 20
30.561917519790502
 30
0.0
 40
5.0
 50
270.0
 51
0.0
  0
ARC
  5
183
  8
1
 62
     7
 10
235.16587982488801
 20
72.561917519790484
 30
0.0
 40
5.0
 50
0.0
 51
90.0
  0
ARC
  5
184
  8
1
 62
     7
 10
193.16587982488801
 20
30.561917519790502
 30
0.0
 40
5.0
 50
180.0
 51
270.0
  0
ARC
  5
185
  8
1
 62
     7
 10
193.16587982488801
 20
72.561917519790484
 30
0.0
 40
5.0
 50
90.0
 51
180.0
  0
ARC
  5
186
  8
1
 62
     7
 10
9.4814596374543285
 20
75.561917519790484
 30
0.0
 40
1.0
 50
90.0
 51
180.0
  0
ARC
  5
187
  8
1
 62
     7
 10
9.4814596374543285
 20
27.561917519790502
 30
0.0
 40
1.0
 50
180.0
 51
270.0
  0
ARC
  5
188
  8
1
 62
     7
 10
9.4814596374543196
 20
172.83373194974391
 30
0.0
 40
1.0
 50
180.0
 51
270.0
  0
ARC
  5
189
  8
1
 62
     7
 10
9.4814596374543196
 20
220.83373194974379
 30
0.0
 40
1.0
 50
90.0
 51
180.0
  0
ARC
  5
18A
  8
1
  6
CENTER
 62
     3
 10
57.681459637454303
 20
165.83373194974391
 30
0.0
 40
2.750000000000036
 50
117.28849796919189
 51
258.10360547484089
  0
ARC
  5
18B
  8
1
  6
CENTER
 62
     3
 10
57.681459637454303
 20
165.83373194974391
 30
0.0
 40
2.7499999999999249
 50
296.48528243647718
 51
309.0566728337613
  0
ARC
  5
18C
  8
1
  6
CENTER
 62
     3
 10
57.681459637456513
 20
165.83373194974351
 30
0.0
 40
2.749999999999968
 50
78.383195219929561
 51
78.906821007603
  0
ARC
  5
18D
  8
1
 62
     7
 10
74.081459637454245
 20
169.83373194974391
 30
0.0
 40
14.099999999999991
 50
180.0
 51
241.36235920854631
  0
ARC
  5
18E
  8
1
 62
     7
 10
74.081459637454245
 20
169.83373194974391
 30
0.0
 40
15.899999999999959
 50
180.0
 51
241.36235920854611
  0
ARC
  5
18F
  8
1
 62
     7
 10
87.281459637454276
 20
169.83373194974391
 30
0.0
 40
29.099999999999959
 50
180.0
 51
209.99999999999969
  0
ARC
  5
190
  8
1
 62
     7
 10
87.281459637454276
 20
169.83373194974391
 30
0.0
 40
30.899999999999991
 50
180.0
 51
210.0
  0
ARC
  5
191
  8
1
 62
     7
 10
214.1658798248879
 20
51.661917519790499
 30
0.0
 40
3.8999999999999861
 50
104.8571655449238
 51
224.1942037229291
  0
ARC
  5
192
  8
1
 62
     7
 10
213.11587982488791
 20
47.326955208470643
 30
0.0
 40
0.5499999999999972
 50
90.0
 51
270.0
  0
ARC
  5
193
  8
1
 62
     7
 10
215.21587982488791
 20
47.326955208470643
 30
0.0
 40
0.5500000000000043
 50
270.0
 51
90.0
  0
ARC
  5
194
  8
1
 62
     7
 10
214.1658798248879
 20
51.661917519790499
 30
0.0
 40
3.8999999999999928
 50
76.997175533200689
 51
103.0028244667992
  0
ARC
  5
195
  8
1
 62
     7
 10
214.1658798248879
 20
51.661917519790499
 30
0.0
 40
3.8999999999999488
 50
315.80579627707101
 51
75.142834455076041
  0
ARC
  5
196
  8
1
 62
     7
 10
214.1658798248879
 20
51.561917519790498
 30
0.0
 40
2.5000000000000031
 50
113.57817847820181
 51
66.421821521798222
  0
ARC
  5
197
  8
1
 62
     7
 10
214.1658798248879
 20
51.561917519790498
 30
0.0
 40
3.0
 50
0.0
 51
70.528779365509308
  0
ARC
  5
198
  8
1
 62
     7
 10
214.1658798248879
 20
51.561917519790498
 30
0.0
 40
3.0000000000000009
 50
109.47122063449071
 51
0.0
  0
ARC
  5
199
  8
1
  6
CENTER
 62
     3
 10
17.681459637454289
 20
165.83373194974391
 30
0.0
 40
2.749999999999968
 50
281.89639452515911
 51
62.711502030806891
  0
ARC
  5
19A
  8
1
  6
CENTER
 62
     3
 10
17.681459637454289
 20
165.83373194974391
 30
0.0
 40
2.7500000000000009
 50
230.94332716624001
 51
243.51471756352299
  0
ARC
  5
19B
  8
1
  6
CENTER
 62
     3
 10
17.68145963745209
 20
165.83373194974351
 30
0.0
 40
2.7499999999999698
 50
101.093178992397
 51
101.6168047800704
  0
ARC
  5
19C
  8
1
 62
     7
 10
1.281459637454315
 20
169.83373194974391
 30
0.0
 40
14.10000000000001
 50
298.63764079145369
 51
0.0
  0
ARC
  5
19D
  8
1
 62
     7
 10
1.281459637454315
 20
169.83373194974391
 30
0.0
 40
15.89999999999994
 50
298.6376407914538
 51
0.0
  0
ARC
  5
19E
  8
1
 62
     7
 10
-11.91854036254567
 20
169.83373194974391
 30
0.0
 40
29.099999999999941
 50
330.00000000000011
 51
0.0
  0
ARC
  5
19F
  8
1
 62
     7
 10
-11.91854036254567
 20
169.83373194974391
 30
0.0
 40
30.900000000000009
 50
329.99999999999977
 51
0.0
  0
ARC
  5
1A0
  8
1
 62
     7
 10
0.6814596374543023
 20
196.83373194974391
 30
0.0
 40
1.0
 50
270.0
 51
90.0
  0
ARC
  5
1A1
  8
1
 62
     7
 10
74.681459637454282
 20
196.83373194974391
 30
0.0
 40
1.0
 50
90.0
 51
270.0
  0
ARC
  5
1A2
  8
1
 62
     7
 10
187.16587982488801
 20
36.561917519790498
 30
0.0
 40
14.099999999999991
 50
90.0
 51
151.36235920854611
  0
ARC
  5
1A3
  8
1
 62
     7
 10
187.16587982488801
 20
36.561917519790498
 30
0.0
 40
15.9
 50
129.3230891812492
 51
151.36235920854631
  0
ARC
  5
1A4
  8
1
 62
     7
 10
187.16587982488801
 20
66.561917519790498
 30
0.0
 40
14.10000000000001
 50
208.6376407914538
 51
270.0
  0
ARC
  5
1A5
  8
1
 62
     7
 10
187.16587982488801
 20
66.561917519790498
 30
0.0
 40
15.90000000000005
 50
208.63764079145361
 51
230.67691081875071
  0
ARC
  5
1A6
  8
1
 62
     7
 10
187.16587982488801
 20
21.561917519790502
 30
0.0
 40
29.099999999999991
 50
90.0
 51
119.9999999999999
  0
ARC
  5
1A7
  8
1
 62
     7
 10
187.16587982488801
 20
21.561917519790502
 30
0.0
 40
30.899999999999981
 50
103.86243211643399
 51
119.9999999999999
  0
ARC
  5
1A8
  8
1
 62
     7
 10
187.16587982488801
 20
81.561917519790484
 30
0.0
 40
30.900000000000009
 50
239.99999999999989
 51
270.0
  0
ARC
  5
1A9
  8
1
 62
     7
 10
187.16587982488801
 20
81.561917519790484
 30
0.0
 40
29.099999999999991
 50
239.99999999999989
 51
270.0
  0
ARC
  5
1AA
  8
1
 62
     7
 10
47.681459637454303
 20
61.061917519790498
 30
0.0
 40
1.0
 50
270.0
 51
0.0
  0
ARC
  5
1AB
  8
1
 62
     7
 10
47.681459637454303
 20
63.061917519790491
 30
0.0
 40
1.0
 50
0.0
 51
90.0
  0
ARC
  5
1AC
  8
1
 62
     7
 10
27.681459637454299
 20
61.061917519790498
 30
0.0
 40
1.0
 50
180.0
 51
270.0
  0
ARC
  5
1AD
  8
1
 62
     7
 10
27.681459637454299
 20
63.061917519790491
 30
0.0
 40
1.0
 50
90.0
 51
180.0
  0
ARC
  5
1AE
  8
1
 62
     7
 10
47.681459637454303
 20
68.061917519790484
 30
0.0
 40
1.0
 50
270.0
 51
0.0
  0
ARC
  5
1AF
  8
1
 62
     7
 10
47.681459637454303
 20
70.061917519790484
 30
0.0
 40
1.0
 50
0.0
 51
90.0
  0
ARC
  5
1B0
  8
1
 62
     7
 10
27.681459637454299
 20
68.061917519790484
 30
0.0
 40
1.0
 50
180.0
 51
270.0
  0
ARC
  5
1B1
  8
1
 62
     7
 10
27.681459637454299
 20
70.061917519790484
 30
0.0
 40
1.0
 50
90.0
 51
180.0
  0
ARC
  5
1B2
  8
1
 62
     7
 10
50.181459637454282
 20
30.561917519790502
 30
0.0
 40
1.5
 50
270.0
 51
90.0
  0
ARC
  5
1B3
  8
1
 62
     7
 10
25.181459637454299
 20
30.561917519790502
 30
0.0
 40
1.4999999999999949
 50
90.0
 51
270.0
  0
ARC
  5
1B4
  8
1
 62
     7
 10
50.181459637454282
 20
37.561917519790498
 30
0.0
 40
1.5
 50
270.0
 51
90.0
  0
ARC
  5
1B5
  8
1
 62
     7
 10
25.181459637454299
 20
37.561917519790498
 30
0.0
 40
1.5
 50
90.0
 51
270.0
  0
ARC
  5
1B6
  8
1
 62
     7
 10
50.181459637454282
 20
44.561917519790498
 30
0.0
 40
1.5
 50
270.0
 51
90.0
  0
ARC
  5
1B7
  8
1
 62
     7
 10
25.181459637454299
 20
44.561917519790498
 30
0.0
 40
1.5
 50
90.0
 51
270.0
  0
ARC
  5
1B8
  8
1
 62
     7
 10
50.181459637454282
 20
51.561917519790498
 30
0.0
 40
1.5
 50
270.0
 51
90.0
  0
ARC
  5
1B9
  8
1
 62
     7
 10
25.181459637454299
 20
51.561917519790498
 30
0.0
 40
1.5
 50
90.0
 51
270.0
  0
ARC
  5
1BA
  8
1
 62
     7
 10
50.181459637454282
 20
58.561917519790498
 30
0.0
 40
1.5
 50
270.0
 51
90.0
  0
ARC
  5
1BB
  8
1
 62
     7
 10
25.181459637454299
 20
58.561917519790498
 30
0.0
 40
1.5
 50
90.0
 51
270.0
  0
ARC
  5
1BC
  8
1
 62
     7
 10
50.181459637454282
 20
65.561917519790484
 30
0.0
 40
1.5
 50
270.0
 51
90.0
  0
ARC
  5
1BD
  8
1
 62
     7
 10
25.181459637454299
 20
65.561917519790484
 30
0.0
 40
1.5
 50
90.0
 51
270.0
  0
ARC
  5
1BE
  8
1
 62
     7
 10
50.181459637454282
 20
72.561917519790484
 30
0.0
 40
1.5
 50
270.0
 51
90.0
  0
ARC
  5
1BF
  8
1
 62
     7
 10
25.181459637454299
 20
72.561917519790484
 30
0.0
 40
1.5
 50
90.0
 51
270.0
  0
ARC
  5
1C0
  8
1
 62
     7
 10
63.18145963745431
 20
25.061917519790502
 30
0.0
 40
0.5
 50
90.0
 51
180.0
  0
ARC
  5
1C1
  8
1
 62
     7
 10
12.18145963745431
 20
25.061917519790502
 30
0.0
 40
0.5
 50
0.0
 51
90.0
  0
ARC
  5
1C2
  8
1
 62
     7
 10
220.16587982488801
 20
21.061917519790502
 30
0.0
 40
1.5
 50
0.0
 51
90.0
  0
ARC
  5
1C3
  8
1
 62
     7
 10
238.16587982488801
 20
23.145719032694821
 30
0.0
 40
3.0000000000000062
 50
112.0243128370421
 51
180.0
  0
ARC
  5
1C4
  8
1
 62
     7
 10
240.29331490739281
 20
28.57209102617362
 30
0.0
 40
0.5000000000000036
 50
95.655099316527298
 51
158.7900399833982
  0
ARC
  5
1C5
  8
1
 62
     7
 10
240.29331490739281
 20
74.551744013407372
 30
0.0
 40
0.5000000000000355
 50
201.20996001660521
 51
264.34490068347259
  0
ARC
  5
1C6
  8
1
 62
     7
 10
245.16587982488801
 20
30.561917519790502
 30
0.0
 40
1.000000000000046
 50
275.65509931652542
 51
84.344900683474506
  0
ARC
  5
1C7
  8
1
 62
     7
 10
240.66587982488801
 20
32.514851942662972
 30
0.0
 40
0.5
 50
180.0
 51
264.34490068348242
  0
ARC
  5
1C8
  8
1
 62
     7
 10
240.66587982488801
 20
35.608983096918017
 30
0.0
 40
0.4999999999999986
 50
95.655099316517536
 51
180.0
  0
ARC
  5
1C9
  8
1
 62
     7
 10
245.16587982488801
 20
37.561917519790498
 30
0.0
 40
1.000000000000046
 50
275.65509931652542
 51
84.344900683474549
  0
ARC
  5
1CA
  8
1
 62
     7
 10
240.66587982488801
 20
39.514851942662972
 30
0.0
 40
0.5
 50
180.0
 51
264.34490068348242
  0
ARC
  5
1CB
  8
1
 62
     7
 10
240.66587982488801
 20
42.608983096918017
 30
0.0
 40
0.4999999999999986
 50
95.655099316517536
 51
180.0
  0
ARC
  5
1CC
  8
1
 62
     7
 10
245.16587982488801
 20
44.561917519790498
 30
0.0
 40
1.000000000000046
 50
275.65509931652542
 51
84.344900683474549
  0
ARC
  5
1CD
  8
1
 62
     7
 10
240.66587982488801
 20
46.514851942662972
 30
0.0
 40
0.5
 50
180.0
 51
264.34490068348242
  0
ARC
  5
1CE
  8
1
 62
     7
 10
240.66587982488801
 20
49.608983096918017
 30
0.0
 40
0.4999999999999986
 50
95.655099316517536
 51
180.0
  0
ARC
  5
1CF
  8
1
 62
     7
 10
245.16587982488801
 20
51.561917519790498
 30
0.0
 40
1.000000000000046
 50
275.65509931652542
 51
84.344900683474549
  0
ARC
  5
1D0
  8
1
 62
     7
 10
240.66587982488801
 20
53.514851942662972
 30
0.0
 40
0.5
 50
180.0
 51
264.34490068348242
  0
ARC
  5
1D1
  8
1
 62
     7
 10
240.66587982488801
 20
56.608983096918017
 30
0.0
 40
0.4999999999999986
 50
95.655099316517536
 51
180.0
  0
ARC
  5
1D2
  8
1
 62
     7
 10
245.16587982488801
 20
58.561917519790498
 30
0.0
 40
1.000000000000046
 50
275.65509931652542
 51
84.344900683474549
  0
ARC
  5
1D3
  8
1
 62
     7
 10
240.66587982488801
 20
60.514851942662972
 30
0.0
 40
0.5
 50
180.0
 51
264.34490068348242
  0
ARC
  5
1D4
  8
1
 62
     7
 10
240.66587982488801
 20
63.60898309691801
 30
0.0
 40
0.4999999999999986
 50
95.655099316517536
 51
180.0
  0
ARC
  5
1D5
  8
1
 62
     7
 10
245.16587982488801
 20
65.561917519790484
 30
0.0
 40
1.00000000000004
 50
275.65509931652542
 51
84.344900683474549
  0
ARC
  5
1D6
  8
1
 62
     7
 10
240.66587982488801
 20
67.514851942662972
 30
0.0
 40
0.5
 50
180.0
 51
264.34490068348242
  0
ARC
  5
1D7
  8
1
 62
     7
 10
240.66587982488801
 20
70.608983096918024
 30
0.0
 40
0.4999999999999917
 50
95.655099316517621
 51
180.0
  0
ARC
  5
1D8
  8
1
 62
     7
 10
245.16587982488801
 20
72.561917519790484
 30
0.0
 40
1.00000000000004
 50
275.65509931652542
 51
84.344900683474549
  0
ARC
  5
1D9
  8
1
 62
     7
 10
208.16587982488801
 20
21.061917519790502
 30
0.0
 40
1.5
 50
90.0
 51
180.0
  0
ARC
  5
1DA
  8
1
 62
     7
 10
190.16587982488801
 20
23.145719032694821
 30
0.0
 40
3.0
 50
0.0
 51
67.975687162957882
  0
ARC
  5
1DB
  8
1
 62
     7
 10
188.03844474238329
 20
28.57209102617362
 30
0.0
 40
0.5000000000000089
 50
21.209960016606338
 51
84.344900683472716
  0
ARC
  5
1DC
  8
1
 62
     7
 10
188.03844474238329
 20
74.551744013407372
 30
0.0
 40
0.5
 50
275.6550993165273
 51
338.79003998339363
  0
ARC
  5
1DD
  8
1
 62
     7
 10
183.16587982488801
 20
30.561917519790502
 30
0.0
 40
1.0000000000000271
 50
95.655099316520634
 51
264.34490068347952
  0
ARC
  5
1DE
  8
1
 62
     7
 10
187.66587982488801
 20
32.514851942662972
 30
0.0
 40
0.4999999999999972
 50
275.655099316524
 51
0.0
  0
ARC
  5
1DF
  8
1
 62
     7
 10
187.66587982488801
 20
35.608983096918017
 30
0.0
 40
0.5
 50
0.0
 51
84.344900683475984
  0
ARC
  5
1E0
  8
1
 62
     7
 10
183.16587982488801
 20
37.561917519790498
 30
0.0
 40
1.00000000000003
 50
95.655099316520605
 51
264.34490068347952
  0
ARC
  5
1E1
  8
1
 62
     7
 10
187.66587982488801
 20
39.514851942662972
 30
0.0
 40
0.4999999999999972
 50
275.655099316524
 51
0.0
  0
ARC
  5
1E2
  8
1
 62
     7
 10
187.66587982488801
 20
42.608983096918017
 30
0.0
 40
0.5
 50
0.0
 51
84.344900683475984
  0
ARC
  5
1E3
  8
1
 62
     7
 10
183.16587982488801
 20
44.561917519790498
 30
0.0
 40
1.00000000000003
 50
95.655099316520605
 51
264.34490068347952
  0
ARC
  5
1E4
  8
1
 62
     7
 10
187.66587982488801
 20
46.514851942662972
 30
0.0
 40
0.4999999999999972
 50
275.655099316524
 51
0.0
  0
ARC
  5
1E5
  8
1
 62
     7
 10
187.66587982488801
 20
56.608983096918017
 30
0.0
 40
0.5
 50
0.0
 51
84.344900683475984
  0
ARC
  5
1E6
  8
1
 62
     7
 10
183.16587982488801
 20
58.561917519790498
 30
0.0
 40
1.00000000000003
 50
95.655099316520605
 51
264.34490068347952
  0
ARC
  5
1E7
  8
1
 62
     7
 10
187.66587982488801
 20
60.514851942662972
 30
0.0
 40
0.4999999999999972
 50
275.655099316524
 51
0.0
  0
ARC
  5
1E8
  8
1
 62
     7
 10
187.66587982488801
 20
63.60898309691801
 30
0.0
 40
0.5
 50
0.0
 51
84.344900683475984
  0
ARC
  5
1E9
  8
1
 62
     7
 10
183.16587982488801
 20
65.561917519790484
 30
0.0
 40
1.00000000000003
 50
95.655099316520605
 51
264.34490068347941
  0
ARC
  5
1EA
  8
1
 62
     7
 10
187.66587982488801
 20
67.514851942662972
 30
0.0
 40
0.4999999999999972
 50
275.655099316524
 51
0.0
  0
ARC
  5
1EB
  8
1
 62
     7
 10
187.66587982488801
 20
70.608983096918024
 30
0.0
 40
0.5
 50
0.0
 51
84.344900683475899
  0
ARC
  5
1EC
  8
1
 62
     7
 10
183.16587982488801
 20
72.561917519790484
 30
0.0
 40
1.00000000000003
 50
95.655099316520605
 51
264.34490068347941
  0
ARC
  5
1ED
  8
1
 62
     7
 10
18.381459637454299
 20
51.561917519790498
 30
0.0
 40
1.1999999999999951
 50
270.0
 51
90.0
  0
ARC
  5
1EE
  8
1
 62
     7
 10
15.9814596374543
 20
51.561917519790498
 30
0.0
 40
1.2000000000000031
 50
90.0
 51
270.0
  0
ARC
  5
1EF
  8
1
 62
     7
 10
56.981459637454279
 20
51.561917519790498
 30
0.0
 40
1.2000000000000031
 50
90.0
 51
270.0
  0
ARC
  5
1F0
  8
1
 62
     7
 10
59.38145963745427
 20
51.561917519790498
 30
0.0
 40
1.1999999999999951
 50
270.0
 51
90.0
  0
ARC
  5
1F1
  8
1
 62
     7
 10
235.361316307518
 20
72.757354002420556
 30
0.0
 40
1.48750000000001
 50
180.0
 51
270.0
  0
ARC
  5
1F2
  8
1
 62
     7
 10
231.861316307518
 20
72.757354002420556
 30
0.0
 40
1.487499999999996
 50
270.0
 51
0.0
  0
ARC
  5
1F3
  8
1
 62
     7
 10
231.861316307518
 20
69.257354002420556
 30
0.0
 40
1.4874999999999821
 50
0.0
 51
90.0
  0
ARC
  5
1F4
  8
1
 62
     7
 10
235.361316307518
 20
69.257354002420556
 30
0.0
 40
1.487499999999996
 50
90.0
 51
180.0
  0
ARC
  5
1F5
  8
1
 62
     7
 10
192.97044334225791
 20
72.757354002420556
 30
0.0
 40
1.48750000000001
 50
270.0
 51
0.0
  0
ARC
  5
1F6
  8
1
 62
     7
 10
192.97044334225779
 20
69.257354002420556
 30
0.0
 40
1.4874999999999821
 50
0.0
 51
90.0
  0
ARC
  5
1F7
  8
1
 62
     7
 10
196.47044334225791
 20
69.257354002420556
 30
0.0
 40
1.48750000000001
 50
90.0
 51
180.0
  0
ARC
  5
1F8
  8
1
 62
     7
 10
196.47044334225799
 20
72.757354002420556
 30
0.0
 40
1.4874999999999821
 50
180.0
 51
270.0
  0
ARC
  5
1F9
  8
1
 62
     7
 10
192.97044334225779
 20
30.36648103716043
 30
0.0
 40
1.4874999999999821
 50
0.0
 51
90.0
  0
ARC
  5
1FA
  8
1
 62
     7
 10
196.47044334225791
 20
30.36648103716043
 30
0.0
 40
1.4874999999999889
 50
90.0
 51
180.0
  0
ARC
  5
1FB
  8
1
 62
     7
 10
196.47044334225791
 20
33.866481037160433
 30
0.0
 40
1.48750000000001
 50
180.0
 51
270.0
  0
ARC
  5
1FC
  8
1
 62
     7
 10
192.97044334225779
 20
33.866481037160433
 30
0.0
 40
1.487500000000004
 50
270.0
 51
0.0
  0
ARC
  5
1FD
  8
1
 62
     7
 10
235.361316307518
 20
30.366481037160391
 30
0.0
 40
1.4875000000000069
 50
90.0
 51
180.0
  0
ARC
  5
1FE
  8
1
 62
     7
 10
235.361316307518
 20
33.866481037160391
 30
0.0
 40
1.48750000000001
 50
180.0
 51
270.0
  0
ARC
  5
1FF
  8
1
 62
     7
 10
231.861316307518
 20
33.866481037160391
 30
0.0
 40
1.487500000000004
 50
270.0
 51
0.0
  0
ARC
  5
200
  8
1
 62
     7
 10
231.861316307518
 20
30.366481037160391
 30
0.0
 40
1.4874999999999821
 50
0.0
 51
90.0
  0
ARC
  5
201
  8
1
 62
     7
 10
194.16587982488801
 20
71.561917519790498
 30
0.0
 40
5.0
 50
90.0
 51
180.0
  0
ARC
  5
202
  8
1
 62
     7
 10
194.16587982488801
 20
31.56191751979048
 30
0.0
 40
5.0
 50
180.0
 51
270.0
  0
ARC
  5
203
  8
1
 62
     7
 10
234.16587982488801
 20
31.56191751979048
 30
0.0
 40
5.0
 50
270.0
 51
0.0
  0
ARC
  5
204
  8
1
 62
     7
 10
234.16587982488801
 20
71.561917519790498
 30
0.0
 40
5.0
 50
0.0
 51
90.0
  0
ARC
  5
205
  8
1
 62
     7
 10
22.681459637454299
 20
169.83373194974391
 30
0.0
 40
1.0
 50
0.0
 51
90.0
  0
ARC
  5
206
  8
1
 62
     7
 10
52.68145963745431
 20
169.83373194974391
 30
0.0
 40
1.0
 50
90.0
 51
180.0
  0
ARC
  5
207
  8
1
 62
     7
 10
22.681459637454299
 20
223.83373194974391
 30
0.0
 40
1.0
 50
270.0
 51
0.0
  0
ARC
  5
208
  8
1
 62
     7
 10
52.68145963745431
 20
223.83373194974391
 30
0.0
 40
1.0
 50
180.0
 51
270.0
  0
CIRCLE
  5
209
  8
1
 62
     7
 10
214.1658798248879
 20
51.561917519790498
 30
0.0
 40
7.25
  0
CIRCLE
  5
20A
  8
1
 62
     7
 10
214.1658798248879
 20
51.561917519790498
 30
0.0
 40
10.5
  0
CIRCLE
  5
20B
  8
1
 62
     7
 10
57.28145963745429
 20
51.561917519790498
 30
0.0
 40
0.9000000000000127
  0
CIRCLE
  5
20C
  8
1
 62
     7
 10
59.081459637454287
 20
51.561917519790498
 30
0.0
 40
0.8999999999999843
  0
CIRCLE
  5
20D
  8
1
 62
     7
 10
16.281459637454301
 20
51.561917519790498
 30
0.0
 40
0.8999999999999985
  0
CIRCLE
  5
20E
  8
1
 62
     7
 10
18.081459637454302
 20
51.561917519790498
 30
0.0
 40
0.9000000000000021
  0
CIRCLE
  5
20F
  8
1
  6
CENTER
 62
     3
 10
57.681459637454303
 20
227.83373194974391
 30
0.0
 40
2.75
  0
CIRCLE
  5
210
  8
1
  6
CENTER
 62
     3
 10
17.681459637454289
 20
227.83373194974391
 30
0.0
 40
2.75
  0
CIRCLE
  5
211
  8
1
 62
     7
 10
17.18145963745431
 20
51.561917519790498
 30
0.0
 40
3.5
  0
CIRCLE
  5
212
  8
1
 62
     7
 10
58.18145963745431
 20
51.561917519790498
 30
0.0
 40
3.500000000000028
  0
CIRCLE
  5
213
  8
1
 62
     7
 10
233.61131630751811
 20
71.007354002420556
 30
0.0
 40
3.0
  0
CIRCLE
  5
214
  8
1
 62
     7
 10
194.72044334225791
 20
71.007354002420556
 30
0.0
 40
3.0
  0
CIRCLE
  5
215
  8
1
 62
     7
 10
194.72044334225791
 20
32.116481037160433
 30
0.0
 40
3.0
  0
CIRCLE
  5
216
  8
1
 62
     7
 10
233.61131630751811
 20
32.116481037160398
 30
0.0
 40
3.0
  0
CIRCLE
  5
217
  8
1
 62
     7
 10
214.1658798248879
 20
66.061917519790498
 30
0.0
 40
1.8999999999999759
  0
CIRCLE
  5
218
  8
1
 62
     7
 10
199.66587982488801
 20
51.561917519790498
 30
0.0
 40
1.8999999999999759
  0
CIRCLE
  5
219
  8
1
 62
     7
 10
214.1658798248879
 20
37.06191751979047
 30
0.0
 40
1.8999999999999759
  0
CIRCLE
  5
21A
  8
1
 62
     7
 10
228.6658798248879
 20
51.56191751979047
 30
0.0
 40
1.8999999999999759
  0
CIRCLE
  5
21B
  8
1
  6
DASHED
 62
     7
 10
57.681459637454282
 20
212.83373194974391
 30
0.0
 40
2.0
  0
CIRCLE
  5
21C
  8
1
  6
DASHED
 62
     3
 10
57.681459637454282
 20
212.83373194974391
 30
0.0
 40
2.5
  0
CIRCLE
  5
21D
  8
1
  6
DASHED
 62
     7
 10
57.681459637454282
 20
180.83373194974391
 30
0.0
 40
2.0
  0
CIRCLE
  5
21E
  8
1
  6
DASHED
 62
     3
 10
57.681459637454282
 20
180.83373194974391
 30
0.0
 40
2.5
  0
CIRCLE
  5
21F
  8
1
  6
DASHED
 62
     7
 10
17.681459637454282
 20
212.83373194974391
 30
0.0
 40
2.0
  0
CIRCLE
  5
220
  8
1
  6
DASHED
 62
     3
 10
17.681459637454282
 20
212.83373194974391
 30
0.0
 40
2.5
  0
CIRCLE
  5
221
  8
1
  6
DASHED
 62
     7
 10
17.681459637454282
 20
180.83373194974391
 30
0.0
 40
2.0
  0
CIRCLE
  5
222
  8
1
  6
DASHED
 62
     3
 10
17.681459637454282
 20
180.83373194974391
 30
0.0
 40
2.5
  0
TEXT
  5
224
  8
1
 62
     7
 10
29.722691033051301
 20
106.49144289866889
 30
0.0
 40
3.5
  1
MP 5
 41
0.9
  7
SIMPLEX
  0
TEXT
  5
225
  8
1
 62
     3
 10
194.16587982488801
 20
21.811917519790502
 30
0.0
 40
3.0
  1
INPUT
 41
0.8732691000000002
  7
COMPLEX
  0
ENDSEC
  0
EOF
