  0
SECTION
  2
HEADER
  9
$ACADVER
  1
AC1009
  9
$INSBASE
 10
0.0
 20
0.0
 30
0.0
  9
$EXTMIN
 10
-329.00001372756788
 20
-105.0000000000052
 30
0.0
  9
$EXTMAX
 10
303.79726192907339
 20
392.0852987379721
 30
0.0
  9
$LIMMIN
 10
-329.00001372756788
 20
-105.0000000000052
  9
$LIMMAX
 10
303.38304836670028
 20
390.84265805085289
  9
$ORTHOMODE
 70
     0
  9
$REGENMODE
 70
     1
  9
$FILLMODE
 70
     1
  9
$QTEXTMODE
 70
     0
  9
$MIRRTEXT
 70
     1
  9
$DRAGMODE
 70
     2
  9
$LTSCALE
 40
1.0
  9
$OSMODE
 70
    37
  9
$ATTMODE
 70
     1
  9
$TEXTSIZE
 40
3.5
  9
$TRACEWID
 40
0.5
  9
$TEXTSTYLE
  7
STANDARD
  9
$CLAYER
  8
0
  9
$CELTYPE
  6
BYLAYER
  9
$CECOLOR
 62
   256
  9
$DIMSCALE
 40
1.0
  9
$DIMASZ
 40
0.18
  9
$DIMEXO
 40
0.0625
  9
$DIMDLI
 40
0.38
  9
$DIMRND
 40
0.0
  9
$DIMDLE
 40
0.0
  9
$DIMEXE
 40
0.18
  9
$DIMTP
 40
0.0
  9
$DIMTM
 40
0.0
  9
$DIMTXT
 40
0.18
  9
$DIMCEN
 40
0.09
  9
$DIMTSZ
 40
0.0
  9
$DIMTOL
 70
     0
  9
$DIMLIM
 70
     0
  9
$DIMTIH
 70
     1
  9
$DIMTOH
 70
     1
  9
$DIMSE1
 70
     0
  9
$DIMSE2
 70
     0
  9
$DIMTAD
 70
     0
  9
$DIMZIN
 70
     0
  9
$DIMBLK
  1

  9
$DIMASO
 70
     1
  9
$DIMSHO
 70
     1
  9
$DIMPOST
  1

  9
$DIMAPOST
  1

  9
$DIMALT
 70
     0
  9
$DIMALTD
 70
     2
  9
$DIMALTF
 40
25.399999999999999
  9
$DIMLFAC
 40
1.0
  9
$DIMTOFL
 70
     0
  9
$DIMTVP
 40
0.0
  9
$DIMTIX
 70
     0
  9
$DIMSOXD
 70
     0
  9
$DIMSAH
 70
     0
  9
$DIMBLK1
  1

  9
$DIMBLK2
  1

  9
$DIMSTYLE
  2
STANDARD
  9
$DIMCLRD
 70
     0
  9
$DIMCLRE
 70
     0
  9
$DIMCLRT
 70
     0
  9
$DIMTFAC
 40
1.0
  9
$DIMGAP
 40
0.09
  9
$LUNITS
 70
     2
  9
$LUPREC
 70
     4
  9
$SKETCHINC
 40
0.1
  9
$FILLETRAD
 40
2.0
  9
$AUNITS
 70
     0
  9
$AUPREC
 70
     0
  9
$MENU
  1
ACAD
  9
$ELEVATION
 40
0.0
  9
$PELEVATION
 40
0.0
  9
$THICKNESS
 40
0.0
  9
$LIMCHECK
 70
     0
  9
$BLIPMODE
 70
     0
  9
$CHAMFERA
 40
0.0
  9
$CHAMFERB
 40
0.0
  9
$SKPOLY
 70
     0
  9
$TDCREATE
 40
2452094.9227171298
  9
$TDUPDATE
 40
2452094.9235771992
  9
$TDINDWG
 40
0.0008728009
  9
$TDUSRTIMER
 40
0.0008728009
  9
$USRTIMER
 70
     1
  9
$ANGBASE
 50
0.0
  9
$ANGDIR
 70
     0
  9
$PDMODE
 70
     0
  9
$PDSIZE
 40
0.0
  9
$PLINEWID
 40
0.0
  9
$COORDS
 70
     1
  9
$SPLFRAME
 70
     0
  9
$SPLINETYPE
 70
     6
  9
$SPLINESEGS
 70
     8
  9
$ATTDIA
 70
     0
  9
$ATTREQ
 70
     1
  9
$HANDLING
 70
 10241
  9
$HANDSEED
  5
313
  9
$SURFTAB1
 70
     6
  9
$SURFTAB2
 70
     6
  9
$SURFTYPE
 70
     6
  9
$SURFU
 70
     6
  9
$SURFV
 70
     6
  9
$UCSNAME
  2

  9
$UCSORG
 10
0.0
 20
0.0
 30
0.0
  9
$UCSXDIR
 10
1.0
 20
0.0
 30
0.0
  9
$UCSYDIR
 10
0.0
 20
1.0
 30
0.0
  9
$PUCSNAME
  2

  9
$PUCSORG
 10
0.0
 20
0.0
 30
0.0
  9
$PUCSXDIR
 10
1.0
 20
0.0
 30
0.0
  9
$PUCSYDIR
 10
0.0
 20
1.0
 30
0.0
  9
$USERI1
 70
     0
  9
$USERI2
 70
     0
  9
$USERI3
 70
     0
  9
$USERI4
 70
     0
  9
$USERI5
 70
     0
  9
$USERR1
 40
0.0
  9
$USERR2
 40
0.0
  9
$USERR3
 40
0.0
  9
$USERR4
 40
0.0
  9
$USERR5
 40
0.0
  9
$WORLDVIEW
 70
     1
  9
$SHADEDGE
 70
     3
  9
$SHADEDIF
 70
    70
  9
$TILEMODE
 70
     1
  9
$MAXACTVP
 70
    64
  9
$PLIMCHECK
 70
     0
  9
$PEXTMIN
 10
1.0000000000000000E+020
 20
1.0000000000000000E+020
 30
1.0000000000000000E+020
  9
$PEXTMAX
 10
-1.0000000000000000E+020
 20
-1.0000000000000000E+020
 30
-1.0000000000000000E+020
  9
$PLIMMIN
 10
0.0
 20
0.0
  9
$PLIMMAX
 10
12.0
 20
9.0
  9
$UNITMODE
 70
     0
  9
$VISRETAIN
 70
     1
  9
$PLINEGEN
 70
     0
  9
$PSLTSCALE
 70
     1
  0
ENDSEC
  0
SECTION
  2
TABLES
  0
TABLE
  2
VPORT
 70
     2
  0
VPORT
  2
*ACTIVE
 70
     0
 10
0.0
 20
0.0
 11
1.0
 21
1.0
 12
192.83919171305271
 22
298.48423865214619
 13
0.0
 23
0.0
 14
1.0
 24
1.0
 15
0.0
 25
0.0
 16
0.0
 26
0.0
 36
1.0
 17
0.0
 27
0.0
 37
0.0
 40
9.0000006821221632
 41
2.4144144144144142
 42
50.0
 43
0.0
 44
0.0
 50
0.0
 51
0.0
 71
     0
 72
   100
 73
     1
 74
     1
 75
     0
 76
     0
 77
     0
 78
     0
  0
ENDTAB
  0
TABLE
  2
LTYPE
 70
     9
  0
LTYPE
  2
CONTINUOUS
 70
     0
  3
Solid line
 72
    65
 73
     0
 40
0.0
  0
LTYPE
  2
BORDER
 70
     0
  3
__ __ . __ __ .
 72
    65
 73
     6
 40
29.122904175393931
 49
8.3208297643982672
 49
-4.1604148821991327
 49
8.3208297643982672
 49
-4.1604148821991327
 49
0.0
 49
-4.1604148821991327
  0
LTYPE
  2
CENTER
 70
     0
  3
____ _ ____ _
 72
    65
 73
     4
 40
33.283319057593069
 49
20.802074410995669
 49
-4.1604148821991327
 49
4.1604148821991327
 49
-4.1604148821991327
  0
LTYPE
  2
DASHDOT
 70
     0
  3
__ . __ . __ .
 72
    65
 73
     4
 40
16.641659528796531
 49
8.3208297643982672
 49
-4.1604148821991327
 49
0.0
 49
-4.1604148821991327
  0
LTYPE
  2
DASHED
 70
     0
  3
__ __ __ __ __
 72
    65
 73
     2
 40
12.4812446465974
 49
8.3208297643982672
 49
-4.1604148821991327
  0
LTYPE
  2
DIVIDE
 70
     0
  3
__ . . __ . . 
 72
    65
 73
     6
 40
20.802074410995669
 49
8.3208297643982672
 49
-4.1604148821991327
 49
0.0
 49
-4.1604148821991327
 49
0.0
 49
-4.1604148821991327
  0
LTYPE
  2
DOT
 70
     0
  3
..............
 72
    65
 73
     4
 40
8.3208297643982672
 49
0.0
 49
-4.1604148821991327
 49
0.0
 49
-4.1604148821991327
  0
LTYPE
  2
HIDDEN
 70
     0
  3
_ _ _ _ _ _ _
 72
    65
 73
     2
 40
6.240622323298699
 49
4.1604148821991327
 49
-2.0802074410995659
  0
LTYPE
  2
PHANTOM
 70
     0
  3
_____ _ _ _____ _ _ 
 72
    65
 73
     6
 40
41.604148821991338
 49
20.802074410995669
 49
-4.1604148821991327
 49
4.1604148821991327
 49
-4.1604148821991327
 49
4.1604148821991327
 49
-4.1604148821991327
  0
ENDTAB
  0
TABLE
  2
LAYER
 70
     2
  0
LAYER
  2
0
 70
     0
 62
     7
  6
CONTINUOUS
  0
LAYER
  2
1
 70
     0
 62
     7
  6
CONTINUOUS
  0
ENDTAB
  0
TABLE
  2
STYLE
 70
     4
  0
STYLE
  2
STANDARD
 70
     0
 40
0.0
 41
1.0
 50
0.0
 71
     0
 42
3.5
  3
txt
  4

  0
STYLE
  2
SIMPLEX
 70
     0
 40
0.0
 41
1.0
 50
0.0
 71
     0
 42
3.5
  3
simplex
  4

  0
STYLE
  2
COMPLEX
 70
     0
 40
0.0
 41
1.0
 50
0.0
 71
     0
 42
3.5
  3
complex
  4

  0
STYLE
  2
ITALIC
 70
     0
 40
0.0
 41
1.0
 50
0.0
 71
     0
 42
3.5
  3
italic
  4

  0
ENDTAB
  0
TABLE
  2
VIEW
 70
     0
  0
ENDTAB
  0
TABLE
  2
UCS
 70
     0
  0
ENDTAB
  0
TABLE
  2
APPID
 70
     1
  0
APPID
  2
ACAD
 70
     0
  0
ENDTAB
  0
TABLE
  2
DIMSTYLE
 70
     1
  0
DIMSTYLE
  2
STANDARD
 70
     0
  3

  4

  5

  6

  7

 40
1.0
 41
0.18
 42
0.0625
 43
0.38
 44
0.18
 45
0.0
 46
0.0
 47
0.0
 48
0.0
140
0.18
141
0.09
142
0.0
143
25.399999999999999
144
1.0
145
0.0
146
1.0
147
0.09
 71
     0
 72
     0
 73
     1
 74
     1
 75
     0
 76
     0
 77
     0
 78
     0
170
     0
171
     2
172
     0
173
     0
174
     0
175
     0
176
     0
177
     0
178
     0
  0
ENDTAB
  0
ENDSEC
  0
SECTION
  2
BLOCKS
  0
BLOCK
  8
0
  2
$MODEL_SPACE
 70
     0
 10
0.0
 20
0.0
 30
0.0
  3
$MODEL_SPACE
  1

  0
ENDBLK
  5
20
  8
0
  0
BLOCK
 67
     1
  8
0
  2
$PAPER_SPACE
 70
     0
 10
0.0
 20
0.0
 30
0.0
  3
$PAPER_SPACE
  1

  0
ENDBLK
  5
1C
 67
     1
  8
0
  0
ENDSEC
  0
SECTION
  2
ENTITIES
  0
LINE
  5
33
  8
1
 62
     7
 10
-246.7783258910809
 20
-49.06854249492892
 30
0.0
 11
-241.00001372756799
 21
-49.06854249492892
 31
0.0
  0
LINE
  5
34
  8
1
 62
     7
 10
-246.7783258910809
 20
-52.81854249492892
 30
0.0
 11
-241.00001372756799
 21
-52.81854249492892
 31
0.0
  0
LINE
  5
35
  8
1
 62
     7
 10
-246.7783258910809
 20
-60.31854249492892
 30
0.0
 11
-241.00001372756799
 21
-60.31854249492892
 31
0.0
  0
LINE
  5
36
  8
1
 62
     7
 10
-246.7783258910809
 20
-64.06854249492892
 30
0.0
 11
-241.00001372756799
 21
-64.06854249492892
 31
0.0
  0
LINE
  5
37
  8
1
 62
     7
 10
-247.50001372756799
 20
-62.19354249492892
 30
0.0
 11
-247.50001372756799
 21
-50.94354249492892
 31
0.0
  0
LINE
  5
38
  8
1
 62
     7
 10
-246.7783258910809
 20
64.068542494929034
 30
0.0
 11
-241.00001372756799
 21
64.068542494929034
 31
0.0
  0
LINE
  5
39
  8
1
 62
     7
 10
-246.7783258910809
 20
60.318542494929019
 30
0.0
 11
-241.00001372756799
 21
60.318542494929019
 31
0.0
  0
LINE
  5
3A
  8
1
 62
     7
 10
-246.7783258910809
 20
52.818542494929019
 30
0.0
 11
-241.00001372756799
 21
52.818542494929019
 31
0.0
  0
LINE
  5
3B
  8
1
 62
     7
 10
-246.7783258910809
 20
49.068542494929019
 30
0.0
 11
-241.00001372756799
 21
49.068542494929019
 31
0.0
  0
LINE
  5
3C
  8
1
 62
     7
 10
-247.50001372756799
 20
50.943542494929019
 30
0.0
 11
-247.50001372756799
 21
62.193542494929019
 31
0.0
  0
LINE
  5
3D
  8
1
 62
     7
 10
-279.00001372756788
 20
-15.0
 30
0.0
 11
-275.60001372756801
 21
-15.0
 31
0.0
  0
LINE
  5
3E
  8
1
 62
     7
 10
-279.00001372756788
 20
15.0
 30
0.0
 11
-275.60001372756801
 21
15.0
 31
0.0
  0
LINE
  5
3F
  8
1
 62
     7
 10
-275.60001372756801
 20
17.799999999999951
 30
0.0
 11
-275.60001372756801
 21
-18.79693845669907
 31
0.0
  0
LINE
  5
40
  8
1
 62
     7
 10
-275.60001372756801
 20
-18.79693845669907
 30
0.0
 11
-274.00001372756788
 21
-18.79693845669907
 31
0.0
  0
LINE
  5
41
  8
1
 62
     7
 10
-274.00001372756788
 20
17.799999999999951
 30
0.0
 11
-275.60001372756801
 21
17.799999999999951
 31
0.0
  0
LINE
  5
42
  8
1
 62
     7
 10
-323.00001372756799
 20
-12.5
 30
0.0
 11
-323.00001372756799
 21
12.5
 31
0.0
  0
LINE
  5
43
  8
1
 62
     7
 10
-324.00001372756788
 20
11.5
 30
0.0
 11
-323.00001372756799
 21
12.5
 31
0.0
  0
LINE
  5
44
  8
1
 62
     7
 10
-324.00001372756788
 20
-11.5
 30
0.0
 11
-323.00001372756799
 21
-12.5
 31
0.0
  0
LINE
  5
45
  8
1
 62
     7
 10
-284.00001372756799
 20
12.5
 30
0.0
 11
-284.00001372756799
 21
15.5
 31
0.0
  0
LINE
  5
46
  8
1
 62
     7
 10
-284.00001372756799
 20
15.5
 30
0.0
 11
-324.00001372756788
 21
15.5
 31
0.0
  0
LINE
  5
47
  8
1
 62
     7
 10
-279.00001372756788
 20
-15.0
 30
0.0
 11
-279.00001372756788
 21
15.0
 31
0.0
  0
LINE
  5
48
  8
1
 62
     7
 10
-279.00001372756788
 20
-12.5
 30
0.0
 11
-323.00001372756799
 21
-12.5
 31
0.0
  0
LINE
  5
49
  8
1
 62
     7
 10
-324.00001372756788
 20
15.5
 30
0.0
 11
-324.00001372756788
 21
-11.5
 31
0.0
  0
LINE
  5
4A
  8
1
 62
     7
 10
-323.00001372756799
 20
12.5
 30
0.0
 11
-279.00001372756788
 21
12.5
 31
0.0
  0
LINE
  5
4B
  8
1
 62
     7
 10
-125.000013727568
 20
200.84265805085269
 30
0.0
 11
-60.000013727567982
 21
200.84265805085269
 31
0.0
  0
LINE
  5
4C
  8
1
 62
     7
 10
-127.0000137275679
 20
205.011844689344
 30
0.0
 11
-201.00001372756799
 21
205.01184468934389
 31
0.0
  0
LINE
  5
4D
  8
1
 62
     7
 10
-125.000013727568
 20
203.011844689344
 30
0.0
 11
-125.000013727568
 21
198.9489669162065
 31
0.0
  0
LINE
  5
4E
  8
1
 62
     7
 10
-203.00001372756799
 20
203.01184468934389
 30
0.0
 11
-203.00001372756799
 21
198.9489669162065
 31
0.0
  0
LINE
  5
4F
  8
1
 62
     7
 10
-122.000013727568
 20
193.972303546772
 30
0.0
 11
-206.00001372756799
 21
193.972303546772
 31
0.0
  0
LINE
  5
50
  8
1
 62
     7
 10
-120.000013727568
 20
198.9489669162065
 30
0.0
 11
-208.00001372756799
 21
198.9489669162065
 31
0.0
  0
LINE
  5
51
  8
1
 62
     7
 10
-120.000013727568
 20
198.9489669162065
 30
0.0
 11
-120.000013727568
 21
170.43481862750559
 31
0.0
  0
LINE
  5
52
  8
1
 62
     7
 10
-208.00001372756799
 20
198.9489669162065
 30
0.0
 11
-208.00001372756799
 21
170.43481862750559
 31
0.0
  0
LINE
  5
53
  8
1
 62
     7
 10
-123.500013727568
 20
193.972303546772
 30
0.0
 11
-123.500013727568
 21
170.43481862750559
 31
0.0
  0
LINE
  5
54
  8
1
 62
     7
 10
-204.50001372756799
 20
193.972303546772
 30
0.0
 11
-204.50001372756799
 21
170.43481862750551
 31
0.0
  0
LINE
  5
55
  8
1
 62
     7
 10
-122.000013727568
 20
168.43481862750551
 30
0.0
 11
-206.00001372756799
 21
168.43481862750551
 31
0.0
  0
LINE
  5
56
  8
1
 62
     3
 10
-249.00001372756799
 20
349.21120054578279
 30
0.0
 11
-247.50001372756799
 21
349.21120054578319
 31
0.0
  0
LINE
  5
57
  8
1
 62
     3
 10
-249.00001372756799
 20
355.61120054578288
 30
0.0
 11
-247.50001372756799
 21
355.61120054578311
 31
0.0
  0
LINE
  5
58
  8
1
 62
     7
 10
-248.20001372756801
 20
356.41120054578278
 30
0.0
 11
-248.20001372756801
 21
348.41120054578278
 31
0.0
  0
LINE
  5
59
  8
1
 62
     7
 10
-248.20001372756801
 20
348.41120054578278
 30
0.0
 11
-247.5000137275681
 21
348.41120054578312
 31
0.0
  0
LINE
  5
5A
  8
1
 62
     7
 10
-249.00001372756799
 20
349.21120054578279
 30
0.0
 11
-248.20001372756801
 21
348.41120054578278
 31
0.0
  0
LINE
  5
5B
  8
1
 62
     7
 10
-249.00001372756799
 20
355.61120054578288
 30
0.0
 11
-249.00001372756799
 21
349.21120054578279
 31
0.0
  0
LINE
  5
5C
  8
1
 62
     7
 10
-248.20001372756801
 20
356.41120054578278
 30
0.0
 11
-249.00001372756799
 21
355.61120054578288
 31
0.0
  0
LINE
  5
5D
  8
1
 62
     7
 10
-247.5000137275681
 20
356.41120054578272
 30
0.0
 11
-248.20001372756801
 21
356.41120054578278
 31
0.0
  0
LINE
  5
5E
  8
1
 62
     7
 10
-241.00001372756799
 20
360.11120054578288
 30
0.0
 11
-239.00001372756799
 21
360.11120054578288
 31
0.0
  0
LINE
  5
5F
  8
1
 62
     7
 10
-241.00001372756799
 20
344.71120054578279
 30
0.0
 11
-241.00001372756799
 21
360.11120054578288
 31
0.0
  0
LINE
  5
60
  8
1
 62
     7
 10
-239.00001372756799
 20
344.71120054578279
 30
0.0
 11
-241.00001372756799
 21
344.71120054578279
 31
0.0
  0
LINE
  5
61
  8
1
 62
     7
 10
-239.00001372756799
 20
354.41120054578278
 30
0.0
 11
-241.00001372756799
 21
352.41120054578278
 31
0.0
  0
LINE
  5
62
  8
1
 62
     7
 10
-239.00001372756799
 20
352.41120054578278
 30
0.0
 11
-241.00001372756799
 21
350.41120054578278
 31
0.0
  0
LINE
  5
63
  8
1
 62
     7
 10
-239.82596548802621
 20
246.97411555592529
 30
0.0
 11
-274.00001372756788
 21
270.08997805977032
 31
0.0
  0
LINE
  5
64
  8
1
 62
     3
 10
-249.00001372756799
 20
236.07411555592509
 30
0.0
 11
-247.50001372756799
 21
236.0741155559254
 31
0.0
  0
LINE
  5
65
  8
1
 62
     3
 10
-249.00001372756799
 20
242.47411555592529
 30
0.0
 11
-247.50001372756799
 21
242.47411555592529
 31
0.0
  0
LINE
  5
66
  8
1
 62
     7
 10
-248.20001372756801
 20
243.27411555592531
 30
0.0
 11
-248.20001372756801
 21
235.27411555592531
 31
0.0
  0
LINE
  5
67
  8
1
 62
     7
 10
-248.20001372756801
 20
235.27411555592531
 30
0.0
 11
-247.5000137275681
 21
235.27411555592539
 31
0.0
  0
LINE
  5
68
  8
1
 62
     7
 10
-249.00001372756799
 20
236.07411555592509
 30
0.0
 11
-248.20001372756801
 21
235.27411555592531
 31
0.0
  0
LINE
  5
69
  8
1
 62
     7
 10
-249.00001372756799
 20
242.47411555592529
 30
0.0
 11
-249.00001372756799
 21
236.07411555592509
 31
0.0
  0
LINE
  5
6A
  8
1
 62
     7
 10
-248.20001372756801
 20
243.27411555592531
 30
0.0
 11
-249.00001372756799
 21
242.47411555592529
 31
0.0
  0
LINE
  5
6B
  8
1
 62
     7
 10
-247.5000137275681
 20
243.27411555592519
 30
0.0
 11
-248.20001372756801
 21
243.27411555592531
 31
0.0
  0
LINE
  5
6C
  8
1
 62
     7
 10
-241.00001372756799
 20
246.97411555592529
 30
0.0
 11
-239.00001372756799
 21
246.97411555592529
 31
0.0
  0
LINE
  5
6D
  8
1
 62
     7
 10
-241.00001372756799
 20
231.57411555592509
 30
0.0
 11
-241.00001372756799
 21
246.97411555592529
 31
0.0
  0
LINE
  5
6E
  8
1
 62
     7
 10
-239.00001372756799
 20
231.57411555592509
 30
0.0
 11
-241.00001372756799
 21
231.57411555592509
 31
0.0
  0
LINE
  5
6F
  8
1
 62
     7
 10
-239.00001372756799
 20
241.27411555592531
 30
0.0
 11
-241.00001372756799
 21
239.27411555592531
 31
0.0
  0
LINE
  5
70
  8
1
 62
     7
 10
-239.00001372756799
 20
239.27411555592531
 30
0.0
 11
-241.00001372756799
 21
237.27411555592531
 31
0.0
  0
LINE
  5
71
  8
1
 62
     7
 10
-237.00001372756799
 20
248.3426580508528
 30
0.0
 11
-237.00001372756799
 21
203.84265805085261
 31
0.0
  0
LINE
  5
72
  8
1
  6
DASHDOT
 62
     3
 10
-273.00001372756799
 20
215.84265805085261
 30
0.0
 11
-245.00001372756799
 21
215.84265805085261
 31
0.0
  0
LINE
  5
73
  8
1
  6
DASHDOT
 62
     3
 10
-259.00001372756799
 20
201.84265805085261
 30
0.0
 11
-259.00001372756799
 21
229.84265805085269
 31
0.0
  0
LINE
  5
74
  8
1
  6
DASHDOT
 62
     3
 10
-273.00001372756799
 20
375.84265805085278
 30
0.0
 11
-245.00001372756799
 21
375.84265805085278
 31
0.0
  0
LINE
  5
75
  8
1
  6
DASHDOT
 62
     3
 10
-259.00001372756799
 20
361.84265805085289
 30
0.0
 11
-259.00001372756799
 21
389.84265805085278
 31
0.0
  0
LINE
  5
76
  8
1
 62
     7
 10
-274.00001372756788
 20
321.59533804193779
 30
0.0
 11
-243.00001372756799
 21
321.59533804193779
 31
0.0
  0
LINE
  5
77
  8
1
 62
     7
 10
-244.1000137275679
 20
300.84265805085931
 30
0.0
 11
-243.00001372756799
 21
300.84265805085931
 31
0.0
  0
LINE
  5
78
  8
1
 62
     7
 10
-237.00001372756799
 20
387.84265805085289
 30
0.0
 11
-237.00001372756799
 21
343.34265805085289
 31
0.0
  0
LINE
  5
79
  8
1
 62
     7
 10
-237.00001372756799
 20
248.3426580508528
 30
0.0
 11
-240.00001372756799
 21
248.3426580508528
 31
0.0
  0
LINE
  5
7A
  8
1
 62
     7
 10
-243.00001372756799
 20
251.3426580508528
 30
0.0
 11
-243.00001372756799
 21
340.34265805085278
 31
0.0
  0
LINE
  5
7B
  8
1
 62
     7
 10
-240.00001372756799
 20
343.34265805085289
 30
0.0
 11
-237.00001372756799
 21
343.34265805085289
 31
0.0
  0
LINE
  5
7C
  8
1
 62
     7
 10
-268.00001372756788
 20
250.84265805085269
 30
0.0
 11
-245.5451445935592
 21
250.84265805085269
 31
0.0
  0
LINE
  5
7D
  8
1
 62
     7
 10
-268.00001372756788
 20
340.84265805085278
 30
0.0
 11
-245.54514459356301
 21
340.84265805085278
 31
0.0
  0
LINE
  5
7E
  8
1
 62
     7
 10
-268.00001372756788
 20
200.84265805085269
 30
0.0
 11
-203.00001372756799
 21
200.84265805085269
 31
0.0
  0
LINE
  5
7F
  8
1
 62
     7
 10
-268.00001372756788
 20
390.84265805085289
 30
0.0
 11
-60.000013727567982
 21
390.84265805085289
 31
0.0
  0
LINE
  5
80
  8
1
 62
     7
 10
-323.00001372756799
 20
283.34265805085431
 30
0.0
 11
-323.00001372756799
 21
292.34265805085403
 31
0.0
  0
LINE
  5
81
  8
1
 62
     7
 10
-324.00001372756788
 20
292.34265805085403
 30
0.0
 11
-287.50001372756799
 21
292.34265805085403
 31
0.0
  0
LINE
  5
82
  8
1
 62
     7
 10
-324.00001372756788
 20
299.34265805085431
 30
0.0
 11
-287.50001372756799
 21
299.34265805085431
 31
0.0
  0
LINE
  5
83
  8
1
 62
     7
 10
-324.00001372756788
 20
307.34265805085431
 30
0.0
 11
-324.00001372756788
 21
284.34265805085431
 31
0.0
  0
LINE
  5
84
  8
1
 62
     7
 10
-323.00001372756799
 20
299.34265805085431
 30
0.0
 11
-323.00001372756799
 21
308.34265805085431
 31
0.0
  0
LINE
  5
85
  8
1
 62
     7
 10
-324.00001372756788
 20
307.34265805085431
 30
0.0
 11
-323.00001372756799
 21
308.34265805085431
 31
0.0
  0
LINE
  5
86
  8
1
 62
     7
 10
-324.00001372756788
 20
284.34265805085431
 30
0.0
 11
-323.00001372756799
 21
283.34265805085431
 31
0.0
  0
LINE
  5
87
  8
1
 62
     7
 10
-244.1000137275679
 20
290.84265805085931
 30
0.0
 11
-244.1000137275679
 21
300.84265805085931
 31
0.0
  0
LINE
  5
88
  8
1
 62
     7
 10
-243.00001372756799
 20
290.84265805085931
 30
0.0
 11
-244.1000137275679
 21
290.84265805085931
 31
0.0
  0
LINE
  5
89
  8
1
 62
     7
 10
-244.1000137275679
 20
290.84265805085931
 30
0.0
 11
-244.50001372756799
 21
291.5354783738868
 31
0.0
  0
LINE
  5
8A
  8
1
 62
     7
 10
-244.50001372756799
 20
291.5354783738868
 30
0.0
 11
-244.50001372756799
 21
300.14983772783171
 31
0.0
  0
LINE
  5
8B
  8
1
 62
     7
 10
-244.50001372756799
 20
300.14983772783171
 30
0.0
 11
-244.1000137275679
 21
300.84265805085931
 31
0.0
  0
LINE
  5
8C
  8
1
 62
     7
 10
-274.00001372756788
 20
321.59533804193779
 30
0.0
 11
-239.82596548802621
 21
344.71120054578279
 31
0.0
  0
LINE
  5
8D
  8
1
  6
DASHDOT
 62
     3
 10
-324.00001372756788
 20
295.84265805085431
 30
0.0
 11
-329.00001372756788
 21
295.84265805085431
 31
0.0
  0
LINE
  5
8E
  8
1
 62
     7
 10
-275.60001372756801
 20
280.84265805085431
 30
0.0
 11
-279.00001372756788
 21
280.84265805085431
 31
0.0
  0
LINE
  5
8F
  8
1
 62
     7
 10
-279.00001372756788
 20
280.84265805085431
 30
0.0
 11
-279.00001372756788
 21
310.84265805085431
 31
0.0
  0
LINE
  5
90
  8
1
 62
     7
 10
-279.00001372756788
 20
310.84265805085431
 30
0.0
 11
-275.60001372756801
 21
310.84265805085431
 31
0.0
  0
LINE
  5
91
  8
1
 62
     7
 10
-275.60001372756801
 20
313.64265805085421
 30
0.0
 11
-275.60001372756801
 21
277.04571959415512
 31
0.0
  0
LINE
  5
92
  8
1
 62
     7
 10
-275.60001372756801
 20
277.04571959415512
 30
0.0
 11
-274.00001372756788
 21
277.04571959415512
 31
0.0
  0
LINE
  5
93
  8
1
 62
     7
 10
-274.00001372756788
 20
313.64265805085421
 30
0.0
 11
-275.60001372756801
 21
313.64265805085421
 31
0.0
  0
LINE
  5
94
  8
1
 62
     7
 10
-279.00001372756788
 20
283.34265805085431
 30
0.0
 11
-323.00001372756799
 21
283.34265805085431
 31
0.0
  0
LINE
  5
95
  8
1
 62
     7
 10
-323.00001372756799
 20
308.34265805085431
 30
0.0
 11
-279.00001372756788
 21
308.34265805085431
 31
0.0
  0
LINE
  5
96
  8
1
 62
     7
 10
-239.00001372756799
 20
360.41120054578312
 30
0.0
 11
-237.00001372756799
 21
360.41120054578312
 31
0.0
  0
LINE
  5
97
  8
1
 62
     7
 10
-239.00001372756799
 20
344.41120054578278
 30
0.0
 11
-239.00001372756799
 21
360.41120054578312
 31
0.0
  0
LINE
  5
98
  8
1
 62
     7
 10
-237.00001372756799
 20
344.41120054578278
 30
0.0
 11
-239.00001372756799
 21
344.41120054578278
 31
0.0
  0
LINE
  5
99
  8
1
 62
     7
 10
-243.00001372756799
 20
270.08997805977032
 30
0.0
 11
-274.00001372756788
 21
270.08997805977032
 31
0.0
  0
LINE
  5
9A
  8
1
 62
     7
 10
-272.00001372756788
 20
256.8426580508542
 30
0.0
 11
-254.41542963713891
 21
256.8426580508542
 31
0.0
  0
LINE
  5
9B
  8
1
 62
     7
 10
-237.00001372756799
 20
231.27411555592519
 30
0.0
 11
-239.00001372756799
 21
231.27411555592519
 31
0.0
  0
LINE
  5
9C
  8
1
 62
     7
 10
-239.00001372756799
 20
231.27411555592519
 30
0.0
 11
-239.00001372756799
 21
247.27411555592539
 31
0.0
  0
LINE
  5
9D
  8
1
 62
     7
 10
-239.00001372756799
 20
247.27411555592539
 30
0.0
 11
-237.00001372756799
 21
247.27411555592539
 31
0.0
  0
LINE
  5
9E
  8
1
 62
     7
 10
-254.41542963713849
 20
334.84265805085431
 30
0.0
 11
-272.00001372756788
 21
334.84265805085431
 31
0.0
  0
LINE
  5
9F
  8
1
 62
     7
 10
-274.00001372756788
 20
332.84265805085431
 30
0.0
 11
-274.00001372756788
 21
258.8426580508542
 31
0.0
  0
LINE
  5
A0
  8
1
 62
     7
 10
-274.00001372756788
 20
206.84265805085269
 30
0.0
 11
-274.00001372756788
 21
244.84265805085269
 31
0.0
  0
LINE
  5
A1
  8
1
 62
     7
 10
-274.00001372756788
 20
346.84265805085278
 30
0.0
 11
-274.00001372756788
 21
384.84265805085289
 31
0.0
  0
LINE
  5
A2
  8
1
 62
     7
 10
-91.000013727568003
 20
203.84265805085261
 30
0.0
 11
-91.000013727568003
 21
248.3426580508528
 31
0.0
  0
LINE
  5
A3
  8
1
  6
DASHDOT
 62
     3
 10
-83.000013727567989
 20
215.84265805085261
 30
0.0
 11
-55.000013727567982
 21
215.84265805085261
 31
0.0
  0
LINE
  5
A4
  8
1
  6
DASHDOT
 62
     3
 10
-69.000013727567989
 20
229.84265805085269
 30
0.0
 11
-69.000013727567989
 21
201.84265805085261
 31
0.0
  0
LINE
  5
A5
  8
1
  6
DASHDOT
 62
     3
 10
-83.000013727567989
 20
375.84265805085278
 30
0.0
 11
-55.000013727567982
 21
375.84265805085278
 31
0.0
  0
LINE
  5
A6
  8
1
  6
DASHDOT
 62
     3
 10
-69.000013727567989
 20
389.84265805085278
 30
0.0
 11
-69.000013727567989
 21
361.84265805085289
 31
0.0
  0
LINE
  5
A7
  8
1
 62
     7
 10
-85.000013727567975
 20
321.59533804193779
 30
0.0
 11
-54.000013727567989
 21
321.59533804193779
 31
0.0
  0
LINE
  5
A8
  8
1
 62
     7
 10
-85.000013727567975
 20
300.84265805085909
 30
0.0
 11
-83.900013727567995
 21
300.84265805085909
 31
0.0
  0
LINE
  5
A9
  8
1
 62
     7
 10
-91.000013727568003
 20
343.34265805085289
 30
0.0
 11
-91.000013727568003
 21
387.84265805085289
 31
0.0
  0
LINE
  5
AA
  8
1
 62
     7
 10
-88.000013727567975
 20
248.3426580508528
 30
0.0
 11
-91.000013727568003
 21
248.3426580508528
 31
0.0
  0
LINE
  5
AB
  8
1
 62
     7
 10
-85.000013727567975
 20
340.34265805085278
 30
0.0
 11
-85.000013727567975
 21
251.3426580508528
 31
0.0
  0
LINE
  5
AC
  8
1
 62
     7
 10
-91.000013727568003
 20
343.34265805085289
 30
0.0
 11
-88.000013727567975
 21
343.34265805085289
 31
0.0
  0
LINE
  5
AD
  8
1
 62
     7
 10
-82.454882861576891
 20
250.84265805085269
 30
0.0
 11
-60.000013727567982
 21
250.84265805085269
 31
0.0
  0
LINE
  5
AE
  8
1
 62
     7
 10
-82.454882861572997
 20
340.84265805085278
 30
0.0
 11
-60.000013727567982
 21
340.84265805085278
 31
0.0
  0
LINE
  5
AF
  8
1
 62
     7
 10
-5.0000137275679881
 20
292.34265805085403
 30
0.0
 11
-5.0000137275679881
 21
283.34265805085408
 31
0.0
  0
LINE
  5
B0
  8
1
 62
     7
 10
-40.500013727567982
 20
292.34265805085403
 30
0.0
 11
-4.000013727567989
 21
292.34265805085403
 31
0.0
  0
LINE
  5
B1
  8
1
 62
     7
 10
-40.500013727567982
 20
299.3426580508542
 30
0.0
 11
-4.000013727567989
 21
299.3426580508542
 31
0.0
  0
LINE
  5
B2
  8
1
 62
     7
 10
-4.000013727567989
 20
284.3426580508542
 30
0.0
 11
-4.000013727567989
 21
307.3426580508542
 31
0.0
  0
LINE
  5
B3
  8
1
 62
     7
 10
-5.0000137275679881
 20
308.34265805085408
 30
0.0
 11
-5.0000137275679881
 21
299.3426580508542
 31
0.0
  0
LINE
  5
B4
  8
1
 62
     7
 10
-5.0000137275679881
 20
308.34265805085408
 30
0.0
 11
-4.000013727567989
 21
307.3426580508542
 31
0.0
  0
LINE
  5
B5
  8
1
 62
     7
 10
-5.0000137275679881
 20
283.34265805085408
 30
0.0
 11
-4.000013727567989
 21
284.3426580508542
 31
0.0
  0
LINE
  5
B6
  8
1
 62
     7
 10
-83.900013727567995
 20
300.84265805085909
 30
0.0
 11
-83.900013727567995
 21
290.8426580508592
 31
0.0
  0
LINE
  5
B7
  8
1
 62
     7
 10
-83.900013727567995
 20
290.8426580508592
 30
0.0
 11
-85.000013727567975
 21
290.8426580508592
 31
0.0
  0
LINE
  5
B8
  8
1
 62
     7
 10
-83.500013727567975
 20
291.5354783738868
 30
0.0
 11
-83.900013727567995
 21
290.8426580508592
 31
0.0
  0
LINE
  5
B9
  8
1
 62
     7
 10
-83.500013727567975
 20
300.14983772783148
 30
0.0
 11
-83.500013727567975
 21
291.5354783738868
 31
0.0
  0
LINE
  5
BA
  8
1
 62
     7
 10
-83.900013727567995
 20
300.84265805085909
 30
0.0
 11
-83.500013727567975
 21
300.14983772783148
 31
0.0
  0
LINE
  5
BB
  8
1
 62
     7
 10
-88.469738135229207
 20
344.91120054578278
 30
0.0
 11
-54.000013727567989
 21
321.59533804193779
 31
0.0
  0
LINE
  5
BC
  8
1
 62
     7
 10
-84.192834050595593
 20
344.91120054578278
 30
0.0
 11
-89.000013727567975
 21
344.91120054578278
 31
0.0
  0
LINE
  5
BD
  8
1
 62
     7
 10
-84.192834050595593
 20
348.66120054578278
 30
0.0
 11
-89.000013727567975
 21
348.66120054578278
 31
0.0
  0
LINE
  5
BE
  8
1
 62
     7
 10
-84.192834050595593
 20
356.16120054578278
 30
0.0
 11
-89.000013727567975
 21
356.16120054578278
 31
0.0
  0
LINE
  5
BF
  8
1
 62
     7
 10
-84.192834050595593
 20
359.91120054578278
 30
0.0
 11
-89.000013727567975
 21
359.91120054578278
 31
0.0
  0
LINE
  5
C0
  8
1
 62
     7
 10
-83.500013727567975
 20
358.03620054578278
 30
0.0
 11
-83.500013727567975
 21
346.78620054578278
 31
0.0
  0
LINE
  5
C1
  8
1
 62
     7
 10
-84.192834050595593
 20
231.77411555592531
 30
0.0
 11
-89.000013727567975
 21
231.77411555592531
 31
0.0
  0
LINE
  5
C2
  8
1
 62
     7
 10
-84.192834050595593
 20
235.52411555592531
 30
0.0
 11
-89.000013727567975
 21
235.52411555592531
 31
0.0
  0
LINE
  5
C3
  8
1
 62
     7
 10
-84.192834050595593
 20
243.02411555592531
 30
0.0
 11
-89.000013727567975
 21
243.02411555592531
 31
0.0
  0
LINE
  5
C4
  8
1
 62
     7
 10
-84.192834050595593
 20
246.77411555592531
 30
0.0
 11
-89.000013727567975
 21
246.77411555592531
 31
0.0
  0
LINE
  5
C5
  8
1
 62
     7
 10
-83.500013727567975
 20
244.89911555592531
 30
0.0
 11
-83.500013727567975
 21
233.64911555592531
 31
0.0
  0
LINE
  5
C6
  8
1
  6
DASHDOT
 62
     3
 10
0.9999862724320108
 20
295.84265805085408
 30
0.0
 11
-4.000013727567989
 21
295.84265805085408
 31
0.0
  0
LINE
  5
C7
  8
1
 62
     7
 10
-49.000013727567989
 20
280.84265805085408
 30
0.0
 11
-52.400013727567973
 21
280.84265805085408
 31
0.0
  0
LINE
  5
C8
  8
1
 62
     7
 10
-49.000013727567989
 20
310.8426580508542
 30
0.0
 11
-49.000013727567989
 21
280.84265805085408
 31
0.0
  0
LINE
  5
C9
  8
1
 62
     7
 10
-52.400013727567973
 20
310.8426580508542
 30
0.0
 11
-49.000013727567989
 21
310.8426580508542
 31
0.0
  0
LINE
  5
CA
  8
1
 62
     7
 10
-52.400013727567973
 20
277.045719594155
 30
0.0
 11
-52.400013727567973
 21
313.64265805085421
 31
0.0
  0
LINE
  5
CB
  8
1
 62
     7
 10
-54.000013727567989
 20
277.045719594155
 30
0.0
 11
-52.400013727567973
 21
277.045719594155
 31
0.0
  0
LINE
  5
CC
  8
1
 62
     7
 10
-52.400013727567973
 20
313.64265805085421
 30
0.0
 11
-54.000013727567989
 21
313.64265805085421
 31
0.0
  0
LINE
  5
CD
  8
1
 62
     7
 10
-5.0000137275679881
 20
283.34265805085408
 30
0.0
 11
-49.000013727567989
 21
283.34265805085408
 31
0.0
  0
LINE
  5
CE
  8
1
 62
     7
 10
-49.000013727567989
 20
308.34265805085408
 30
0.0
 11
-5.0000137275679881
 21
308.34265805085408
 31
0.0
  0
LINE
  5
CF
  8
1
 62
     7
 10
-91.000013727568003
 20
360.41120054578289
 30
0.0
 11
-89.000013727567975
 21
360.41120054578289
 31
0.0
  0
LINE
  5
D0
  8
1
 62
     7
 10
-89.000013727567975
 20
360.41120054578289
 30
0.0
 11
-89.000013727567975
 21
344.41120054578278
 31
0.0
  0
LINE
  5
D1
  8
1
 62
     7
 10
-89.000013727567975
 20
344.41120054578278
 30
0.0
 11
-91.000013727568003
 21
344.41120054578278
 31
0.0
  0
LINE
  5
D2
  8
1
 62
     7
 10
-54.000013727567989
 20
270.08997805977032
 30
0.0
 11
-85.000013727567975
 21
270.08997805977032
 31
0.0
  0
LINE
  5
D3
  8
1
 62
     7
 10
-73.584597817997093
 20
256.8426580508542
 30
0.0
 11
-56.000013727567989
 21
256.8426580508542
 31
0.0
  0
LINE
  5
D4
  8
1
 62
     7
 10
-54.000013727567989
 20
270.08997805977032
 30
0.0
 11
-88.469738135229207
 21
246.77411555592531
 31
0.0
  0
LINE
  5
D5
  8
1
 62
     7
 10
-89.000013727567975
 20
231.27411555592519
 30
0.0
 11
-91.000013727568003
 21
231.27411555592519
 31
0.0
  0
LINE
  5
D6
  8
1
 62
     7
 10
-89.000013727567975
 20
247.27411555592539
 30
0.0
 11
-89.000013727567975
 21
231.27411555592519
 31
0.0
  0
LINE
  5
D7
  8
1
 62
     7
 10
-91.000013727568003
 20
247.27411555592539
 30
0.0
 11
-89.000013727567975
 21
247.27411555592539
 31
0.0
  0
LINE
  5
D8
  8
1
 62
     7
 10
-56.000013727567989
 20
334.8426580508542
 30
0.0
 11
-73.584597817997377
 21
334.8426580508542
 31
0.0
  0
LINE
  5
D9
  8
1
 62
     7
 10
-54.000013727567989
 20
258.8426580508542
 30
0.0
 11
-54.000013727567989
 21
332.8426580508542
 31
0.0
  0
LINE
  5
DA
  8
1
 62
     7
 10
-54.000013727567989
 20
244.84265805085269
 30
0.0
 11
-54.000013727567989
 21
206.84265805085269
 31
0.0
  0
LINE
  5
DB
  8
1
 62
     7
 10
-54.000013727567989
 20
384.84265805085289
 30
0.0
 11
-54.000013727567989
 21
346.84265805085278
 31
0.0
  0
LINE
  5
DC
  8
1
 62
     7
 10
-5.0000137275679881
 20
12.5
 30
0.0
 11
-5.0000137275679881
 21
-12.5
 31
0.0
  0
LINE
  5
DD
  8
1
 62
     7
 10
-5.0000137275679881
 20
12.5
 30
0.0
 11
-4.000013727567989
 21
11.5
 31
0.0
  0
LINE
  5
DE
  8
1
 62
     7
 10
-5.0000137275679881
 20
-12.5
 30
0.0
 11
-4.000013727567989
 21
-11.5
 31
0.0
  0
LINE
  5
DF
  8
1
 62
     7
 10
253.38304836670031
 20
-102.0000000000051
 30
0.0
 11
253.38304836670031
 21
-67.579951358045491
 31
0.0
  0
LINE
  5
E0
  8
1
 62
     7
 10
163.38304836670011
 20
-102.0000000000051
 30
0.0
 11
163.38304836670011
 21
-67.579951358045491
 31
0.0
  0
LINE
  5
E1
  8
1
 62
     3
 10
-247.50001372756799
 20
59.768542494928859
 30
0.0
 11
-249.00001372756799
 21
59.768542494929072
 31
0.0
  0
LINE
  5
E2
  8
1
 62
     3
 10
-247.50001372756799
 20
53.368542494928867
 30
0.0
 11
-249.00001372756799
 21
53.368542494928981
 31
0.0
  0
LINE
  5
E3
  8
1
 62
     7
 10
-248.20001372756789
 20
60.568542494929027
 30
0.0
 11
-248.20001372756789
 21
52.568542494929027
 31
0.0
  0
LINE
  5
E4
  8
1
 62
     7
 10
-247.50001372756799
 20
60.56854249492892
 30
0.0
 11
-248.20001372756789
 21
60.568542494929027
 31
0.0
  0
LINE
  5
E5
  8
1
 62
     7
 10
-248.20001372756789
 20
60.568542494929027
 30
0.0
 11
-249.00001372756799
 21
59.768542494929072
 31
0.0
  0
LINE
  5
E6
  8
1
 62
     7
 10
-249.00001372756799
 20
59.768542494929072
 30
0.0
 11
-249.00001372756799
 21
53.368542494928981
 31
0.0
  0
LINE
  5
E7
  8
1
 62
     7
 10
-249.00001372756799
 20
53.368542494928981
 30
0.0
 11
-248.20001372756789
 21
52.568542494929027
 31
0.0
  0
LINE
  5
E8
  8
1
 62
     7
 10
-248.20001372756789
 20
52.568542494929027
 30
0.0
 11
-247.50001372756799
 21
52.568542494929147
 31
0.0
  0
LINE
  5
E9
  8
1
 62
     7
 10
-239.00001372756799
 20
48.868542494928981
 30
0.0
 11
-241.00001372756799
 21
48.868542494928981
 31
0.0
  0
LINE
  5
EA
  8
1
 62
     7
 10
-241.00001372756799
 20
48.868542494928981
 30
0.0
 11
-241.00001372756799
 21
64.268542494929079
 31
0.0
  0
LINE
  5
EB
  8
1
 62
     7
 10
-241.00001372756799
 20
64.268542494929079
 30
0.0
 11
-239.00001372756799
 21
64.268542494929079
 31
0.0
  0
LINE
  5
EC
  8
1
 62
     7
 10
-241.00001372756799
 20
56.568542494929019
 30
0.0
 11
-239.00001372756799
 21
54.568542494929019
 31
0.0
  0
LINE
  5
ED
  8
1
 62
     7
 10
-241.00001372756799
 20
58.568542494929027
 30
0.0
 11
-239.00001372756799
 21
56.568542494929019
 31
0.0
  0
LINE
  5
EE
  8
1
 62
     3
 10
-249.00001372756799
 20
-59.768542494928973
 30
0.0
 11
-247.50001372756799
 21
-59.768542494928731
 31
0.0
  0
LINE
  5
EF
  8
1
 62
     3
 10
-249.00001372756799
 20
-53.368542494928867
 30
0.0
 11
-247.50001372756799
 21
-53.368542494928761
 31
0.0
  0
LINE
  5
F0
  8
1
 62
     7
 10
-248.20001372756789
 20
-52.56854249492892
 30
0.0
 11
-248.20001372756789
 21
-60.56854249492892
 31
0.0
  0
LINE
  5
F1
  8
1
 62
     7
 10
-248.20001372756789
 20
-60.56854249492892
 30
0.0
 11
-247.50001372756799
 21
-60.568542494928799
 31
0.0
  0
LINE
  5
F2
  8
1
 62
     7
 10
-249.00001372756799
 20
-59.768542494928973
 30
0.0
 11
-248.20001372756789
 21
-60.56854249492892
 31
0.0
  0
LINE
  5
F3
  8
1
 62
     7
 10
-249.00001372756799
 20
-53.368542494928867
 30
0.0
 11
-249.00001372756799
 21
-59.768542494928973
 31
0.0
  0
LINE
  5
F4
  8
1
 62
     7
 10
-248.20001372756789
 20
-52.56854249492892
 30
0.0
 11
-249.00001372756799
 21
-53.368542494928867
 31
0.0
  0
LINE
  5
F5
  8
1
 62
     7
 10
-247.50001372756799
 20
-52.568542494929027
 30
0.0
 11
-248.20001372756789
 21
-52.56854249492892
 31
0.0
  0
LINE
  5
F6
  8
1
 62
     7
 10
-239.82596548802621
 20
-48.868542494928867
 30
0.0
 11
-274.00001372756788
 21
-25.75267999108382
 31
0.0
  0
LINE
  5
F7
  8
1
 62
     7
 10
-241.00001372756799
 20
-48.868542494928867
 30
0.0
 11
-239.00001372756799
 21
-48.868542494928867
 31
0.0
  0
LINE
  5
F8
  8
1
 62
     7
 10
-241.00001372756799
 20
-64.268542494928965
 30
0.0
 11
-241.00001372756799
 21
-48.868542494928867
 31
0.0
  0
LINE
  5
F9
  8
1
 62
     7
 10
-239.00001372756799
 20
-64.268542494928965
 30
0.0
 11
-241.00001372756799
 21
-64.268542494928965
 31
0.0
  0
LINE
  5
FA
  8
1
 62
     7
 10
-239.00001372756799
 20
-54.568542494928913
 30
0.0
 11
-241.00001372756799
 21
-56.56854249492892
 31
0.0
  0
LINE
  5
FB
  8
1
 62
     7
 10
-239.00001372756799
 20
-56.56854249492892
 30
0.0
 11
-241.00001372756799
 21
-58.56854249492892
 31
0.0
  0
LINE
  5
FC
  8
1
 62
     7
 10
-244.1000137275679
 20
-4.9999999999949969
 30
0.0
 11
-244.1000137275679
 21
5.0000000000050022
 31
0.0
  0
LINE
  5
FD
  8
1
 62
     7
 10
-238.50001372756799
 20
-4.9999999999949969
 30
0.0
 11
-244.1000137275679
 21
-4.9999999999949969
 31
0.0
  0
LINE
  5
FE
  8
1
 62
     7
 10
-244.1000137275679
 20
-4.9999999999949969
 30
0.0
 11
-244.50001372756799
 21
-4.3071796769673929
 31
0.0
  0
LINE
  5
FF
  8
1
 62
     7
 10
-244.50001372756799
 20
-4.3071796769673929
 30
0.0
 11
-244.50001372756799
 21
4.3071796769773982
 31
0.0
  0
LINE
  5
100
  8
1
 62
     7
 10
-244.50001372756799
 20
4.3071796769773982
 30
0.0
 11
-244.1000137275679
 21
5.0000000000050022
 31
0.0
  0
LINE
  5
101
  8
1
 62
     7
 10
-244.1000137275679
 20
5.0000000000050022
 30
0.0
 11
-238.50001372756799
 21
5.0000000000050022
 31
0.0
  0
LINE
  5
102
  8
1
 62
     7
 10
-237.00001372756799
 20
-6.0999999999950214
 30
0.0
 11
-238.50001372756799
 21
-6.0999999999950214
 31
0.0
  0
LINE
  5
103
  8
1
 62
     7
 10
-238.50001372756799
 20
-6.0999999999950214
 30
0.0
 11
-238.50001372756799
 21
6.100000000005025
 31
0.0
  0
LINE
  5
104
  8
1
 62
     7
 10
-238.50001372756799
 20
6.100000000005025
 30
0.0
 11
-237.00001372756799
 21
6.100000000005025
 31
0.0
  0
LINE
  5
105
  8
1
 62
     7
 10
-238.50001372756799
 20
0.0000000000050022
 30
0.0
 11
-237.00001372756799
 21
-1.4999999999949969
 31
0.0
  0
LINE
  5
106
  8
1
 62
     7
 10
-238.50001372756799
 20
1.500000000005002
 30
0.0
 11
-237.00001372756799
 21
0.0000000000050022
 31
0.0
  0
LINE
  5
107
  8
1
 62
     7
 10
-83.900013727567995
 20
5.0000000000050022
 30
0.0
 11
-83.900013727567995
 21
-4.9999999999949969
 31
0.0
  0
LINE
  5
108
  8
1
 62
     7
 10
-83.900013727567995
 20
-4.9999999999949969
 30
0.0
 11
-89.500013727567975
 21
-4.9999999999949969
 31
0.0
  0
LINE
  5
109
  8
1
 62
     7
 10
-83.500013727567975
 20
-4.3071796769673929
 30
0.0
 11
-83.900013727567995
 21
-4.9999999999949969
 31
0.0
  0
LINE
  5
10A
  8
1
 62
     7
 10
-83.500013727567975
 20
4.3071796769773982
 30
0.0
 11
-83.500013727567975
 21
-4.3071796769673929
 31
0.0
  0
LINE
  5
10B
  8
1
 62
     7
 10
-83.900013727567995
 20
5.0000000000050022
 30
0.0
 11
-83.500013727567975
 21
4.3071796769773982
 31
0.0
  0
LINE
  5
10C
  8
1
 62
     7
 10
-89.500013727567975
 20
5.0000000000050022
 30
0.0
 11
-83.900013727567995
 21
5.0000000000050022
 31
0.0
  0
LINE
  5
10D
  8
1
 62
     7
 10
-89.500013727567975
 20
-6.0999999999950214
 30
0.0
 11
-91.000013727568003
 21
-6.0999999999950214
 31
0.0
  0
LINE
  5
10E
  8
1
 62
     7
 10
-89.500013727567975
 20
6.100000000005025
 30
0.0
 11
-89.500013727567975
 21
-6.0999999999950214
 31
0.0
  0
LINE
  5
10F
  8
1
 62
     7
 10
-91.000013727568003
 20
6.100000000005025
 30
0.0
 11
-89.500013727567975
 21
6.100000000005025
 31
0.0
  0
LINE
  5
110
  8
1
 62
     7
 10
-91.000013727568003
 20
-1.4999999999949969
 30
0.0
 11
-89.500013727567975
 21
0.0000000000050022
 31
0.0
  0
LINE
  5
111
  8
1
 62
     7
 10
-91.000013727568003
 20
0.0000000000050022
 30
0.0
 11
-89.500013727567975
 21
1.500000000005002
 31
0.0
  0
LINE
  5
112
  8
1
 62
     7
 10
-88.469738135229065
 20
49.068542494928693
 30
0.0
 11
-54.000013727567989
 21
25.7526799910836
 31
0.0
  0
LINE
  5
113
  8
1
 62
     7
 10
-84.192834050595593
 20
49.068542494928693
 30
0.0
 11
-89.000013727567975
 21
49.068542494928693
 31
0.0
  0
LINE
  5
114
  8
1
 62
     7
 10
-84.192834050595593
 20
52.818542494928693
 30
0.0
 11
-89.000013727567975
 21
52.818542494928693
 31
0.0
  0
LINE
  5
115
  8
1
 62
     7
 10
-84.192834050595593
 20
60.318542494928693
 30
0.0
 11
-89.000013727567975
 21
60.318542494928693
 31
0.0
  0
LINE
  5
116
  8
1
 62
     7
 10
-84.192834050595593
 20
64.068542494928678
 30
0.0
 11
-89.000013727567975
 21
64.068542494928678
 31
0.0
  0
LINE
  5
117
  8
1
 62
     7
 10
-83.500013727567975
 20
62.193542494928693
 30
0.0
 11
-83.500013727567975
 21
50.943542494928693
 31
0.0
  0
LINE
  5
118
  8
1
 62
     7
 10
-84.192834050595593
 20
-64.06854249492892
 30
0.0
 11
-89.000013727567975
 21
-64.06854249492892
 31
0.0
  0
LINE
  5
119
  8
1
 62
     7
 10
-84.192834050595593
 20
-60.31854249492892
 30
0.0
 11
-89.000013727567975
 21
-60.31854249492892
 31
0.0
  0
LINE
  5
11A
  8
1
 62
     7
 10
-84.192834050595593
 20
-52.81854249492892
 30
0.0
 11
-89.000013727567975
 21
-52.81854249492892
 31
0.0
  0
LINE
  5
11B
  8
1
 62
     7
 10
-84.192834050595593
 20
-49.06854249492892
 30
0.0
 11
-89.000013727567975
 21
-49.06854249492892
 31
0.0
  0
LINE
  5
11C
  8
1
 62
     7
 10
-83.500013727567975
 20
-50.94354249492892
 30
0.0
 11
-83.500013727567975
 21
-62.19354249492892
 31
0.0
  0
LINE
  5
11D
  8
1
 62
     7
 10
-44.000013727567989
 20
15.5
 30
0.0
 11
-44.000013727567989
 21
12.5
 31
0.0
  0
LINE
  5
11E
  8
1
 62
     7
 10
-4.000013727567989
 20
15.5
 30
0.0
 11
-44.000013727567989
 21
15.5
 31
0.0
  0
LINE
  5
11F
  8
1
 62
     7
 10
-49.000013727567989
 20
-15.0
 30
0.0
 11
-52.400013727567973
 21
-15.0
 31
0.0
  0
LINE
  5
120
  8
1
 62
     7
 10
-49.000013727567989
 20
15.0
 30
0.0
 11
-49.000013727567989
 21
-15.0
 31
0.0
  0
LINE
  5
121
  8
1
 62
     7
 10
-52.400013727567973
 20
15.0
 30
0.0
 11
-49.000013727567989
 21
15.0
 31
0.0
  0
LINE
  5
122
  8
1
 62
     7
 10
-52.400013727567973
 20
-18.79693845669907
 30
0.0
 11
-52.400013727567973
 21
17.799999999999951
 31
0.0
  0
LINE
  5
123
  8
1
 62
     7
 10
-54.000013727567989
 20
-18.79693845669907
 30
0.0
 11
-52.400013727567973
 21
-18.79693845669907
 31
0.0
  0
LINE
  5
124
  8
1
 62
     7
 10
-52.400013727567973
 20
17.799999999999951
 30
0.0
 11
-54.000013727567989
 21
17.799999999999951
 31
0.0
  0
LINE
  5
125
  8
1
 62
     7
 10
-5.0000137275679881
 20
-12.5
 30
0.0
 11
-49.000013727567989
 21
-12.5
 31
0.0
  0
LINE
  5
126
  8
1
 62
     7
 10
-4.000013727567989
 20
-11.5
 30
0.0
 11
-4.000013727567989
 21
15.5
 31
0.0
  0
LINE
  5
127
  8
1
 62
     7
 10
-49.000013727567989
 20
12.5
 30
0.0
 11
-5.0000137275679881
 21
12.5
 31
0.0
  0
LINE
  5
128
  8
1
 62
     7
 10
-205.80927362375959
 20
-36.342735636059388
 30
0.0
 11
-232.00001372756799
 21
-36.342735636059388
 31
0.0
  0
LINE
  5
129
  8
1
 62
     7
 10
-207.99695760694789
 20
-32.381337631317592
 30
0.0
 11
-228.50001372756799
 21
-32.381337631317592
 31
0.0
  0
LINE
  5
12A
  8
1
 62
     7
 10
-199.50001372756799
 20
29.293453290434279
 30
0.0
 11
-128.5000137275679
 21
29.293453290434279
 31
0.0
  0
LINE
  5
12B
  8
1
 62
     7
 10
-123.500013727568
 20
24.293453290434289
 30
0.0
 11
-123.500013727568
 21
-27.206546709565711
 31
0.0
  0
LINE
  5
12C
  8
1
 62
     7
 10
-128.5000137275679
 20
-32.206546709565707
 30
0.0
 11
-155.3000137275682
 21
-32.206546709565707
 31
0.0
  0
LINE
  5
12D
  8
1
 62
     7
 10
-204.50001372756799
 20
-27.206546709565711
 30
0.0
 11
-204.50001372756799
 21
24.293453290434289
 31
0.0
  0
LINE
  5
12E
  8
1
 62
     7
 10
-203.00001372756799
 20
33.793453290434279
 30
0.0
 11
-125.000013727568
 21
33.793453290434279
 31
0.0
  0
LINE
  5
12F
  8
1
 62
     7
 10
-120.000013727568
 20
28.793453290434289
 30
0.0
 11
-120.000013727568
 21
-32.206546709565707
 31
0.0
  0
LINE
  5
130
  8
1
 62
     7
 10
-125.000013727568
 20
-37.206546709565707
 30
0.0
 11
-203.00001372756799
 21
-37.206546709565707
 31
0.0
  0
LINE
  5
131
  8
1
 62
     7
 10
-208.00001372756799
 20
-32.206546709565707
 30
0.0
 11
-208.00001372756799
 21
28.793453290434289
 31
0.0
  0
LINE
  5
132
  8
1
 62
     7
 10
-172.70001372756781
 20
-32.206546709565707
 30
0.0
 11
-199.50001372756799
 21
-32.206546709565707
 31
0.0
  0
LINE
  5
133
  8
1
 62
     7
 10
-161.95001372756801
 20
-32.514046709565719
 30
0.0
 11
-161.95001372756801
 21
-31.89904670956571
 31
0.0
  0
LINE
  5
134
  8
1
 62
     7
 10
-164.30751372756799
 20
-34.256546709565669
 30
0.0
 11
-163.6925137275679
 21
-34.256546709565669
 31
0.0
  0
LINE
  5
135
  8
1
 62
     7
 10
-166.050013727568
 20
-31.89904670956571
 30
0.0
 11
-166.050013727568
 21
-32.514046709565719
 31
0.0
  0
LINE
  5
136
  8
1
 62
     7
 10
-163.6925137275679
 20
-30.156546709565649
 30
0.0
 11
-164.30751372756799
 21
-30.156546709565649
 31
0.0
  0
LINE
  5
137
  8
1
 62
     7
 10
92.552235005191406
 20
-30.706546709565711
 30
0.0
 11
115.05223500519141
 21
-30.706546709565711
 31
0.0
  0
LINE
  5
138
  8
1
 62
     7
 10
91.552235005191406
 20
-36.206546709565707
 30
0.0
 11
91.552235005191406
 21
-31.706546709565711
 31
0.0
  0
LINE
  5
139
  8
1
 62
     7
 10
112.4382298148639
 20
31.495157740350461
 30
0.0
 11
115.6992826179479
 21
30.62136127528834
 31
0.0
  0
LINE
  5
13A
  8
1
 62
     7
 10
108.0273710969436
 20
33.793453290434279
 30
0.0
 11
111.83615022807319
 21
33.793453290434279
 31
0.0
  0
LINE
  5
13B
  8
1
 62
     7
 10
83.249761264367635
 20
29.293453290434279
 30
0.0
 11
105.0235983084401
 21
29.293453290434279
 31
0.0
  0
LINE
  5
13C
  8
1
 62
     7
 10
82.249761264367635
 20
-31.606546709565571
 30
0.0
 11
82.249761264367635
 21
28.293453290434279
 31
0.0
  0
LINE
  5
13D
  8
1
 62
     7
 10
112.77909312627121
 20
32.460498802946631
 30
0.0
 11
88.415094329989174
 21
-36.539501197053369
 31
0.0
  0
LINE
  5
13E
  8
1
 62
     7
 10
90.552235005191406
 20
-37.206546709565707
 30
0.0
 11
83.663372300661806
 21
-37.206546709565707
 31
0.0
  0
LINE
  5
13F
  8
1
 62
     7
 10
83.167101801741921
 20
-32.206546709565707
 30
0.0
 11
82.849761264367487
 21
-32.206546709565707
 31
0.0
  0
LINE
  5
140
  8
1
 62
     7
 10
107.0844281987457
 20
33.12640777792204
 30
0.0
 11
82.720429402463935
 21
-35.873592222077953
 31
0.0
  0
LINE
  5
141
  8
1
 62
     7
 10
-208.00001372756799
 20
-16.496576878358368
 30
0.0
 11
-232.00001372756799
 21
-16.496576878358368
 31
0.0
  0
LINE
  5
142
  8
1
 62
     7
 10
-169.0000137275679
 20
-95.0
 30
0.0
 11
-159.00001372756799
 21
-95.0
 31
0.0
  0
LINE
  5
143
  8
1
 62
     7
 10
-237.00001372756799
 20
-47.917344000715502
 30
0.0
 11
-230.50001372756799
 21
-47.917344000715502
 31
0.0
  0
LINE
  5
144
  8
1
 62
     7
 10
-237.00001372756799
 20
-30.381337631317589
 30
0.0
 11
-230.50001372756799
 21
-30.381337631317589
 31
0.0
  0
LINE
  5
145
  8
1
 62
     7
 10
-239.00001372756799
 20
64.568542494928806
 30
0.0
 11
-237.00001372756799
 21
64.568542494928806
 31
0.0
  0
LINE
  5
146
  8
1
 62
     7
 10
-239.00001372756799
 20
48.568542494928579
 30
0.0
 11
-239.00001372756799
 21
64.568542494928806
 31
0.0
  0
LINE
  5
147
  8
1
 62
     7
 10
-237.00001372756799
 20
48.568542494928579
 30
0.0
 11
-239.00001372756799
 21
48.568542494928579
 31
0.0
  0
LINE
  5
148
  8
1
 62
     7
 10
-274.00001372756788
 20
25.7526799910836
 30
0.0
 11
-239.8259654880257
 21
48.868542494928981
 31
0.0
  0
LINE
  5
149
  8
1
 62
     7
 10
-274.00001372756788
 20
25.7526799910836
 30
0.0
 11
-237.00001372756799
 21
25.7526799910836
 31
0.0
  0
LINE
  5
14A
  8
1
 62
     7
 10
-237.00001372756799
 20
-25.75267999108382
 30
0.0
 11
-274.00001372756788
 21
-25.75267999108382
 31
0.0
  0
LINE
  5
14B
  8
1
 62
     7
 10
-272.00001372756788
 20
-39.0
 30
0.0
 11
-254.415429637139
 21
-39.0
 31
0.0
  0
LINE
  5
14C
  8
1
 62
     7
 10
-237.00001372756799
 20
-64.568542494929034
 30
0.0
 11
-239.00001372756799
 21
-64.568542494929034
 31
0.0
  0
LINE
  5
14D
  8
1
 62
     7
 10
-239.00001372756799
 20
-64.568542494929034
 30
0.0
 11
-239.00001372756799
 21
-48.568542494928799
 31
0.0
  0
LINE
  5
14E
  8
1
 62
     7
 10
-239.00001372756799
 20
-48.568542494928799
 30
0.0
 11
-237.00001372756799
 21
-48.568542494928799
 31
0.0
  0
LINE
  5
14F
  8
1
 62
     7
 10
-230.4781795114701
 20
-69.131914369244669
 30
0.0
 11
-181.51030082499929
 21
-69.131914369244669
 31
0.0
  0
LINE
  5
150
  8
1
 62
     7
 10
-237.00001372756799
 20
78.661472583856934
 30
0.0
 11
-237.00001372756799
 21
-85.0
 31
0.0
  0
LINE
  5
151
  8
1
 62
     7
 10
-238.0111816729665
 20
-67.37811258321517
 30
0.0
 11
-273.16019742893531
 21
-87.370897861065274
 31
0.0
  0
LINE
  5
152
  8
1
 62
     7
 10
-230.50001372756799
 20
-47.917344000715502
 30
0.0
 11
-230.50001372756799
 21
-40.639981092200962
 31
0.0
  0
LINE
  5
153
  8
1
 62
     7
 10
-232.00001372756799
 20
-57.172427199444428
 30
0.0
 11
-179.00001372756799
 21
-57.172427199444428
 31
0.0
  0
LINE
  5
154
  8
1
 62
     7
 10
-227.50001372756799
 20
-50.917344000715502
 30
0.0
 11
-179.00001372756799
 21
-50.917344000715502
 31
0.0
  0
LINE
  5
155
  8
1
 62
     7
 10
-232.00001372756799
 20
-40.639981092200962
 30
0.0
 11
-179.00001372756799
 21
-40.639981092200962
 31
0.0
  0
LINE
  5
156
  8
1
 62
     7
 10
-230.50001372756799
 20
-16.496576878358368
 30
0.0
 11
-230.50001372756799
 21
-30.381337631317589
 31
0.0
  0
LINE
  5
157
  8
1
 62
     7
 10
-179.00001372756799
 20
-85.0
 30
0.0
 11
-179.00001372756799
 21
-39.639981092200969
 31
0.0
  0
LINE
  5
158
  8
1
  6
DASHED
 62
     3
 10
-270.25001372756788
 20
-89.0
 30
0.0
 11
-247.75001372756799
 21
-89.0
 31
0.0
  0
LINE
  5
159
  8
1
  6
DASHED
 62
     3
 10
-247.75001372756799
 20
-89.0
 30
0.0
 11
-247.75001372756799
 21
-87.0
 31
0.0
  0
LINE
  5
15A
  8
1
  6
DASHED
 62
     3
 10
-270.25001372756788
 20
-89.0
 30
0.0
 11
-270.25001372756788
 21
-87.0
 31
0.0
  0
LINE
  5
15B
  8
1
  6
DASHED
 62
     3
 10
-264.50001372756788
 20
-102.0
 30
0.0
 11
-264.50001372756788
 21
-89.0
 31
0.0
  0
LINE
  5
15C
  8
1
  6
DASHED
 62
     3
 10
-253.50001372756799
 20
-102.0
 30
0.0
 11
-253.50001372756799
 21
-89.0
 31
0.0
  0
LINE
  5
15D
  8
1
  6
DASHDOT
 62
     3
 10
-259.00001372756799
 20
-105.0000000000052
 30
0.0
 11
-259.00001372756799
 21
-84.000000000005215
 31
0.0
  0
LINE
  5
15E
  8
1
 62
     7
 10
-169.0000137275679
 20
-102.0
 30
0.0
 11
-169.0000137275679
 21
-39.639981092200969
 31
0.0
  0
LINE
  5
15F
  8
1
 62
     7
 10
-169.0000137275679
 20
-102.0
 30
0.0
 11
-274.00001372756788
 21
-102.0
 31
0.0
  0
LINE
  5
160
  8
1
 62
     7
 10
-274.00001372756788
 20
-89.0
 30
0.0
 11
-274.00001372756788
 21
-102.0
 31
0.0
  0
LINE
  5
161
  8
1
 62
     7
 10
-241.00001372756799
 20
78.661472583856934
 30
0.0
 11
-237.00001372756799
 21
78.661472583856934
 31
0.0
  0
LINE
  5
162
  8
1
 62
     7
 10
-243.00001372756799
 20
80.661472583856948
 30
0.0
 11
-243.00001372756799
 21
92.0
 31
0.0
  0
LINE
  5
163
  8
1
 62
     7
 10
-254.4154296371386
 20
39.0
 30
0.0
 11
-272.00001372756788
 21
39.0
 31
0.0
  0
LINE
  5
164
  8
1
 62
     7
 10
-274.00001372756788
 20
-37.0
 30
0.0
 11
-274.00001372756788
 21
37.0
 31
0.0
  0
LINE
  5
165
  8
1
 62
     7
 10
-97.500013727568003
 20
-47.917344000715502
 30
0.0
 11
-91.000013727568003
 21
-47.917344000715502
 31
0.0
  0
LINE
  5
166
  8
1
 62
     7
 10
-97.500013727568003
 20
-30.381337631317589
 30
0.0
 11
-91.000013727568003
 21
-30.381337631317589
 31
0.0
  0
LINE
  5
167
  8
1
 62
     7
 10
-91.000013727568003
 20
64.568542494928806
 30
0.0
 11
-89.000013727567975
 21
64.568542494928806
 31
0.0
  0
LINE
  5
168
  8
1
 62
     7
 10
-89.000013727567975
 20
64.568542494928806
 30
0.0
 11
-89.000013727567975
 21
48.568542494928579
 31
0.0
  0
LINE
  5
169
  8
1
 62
     7
 10
-89.000013727567975
 20
48.568542494928579
 30
0.0
 11
-91.000013727568003
 21
48.568542494928579
 31
0.0
  0
LINE
  5
16A
  8
1
 62
     7
 10
-91.000013727568003
 20
25.7526799910836
 30
0.0
 11
-54.000013727567989
 21
25.7526799910836
 31
0.0
  0
LINE
  5
16B
  8
1
 62
     7
 10
-54.000013727567989
 20
-25.75267999108382
 30
0.0
 11
-91.000013727568003
 21
-25.75267999108382
 31
0.0
  0
LINE
  5
16C
  8
1
 62
     7
 10
-73.584597817997093
 20
-39.0
 30
0.0
 11
-56.000013727567989
 21
-39.0
 31
0.0
  0
LINE
  5
16D
  8
1
 62
     7
 10
-54.000013727567989
 20
-25.75267999108382
 30
0.0
 11
-88.469738135229065
 21
-49.06854249492892
 31
0.0
  0
LINE
  5
16E
  8
1
 62
     7
 10
-89.000013727567975
 20
-64.568542494929034
 30
0.0
 11
-91.000013727568003
 21
-64.568542494929034
 31
0.0
  0
LINE
  5
16F
  8
1
 62
     7
 10
-89.000013727567975
 20
-48.568542494928799
 30
0.0
 11
-89.000013727567975
 21
-64.568542494929034
 31
0.0
  0
LINE
  5
170
  8
1
 62
     7
 10
-91.000013727568003
 20
-48.568542494928799
 30
0.0
 11
-89.000013727567975
 21
-48.568542494928799
 31
0.0
  0
LINE
  5
171
  8
1
 62
     7
 10
-96.000013727568003
 20
-36.342735636059388
 30
0.0
 11
-122.1907538313762
 21
-36.342735636059388
 31
0.0
  0
LINE
  5
172
  8
1
 62
     7
 10
-99.500013727568003
 20
-32.381337631317592
 30
0.0
 11
-120.00306984818801
 21
-32.381337631317592
 31
0.0
  0
LINE
  5
173
  8
1
 62
     7
 10
-146.48972663013649
 20
-69.131914369244669
 30
0.0
 11
-97.52184794366579
 21
-69.131914369244669
 31
0.0
  0
LINE
  5
174
  8
1
 62
     7
 10
-91.000013727568003
 20
-85.0
 30
0.0
 11
-91.000013727568003
 21
78.661472583856934
 31
0.0
  0
LINE
  5
175
  8
1
 62
     7
 10
-54.839830026200673
 20
-87.370897861065274
 30
0.0
 11
-89.988845782169406
 21
-67.37811258321517
 31
0.0
  0
LINE
  5
176
  8
1
 62
     7
 10
-97.500013727568003
 20
-40.639981092200962
 30
0.0
 11
-97.500013727568003
 21
-47.917344000715502
 31
0.0
  0
LINE
  5
177
  8
1
 62
     7
 10
-149.0000137275679
 20
-57.172427199444428
 30
0.0
 11
-96.000013727568003
 21
-57.172427199444428
 31
0.0
  0
LINE
  5
178
  8
1
 62
     7
 10
-149.0000137275679
 20
-50.917344000715502
 30
0.0
 11
-100.500013727568
 21
-50.917344000715502
 31
0.0
  0
LINE
  5
179
  8
1
 62
     7
 10
-149.0000137275679
 20
-40.639981092200962
 30
0.0
 11
-96.000013727568003
 21
-40.639981092200962
 31
0.0
  0
LINE
  5
17A
  8
1
 62
     7
 10
-97.500013727568003
 20
-30.381337631317589
 30
0.0
 11
-97.500013727568003
 21
-16.496576878358368
 31
0.0
  0
LINE
  5
17B
  8
1
 62
     7
 10
-96.000013727568003
 20
-16.496576878358368
 30
0.0
 11
-120.000013727568
 21
-16.496576878358368
 31
0.0
  0
LINE
  5
17C
  8
1
 62
     7
 10
-149.0000137275679
 20
-39.639981092200969
 30
0.0
 11
-149.0000137275679
 21
-85.0
 31
0.0
  0
LINE
  5
17D
  8
1
  6
DASHED
 62
     3
 10
-80.250013727567989
 20
-89.0
 30
0.0
 11
-57.750013727567989
 21
-88.999999999999986
 31
0.0
  0
LINE
  5
17E
  8
1
  6
DASHED
 62
     3
 10
-80.250013727567989
 20
-87.0
 30
0.0
 11
-80.250013727567989
 21
-89.0
 31
0.0
  0
LINE
  5
17F
  8
1
  6
DASHED
 62
     3
 10
-57.750013727567989
 20
-87.0
 30
0.0
 11
-57.750013727567989
 21
-88.999999999999986
 31
0.0
  0
LINE
  5
180
  8
1
  6
DASHED
 62
     3
 10
-63.500013727567989
 20
-89.0
 30
0.0
 11
-63.500013727567989
 21
-102.0
 31
0.0
  0
LINE
  5
181
  8
1
  6
DASHED
 62
     3
 10
-74.500013727567989
 20
-89.0
 30
0.0
 11
-74.500013727567989
 21
-102.0
 31
0.0
  0
LINE
  5
182
  8
1
  6
DASHDOT
 62
     3
 10
-69.000013727567989
 20
-84.000000000005215
 30
0.0
 11
-69.000013727567989
 21
-105.0000000000052
 31
0.0
  0
LINE
  5
183
  8
1
 62
     7
 10
-159.00001372756799
 20
-102.0
 30
0.0
 11
-159.00001372756799
 21
-39.639981092200969
 31
0.0
  0
LINE
  5
184
  8
1
 62
     7
 10
-54.000013727567989
 20
-102.0
 30
0.0
 11
-159.00001372756799
 21
-102.0
 31
0.0
  0
LINE
  5
185
  8
1
 62
     7
 10
-54.000013727567989
 20
-102.0
 30
0.0
 11
-54.000013727567989
 21
-89.0
 31
0.0
  0
LINE
  5
186
  8
1
 62
     7
 10
-91.000013727568003
 20
78.661472583856934
 30
0.0
 11
-87.000013727567975
 21
78.661472583856934
 31
0.0
  0
LINE
  5
187
  8
1
 62
     7
 10
-85.000013727567975
 20
80.661472583856948
 30
0.0
 11
-85.000013727567975
 21
92.0
 31
0.0
  0
LINE
  5
188
  8
1
 62
     7
 10
-88.000013727567975
 20
95.0
 30
0.0
 11
-240.00001372756799
 21
95.0
 31
0.0
  0
LINE
  5
189
  8
1
 62
     7
 10
-56.000013727567989
 20
39.0
 30
0.0
 11
-73.584597817997377
 21
39.0
 31
0.0
  0
LINE
  5
18A
  8
1
 62
     7
 10
-54.000013727567989
 20
-37.0
 30
0.0
 11
-54.000013727567989
 21
37.0
 31
0.0
  0
LINE
  5
18B
  8
1
 62
     7
 10
204.8830483667015
 20
15.499999999976129
 30
0.0
 11
204.8830483667015
 21
8.4999999999761258
 31
0.0
  0
LINE
  5
18C
  8
1
 62
     7
 10
211.8830483667013
 20
15.499999999976129
 30
0.0
 11
204.8830483667015
 21
15.499999999976129
 31
0.0
  0
LINE
  5
18D
  8
1
 62
     7
 10
211.8830483667013
 20
8.4999999999761258
 30
0.0
 11
211.8830483667013
 21
15.499999999976129
 31
0.0
  0
LINE
  5
18E
  8
1
 62
     7
 10
204.8830483667015
 20
8.4999999999761258
 30
0.0
 11
211.8830483667013
 21
8.4999999999761258
 31
0.0
  0
LINE
  5
18F
  8
1
  6
DASHDOT
 62
     3
 10
208.3830483667015
 20
8.2499999999946567
 30
0.0
 11
208.3830483667015
 21
-8.2499999999946567
 31
0.0
  0
LINE
  5
190
  8
1
  6
DASHDOT
 62
     3
 10
216.6330483666961
 20
0.0
 30
0.0
 11
200.1330483667069
 21
0.0
 31
0.0
  0
LINE
  5
191
  8
1
 62
     7
 10
205.38304836670099
 20
-18.79693845669896
 30
0.0
 11
203.38304836670099
 21
-18.79693845669896
 31
0.0
  0
LINE
  5
192
  8
1
 62
     7
 10
205.3830483667011
 20
-14.696938456698939
 30
0.0
 11
205.38304836670099
 21
-18.79693845669896
 31
0.0
  0
LINE
  5
193
  8
1
 62
     7
 10
211.38304836670099
 20
-18.796938456699191
 30
0.0
 11
213.3830483667011
 21
-18.796938456699191
 31
0.0
  0
LINE
  5
194
  8
1
 62
     7
 10
211.3830483667011
 20
-14.69693845669917
 30
0.0
 11
211.38304836670099
 21
-18.796938456699191
 31
0.0
  0
LINE
  5
195
  8
1
 62
     7
 10
201.38304836670099
 20
-16.796938456698971
 30
0.0
 11
201.38304836670099
 21
-16.170112359181989
 31
0.0
  0
LINE
  5
196
  8
1
 62
     7
 10
215.3830483667011
 20
-16.796938456699191
 30
0.0
 11
215.3830483667011
 21
-16.170112359182198
 31
0.0
  0
LINE
  5
197
  8
1
 62
     7
 10
238.38304836670031
 20
-73.709699397775125
 30
0.0
 11
178.38304836670031
 21
-73.709699397775125
 31
0.0
  0
LINE
  5
198
  8
1
 62
     7
 10
238.38304836670031
 20
-61.709699397775132
 30
0.0
 11
238.38304836670031
 21
-73.709699397775125
 31
0.0
  0
LINE
  5
199
  8
1
 62
     7
 10
178.38304836670031
 20
-61.709699397775132
 30
0.0
 11
238.38304836670031
 21
-61.709699397775132
 31
0.0
  0
LINE
  5
19A
  8
1
 62
     7
 10
178.38304836670031
 20
-73.709699397775125
 30
0.0
 11
178.38304836670031
 21
-61.709699397775132
 31
0.0
  0
LINE
  5
19B
  8
1
 62
     7
 10
162.39391921643241
 20
79.655508284105281
 30
0.0
 11
160.88304836670031
 21
82.272413359516577
 31
0.0
  0
LINE
  5
19C
  8
1
 62
     7
 10
198.38304836670031
 20
83.999999999994785
 30
0.0
 11
198.38304836670031
 21
81.975606127671654
 31
0.0
  0
LINE
  5
19D
  8
1
 62
     7
 10
166.9101656600449
 20
71.83313998426685
 30
0.0
 11
165.90952720350981
 21
73.566296630992824
 31
0.0
  0
LINE
  5
19E
  8
1
 62
     7
 10
250.85656952989089
 20
73.566296630992824
 30
0.0
 11
249.8559310733558
 21
71.83313998426685
 31
0.0
  0
LINE
  5
19F
  8
1
 62
     7
 10
218.38304836670031
 20
81.975606127671654
 30
0.0
 11
218.38304836670031
 21
83.999999999994785
 31
0.0
  0
LINE
  5
1A0
  8
1
 62
     7
 10
255.88304836670031
 20
82.272413359516577
 30
0.0
 11
254.37217751696801
 21
79.655508284105281
 31
0.0
  0
LINE
  5
1A1
  8
1
 62
     7
 10
177.17254037285929
 20
27.674974087903369
 30
0.0
 11
156.36140438896749
 21
48.48611007179489
 31
0.0
  0
LINE
  5
1A2
  8
1
 62
     7
 10
180.708074278792
 20
31.210507993836021
 30
0.0
 11
159.89693829490011
 21
52.021643977727763
 31
0.0
  0
LINE
  5
1A3
  8
1
 62
     7
 10
256.86915843850011
 20
52.021643977727763
 30
0.0
 11
236.05802245460839
 21
31.210507993836021
 31
0.0
  0
LINE
  5
1A4
  8
1
 62
     7
 10
260.40469234443287
 20
48.48611007179489
 30
0.0
 11
239.5935563605411
 21
27.674974087903369
 31
0.0
  0
LINE
  5
1A5
  8
1
 62
     7
 10
159.89693829490011
 20
-52.021643977737767
 30
0.0
 11
180.708074278792
 21
-31.21050799384625
 31
0.0
  0
LINE
  5
1A6
  8
1
 62
     7
 10
156.36140438896749
 20
-48.486110071805108
 30
0.0
 11
177.17254037285929
 21
-27.67497408791337
 31
0.0
  0
LINE
  5
1A7
  8
1
 62
     7
 10
113.38304836670009
 20
-89.000000000005215
 30
0.0
 11
113.38304836670009
 21
-102.0000000000051
 31
0.0
  0
LINE
  5
1A8
  8
1
 62
     7
 10
163.38304836670011
 20
-102.0000000000051
 30
0.0
 11
113.38304836670009
 21
-102.0000000000051
 31
0.0
  0
LINE
  5
1A9
  8
1
 62
     7
 10
143.38304836670011
 20
-71.414284285433723
 30
0.0
 11
143.38304836670011
 21
-85.000000000005244
 31
0.0
  0
LINE
  5
1AA
  8
1
 62
     7
 10
153.38304836670011
 20
-85.000000000005244
 30
0.0
 11
153.38304836670011
 21
-67.579951358045491
 31
0.0
  0
LINE
  5
1AB
  8
1
 62
     7
 10
154.38304836670011
 20
-67.579951358045491
 30
0.0
 11
162.38304836670011
 21
-67.579951358045491
 31
0.0
  0
LINE
  5
1AC
  8
1
  6
DASHDOT
 62
     3
 10
128.38304836670011
 20
-105.0000000000052
 30
0.0
 11
128.38304836670011
 21
-84.000000000005215
 31
0.0
  0
LINE
  5
1AD
  8
1
  6
DASHED
 62
     3
 10
139.63304836670011
 20
-89.000000000005215
 30
0.0
 11
139.63304836670011
 21
-87.00000000000523
 31
0.0
  0
LINE
  5
1AE
  8
1
  6
DASHED
 62
     3
 10
117.1330483667
 20
-89.000000000005215
 30
0.0
 11
139.63304836670011
 21
-89.000000000005215
 31
0.0
  0
LINE
  5
1AF
  8
1
  6
DASHED
 62
     3
 10
117.1330483667
 20
-87.00000000000523
 30
0.0
 11
117.1330483667
 21
-89.000000000005215
 31
0.0
  0
LINE
  5
1B0
  8
1
  6
DASHED
 62
     3
 10
133.88304836670011
 20
-102.0000000000051
 30
0.0
 11
133.88304836670011
 21
-89.000000000005215
 31
0.0
  0
LINE
  5
1B1
  8
1
  6
DASHED
 62
     3
 10
122.8830483667
 20
-102.0000000000051
 30
0.0
 11
122.8830483667
 21
-89.000000000005215
 31
0.0
  0
LINE
  5
1B2
  8
1
 62
     7
 10
122.7274161051687
 20
-15.10339901735574
 30
0.0
 11
114.8263118305405
 21
-16.496576878363602
 31
0.0
  0
LINE
  5
1B3
  8
1
 62
     7
 10
127.9941409400104
 20
-33.05485687071473
 30
0.0
 11
120.60944432489541
 21
-36.34273563606461
 31
0.0
  0
LINE
  5
1B4
  8
1
 62
     7
 10
130.0278241553892
 20
-37.622584158927779
 30
0.0
 11
122.64312754027451
 21
-40.910462924277681
 31
0.0
  0
LINE
  5
1B5
  8
1
 62
     7
 10
138.92012085584869
 20
-52.344070357804178
 30
0.0
 11
132.51267491220739
 21
-57.17242719944965
 31
0.0
  0
LINE
  5
1B6
  8
1
 62
     7
 10
251.38304836670031
 20
-95.000000000005244
 30
0.0
 11
165.3830483667
 21
-95.000000000005244
 31
0.0
  0
LINE
  5
1B7
  8
1
 62
     7
 10
284.25342182119311
 20
-57.17242719944965
 30
0.0
 11
277.84597587755172
 21
-52.344070357804178
 31
0.0
  0
LINE
  5
1B8
  8
1
 62
     7
 10
294.12296919312593
 20
-40.910462924277788
 30
0.0
 11
286.73827257801111
 21
-37.622584158927779
 31
0.0
  0
LINE
  5
1B9
  8
1
 62
     7
 10
296.15665240850478
 20
-36.34273563606461
 30
0.0
 11
288.77195579339008
 21
-33.05485687071473
 31
0.0
  0
LINE
  5
1BA
  8
1
 62
     7
 10
301.93978490286003
 20
-16.496576878363602
 30
0.0
 11
294.03868062823182
 21
-15.10339901735574
 31
0.0
  0
LINE
  5
1BB
  8
1
  6
DASHED
 62
     3
 10
293.88304836670028
 20
-89.000000000005215
 30
0.0
 11
293.88304836670028
 21
-102.0000000000051
 31
0.0
  0
LINE
  5
1BC
  8
1
  6
DASHED
 62
     3
 10
282.88304836670028
 20
-89.000000000005215
 30
0.0
 11
282.88304836670028
 21
-102.0000000000051
 31
0.0
  0
LINE
  5
1BD
  8
1
  6
DASHED
 62
     3
 10
299.63304836670028
 20
-89.000000000005215
 30
0.0
 11
299.63304836670028
 21
-87.00000000000523
 31
0.0
  0
LINE
  5
1BE
  8
1
  6
DASHED
 62
     3
 10
277.13304836670028
 20
-89.000000000005215
 30
0.0
 11
299.63304836670028
 21
-89.000000000005215
 31
0.0
  0
LINE
  5
1BF
  8
1
  6
DASHED
 62
     3
 10
277.13304836670028
 20
-87.00000000000523
 30
0.0
 11
277.13304836670028
 21
-89.000000000005215
 31
0.0
  0
LINE
  5
1C0
  8
1
  6
DASHDOT
 62
     3
 10
288.38304836670028
 20
-84.000000000005215
 30
0.0
 11
288.38304836670028
 21
-105.0000000000052
 31
0.0
  0
LINE
  5
1C1
  8
1
 62
     7
 10
254.38304836670031
 20
-67.579951358045491
 30
0.0
 11
262.38304836670028
 21
-67.579951358045491
 31
0.0
  0
LINE
  5
1C2
  8
1
 62
     7
 10
263.38304836670028
 20
-67.579951358045491
 30
0.0
 11
263.38304836670028
 21
-85.000000000005244
 31
0.0
  0
LINE
  5
1C3
  8
1
 62
     7
 10
273.38304836670028
 20
-85.000000000005244
 30
0.0
 11
273.38304836670028
 21
-71.414284285433723
 31
0.0
  0
LINE
  5
1C4
  8
1
 62
     7
 10
303.38304836670028
 20
-102.0000000000051
 30
0.0
 11
253.38304836670031
 21
-102.0000000000051
 31
0.0
  0
LINE
  5
1C5
  8
1
 62
     7
 10
303.38304836670028
 20
-102.0000000000051
 30
0.0
 11
303.38304836670028
 21
-89.000000000005215
 31
0.0
  0
LINE
  5
1C6
  8
1
 62
     7
 10
239.5935563605411
 20
-27.67497408791337
 30
0.0
 11
260.40469234443287
 21
-48.486110071805108
 31
0.0
  0
LINE
  5
1C7
  8
1
 62
     7
 10
236.05802245460839
 20
-31.21050799384625
 30
0.0
 11
256.86915843850011
 21
-52.021643977737767
 31
0.0
  0
LINE
  5
1C8
  8
1
 62
     7
 10
157.12173364780639
 20
-51.261314718898689
 30
0.0
 11
149.87192568207891
 21
-49.318734529201272
 31
0.0
  0
LINE
  5
1C9
  8
1
 62
     7
 10
149.87192568207891
 20
-49.318734529201272
 30
0.0
 11
144.56469790604859
 21
-54.625962305231504
 31
0.0
  0
LINE
  5
1CA
  8
1
 62
     7
 10
144.56469790604859
 20
-54.625962305231504
 30
0.0
 11
146.5072780957461
 21
-61.875770270959151
 31
0.0
  0
LINE
  5
1CB
  8
1
 62
     7
 10
146.5072780957461
 20
-61.875770270959151
 30
0.0
 11
153.75708606147381
 21
-63.818350460656561
 31
0.0
  0
LINE
  5
1CC
  8
1
 62
     7
 10
153.75708606147381
 20
-63.818350460656561
 30
0.0
 11
159.0643138375041
 21
-58.511122684626343
 31
0.0
  0
LINE
  5
1CD
  8
1
 62
     7
 10
159.0643138375041
 20
-58.511122684626343
 30
0.0
 11
157.12173364780639
 21
-51.261314718898689
 31
0.0
  0
LINE
  5
1CE
  8
1
 62
     7
 10
259.64436308559368
 20
-51.261314718898923
 30
0.0
 11
257.70178289589637
 21
-58.511122684626571
 31
0.0
  0
LINE
  5
1CF
  8
1
 62
     7
 10
257.70178289589637
 20
-58.511122684626571
 30
0.0
 11
263.00901067192649
 21
-63.818350460656788
 31
0.0
  0
LINE
  5
1D0
  8
1
 62
     7
 10
263.00901067192649
 20
-63.818350460656788
 30
0.0
 11
270.25881863765431
 21
-61.875770270959379
 31
0.0
  0
LINE
  5
1D1
  8
1
 62
     7
 10
270.25881863765431
 20
-61.875770270959379
 30
0.0
 11
272.20139882735162
 21
-54.62596230523171
 31
0.0
  0
LINE
  5
1D2
  8
1
 62
     7
 10
272.20139882735162
 20
-54.62596230523171
 30
0.0
 11
266.89417105132151
 21
-49.318734529201478
 31
0.0
  0
LINE
  5
1D3
  8
1
 62
     7
 10
266.89417105132151
 20
-49.318734529201478
 30
0.0
 11
259.64436308559368
 21
-51.261314718898923
 31
0.0
  0
LINE
  5
1D4
  8
1
 62
     7
 10
259.64436308559391
 20
51.261314718888222
 30
0.0
 11
266.89417105132162
 21
49.318734529190912
 31
0.0
  0
LINE
  5
1D5
  8
1
 62
     7
 10
266.89417105132162
 20
49.318734529190912
 30
0.0
 11
272.2013988273518
 21
54.625962305221272
 31
0.0
  0
LINE
  5
1D6
  8
1
 62
     7
 10
272.2013988273518
 20
54.625962305221272
 30
0.0
 11
270.25881863765397
 21
61.875770270948919
 31
0.0
  0
LINE
  5
1D7
  8
1
 62
     7
 10
270.25881863765397
 20
61.875770270948919
 30
0.0
 11
263.00901067192649
 21
63.818350460646222
 31
0.0
  0
LINE
  5
1D8
  8
1
 62
     7
 10
263.00901067192649
 20
63.818350460646222
 30
0.0
 11
257.70178289589637
 21
58.51112268461587
 31
0.0
  0
LINE
  5
1D9
  8
1
 62
     7
 10
257.70178289589637
 20
58.51112268461587
 30
0.0
 11
259.64436308559391
 21
51.261314718888222
 31
0.0
  0
LINE
  5
1DA
  8
1
 62
     7
 10
157.12173364780639
 20
51.261314718888123
 30
0.0
 11
159.0643138375043
 21
58.511122684615657
 31
0.0
  0
LINE
  5
1DB
  8
1
 62
     7
 10
159.0643138375043
 20
58.511122684615657
 30
0.0
 11
153.75708606147441
 21
63.818350460646222
 31
0.0
  0
LINE
  5
1DC
  8
1
 62
     7
 10
153.75708606147441
 20
63.818350460646222
 30
0.0
 11
146.5072780957465
 21
61.875770270949261
 31
0.0
  0
LINE
  5
1DD
  8
1
 62
     7
 10
146.5072780957465
 20
61.875770270949261
 30
0.0
 11
144.56469790604859
 21
54.625962305221599
 31
0.0
  0
LINE
  5
1DE
  8
1
 62
     7
 10
144.56469790604859
 20
54.625962305221599
 30
0.0
 11
149.8719256820784
 21
49.318734529191147
 31
0.0
  0
LINE
  5
1DF
  8
1
 62
     7
 10
149.8719256820784
 20
49.318734529191147
 30
0.0
 11
157.12173364780639
 21
51.261314718888123
 31
0.0
  0
LINE
  5
1E0
  8
1
 62
     7
 10
236.6999924900085
 20
-82.238377145455715
 30
0.0
 11
241.09417162921841
 21
-95.000000000005244
 31
0.0
  0
LINE
  5
1E1
  8
1
 62
     7
 10
215.96359414067479
 20
-86.646034680009848
 30
0.0
 11
216.69447140166309
 21
-95.000000000005244
 31
0.0
  0
LINE
  5
1E2
  8
1
 62
     7
 10
200.8025025927258
 20
-86.646034680010516
 30
0.0
 11
200.07162533173729
 21
-95.000000000005244
 31
0.0
  0
LINE
  5
1E3
  8
1
 62
     7
 10
180.06610424339189
 20
-82.238377145456184
 30
0.0
 11
175.67192510418201
 21
-95.000000000005244
 31
0.0
  0
LINE
  5
1E4
  8
1
 62
     7
 10
257.99629702075208
 20
-0.0000000000052296
 30
0.0
 11
259.43967269372621
 21
-2.50000000000523
 31
0.0
  0
LINE
  5
1E5
  8
1
 62
     7
 10
259.43967269372621
 20
-2.50000000000523
 30
0.0
 11
262.32642403967441
 21
-2.50000000000523
 31
0.0
  0
LINE
  5
1E6
  8
1
 62
     7
 10
262.32642403967441
 20
-2.50000000000523
 30
0.0
 11
263.76979971264842
 21
-0.0000000000052296
 31
0.0
  0
LINE
  5
1E7
  8
1
 62
     7
 10
263.76979971264842
 20
-0.0000000000052296
 30
0.0
 11
262.32642403967441
 21
2.4999999999947691
 31
0.0
  0
LINE
  5
1E8
  8
1
 62
     7
 10
262.32642403967441
 20
2.4999999999947691
 30
0.0
 11
259.43967269372621
 21
2.4999999999947691
 31
0.0
  0
LINE
  5
1E9
  8
1
 62
     7
 10
259.43967269372621
 20
2.4999999999947691
 30
0.0
 11
257.99629702075208
 21
-0.0000000000052296
 31
0.0
  0
LINE
  5
1EA
  8
1
 62
     7
 10
208.3830483667067
 20
49.613248654050601
 30
0.0
 11
210.8830483667067
 21
51.056624327024679
 31
0.0
  0
LINE
  5
1EB
  8
1
 62
     7
 10
210.8830483667067
 20
51.056624327024679
 30
0.0
 11
210.8830483667067
 21
53.94337567297282
 31
0.0
  0
LINE
  5
1EC
  8
1
 62
     7
 10
210.8830483667067
 20
53.94337567297282
 30
0.0
 11
208.3830483667067
 21
55.386751345946891
 31
0.0
  0
LINE
  5
1ED
  8
1
 62
     7
 10
208.3830483667067
 20
55.386751345946891
 30
0.0
 11
205.8830483667067
 21
53.94337567297282
 31
0.0
  0
LINE
  5
1EE
  8
1
 62
     7
 10
205.8830483667067
 20
53.94337567297282
 30
0.0
 11
205.8830483667067
 21
51.056624327024679
 31
0.0
  0
LINE
  5
1EF
  8
1
 62
     7
 10
205.8830483667067
 20
51.056624327024679
 30
0.0
 11
208.3830483667067
 21
49.613248654050601
 31
0.0
  0
LINE
  5
1F0
  8
1
 62
     7
 10
158.76979971265101
 20
0.0000000000050022
 30
0.0
 11
157.32642403967691
 21
2.5000000000050022
 31
0.0
  0
LINE
  5
1F1
  8
1
 62
     7
 10
157.32642403967691
 20
2.5000000000050022
 30
0.0
 11
154.4396726937286
 21
2.5000000000050022
 31
0.0
  0
LINE
  5
1F2
  8
1
 62
     7
 10
154.4396726937286
 20
2.5000000000050022
 30
0.0
 11
152.99629702075461
 21
0.0000000000050022
 31
0.0
  0
LINE
  5
1F3
  8
1
 62
     7
 10
152.99629702075461
 20
0.0000000000050022
 30
0.0
 11
154.4396726937286
 21
-2.4999999999949969
 31
0.0
  0
LINE
  5
1F4
  8
1
 62
     7
 10
154.4396726937286
 20
-2.4999999999949969
 30
0.0
 11
157.32642403967691
 21
-2.4999999999949969
 31
0.0
  0
LINE
  5
1F5
  8
1
 62
     7
 10
157.32642403967691
 20
-2.4999999999949969
 30
0.0
 11
158.76979971265101
 21
0.0000000000050022
 31
0.0
  0
LINE
  5
1F6
  8
1
 62
     7
 10
208.38304836669641
 20
-49.613248654050722
 30
0.0
 11
205.8830483666965
 21
-51.056624327024792
 31
0.0
  0
LINE
  5
1F7
  8
1
 62
     7
 10
205.8830483666965
 20
-51.056624327024792
 30
0.0
 11
205.8830483666965
 21
-53.94337567297292
 31
0.0
  0
LINE
  5
1F8
  8
1
 62
     7
 10
205.8830483666965
 20
-53.94337567297292
 30
0.0
 11
208.38304836669641
 21
-55.386751345946998
 31
0.0
  0
LINE
  5
1F9
  8
1
 62
     7
 10
208.38304836669641
 20
-55.386751345946998
 30
0.0
 11
210.88304836669641
 21
-53.94337567297292
 31
0.0
  0
LINE
  5
1FA
  8
1
 62
     7
 10
210.88304836669641
 20
-53.94337567297292
 30
0.0
 11
210.88304836669641
 21
-51.056624327024792
 31
0.0
  0
LINE
  5
1FB
  8
1
 62
     7
 10
210.88304836669641
 20
-51.056624327024792
 30
0.0
 11
208.38304836669641
 21
-49.613248654050722
 31
0.0
  0
LINE
  5
1FC
  8
1
 62
     7
 10
161.38304836670011
 20
-87.00000000000523
 30
0.0
 11
115.38304836670009
 21
-87.00000000000523
 31
0.0
  0
LINE
  5
1FD
  8
1
 62
     7
 10
121.59622989065301
 20
-38.639981092206199
 30
0.0
 11
113.4092932362025
 21
-88.677059316853502
 31
0.0
  0
LINE
  5
1FE
  8
1
 62
     7
 10
295.16986684274752
 20
-38.639981092206312
 30
0.0
 11
303.3568034971978
 21
-88.677059316853615
 31
0.0
  0
LINE
  5
1FF
  8
1
 62
     7
 10
-150.0000137275679
 20
-39.639981092200969
 30
0.0
 11
-158.0000137275679
 21
-39.639981092200969
 31
0.0
  0
LINE
  5
200
  8
1
 62
     7
 10
-170.0000137275679
 20
-39.639981092200969
 30
0.0
 11
-178.00001372756799
 21
-39.639981092200969
 31
0.0
  0
LINE
  5
201
  8
1
 62
     7
 10
-247.50001372756799
 20
233.64911555592531
 30
0.0
 11
-247.50001372756799
 21
244.89911555592531
 31
0.0
  0
LINE
  5
202
  8
1
 62
     7
 10
-246.7783258910809
 20
231.77411555592531
 30
0.0
 11
-241.00001372756799
 21
231.77411555592531
 31
0.0
  0
LINE
  5
203
  8
1
 62
     7
 10
-246.7783258910809
 20
235.52411555592531
 30
0.0
 11
-241.00001372756799
 21
235.52411555592531
 31
0.0
  0
LINE
  5
204
  8
1
 62
     7
 10
-246.7783258910809
 20
243.02411555592531
 30
0.0
 11
-241.00001372756799
 21
243.02411555592531
 31
0.0
  0
LINE
  5
205
  8
1
 62
     7
 10
-246.7783258910809
 20
246.77411555592531
 30
0.0
 11
-241.00001372756799
 21
246.77411555592531
 31
0.0
  0
LINE
  5
206
  8
1
 62
     7
 10
-247.50001372756799
 20
346.78620054578278
 30
0.0
 11
-247.50001372756799
 21
358.03620054578278
 31
0.0
  0
LINE
  5
207
  8
1
 62
     7
 10
-246.7783258910809
 20
344.91120054578278
 30
0.0
 11
-241.00001372756799
 21
344.91120054578278
 31
0.0
  0
LINE
  5
208
  8
1
 62
     7
 10
-246.7783258910809
 20
348.66120054578278
 30
0.0
 11
-241.00001372756799
 21
348.66120054578278
 31
0.0
  0
LINE
  5
209
  8
1
 62
     7
 10
-246.7783258910809
 20
356.16120054578278
 30
0.0
 11
-241.00001372756799
 21
356.16120054578278
 31
0.0
  0
LINE
  5
20A
  8
1
 62
     7
 10
-246.7783258910809
 20
359.91120054578278
 30
0.0
 11
-241.00001372756799
 21
359.91120054578278
 31
0.0
  0
LINE
  5
20B
  8
1
 62
     7
 10
-159.00001372756799
 20
-87.0
 30
0.0
 11
-56.000013727567989
 21
-87.0
 31
0.0
  0
LINE
  5
20C
  8
1
 62
     7
 10
-169.0000137275679
 20
-87.0
 30
0.0
 11
-272.00001372756788
 21
-87.0
 31
0.0
  0
LINE
  5
20D
  8
1
 62
     7
 10
301.38304836670028
 20
-87.00000000000523
 30
0.0
 11
255.38304836670031
 21
-87.00000000000523
 31
0.0
  0
LINE
  5
20E
  8
1
  6
DASHED
 62
     3
 10
-4.000013727567989
 20
-3.2000000000000002
 30
0.0
 11
-26.400013727567991
 21
-3.199999999999998
 31
0.0
  0
LINE
  5
20F
  8
1
  6
DASHED
 62
     3
 10
-26.400013727567991
 20
-3.199999999999998
 30
0.0
 11
-26.400013727567991
 21
3.200000000000002
 31
0.0
  0
LINE
  5
210
  8
1
  6
DASHED
 62
     3
 10
-26.400013727567991
 20
3.200000000000002
 30
0.0
 11
-4.000013727567989
 21
3.2000000000000002
 31
0.0
  0
LINE
  5
211
  8
1
  6
DASHED
 62
     3
 10
-26.400013727567991
 20
-3.199999999999998
 30
0.0
 11
-28.709414804326482
 21
0.000000000000003
 31
0.0
  0
LINE
  5
212
  8
1
  6
DASHED
 62
     3
 10
-28.709414804326482
 20
0.000000000000003
 30
0.0
 11
-26.400013727567991
 21
3.200000000000002
 31
0.0
  0
LINE
  5
213
  8
1
  6
DASHED
 62
     3
 10
-4.0000137275679899
 20
-4.0
 30
0.0
 11
-20.000013727567978
 21
-3.9999999999999978
 31
0.0
  0
LINE
  5
214
  8
1
  6
DASHED
 62
     3
 10
-20.000013727567978
 20
-3.9999999999999978
 30
0.0
 11
-20.000013727567978
 21
4.0000000000000009
 31
0.0
  0
LINE
  5
215
  8
1
  6
DASHED
 62
     3
 10
-20.000013727567978
 20
4.0000000000000009
 30
0.0
 11
-4.0000137275679881
 21
4.0
 31
0.0
  0
LINE
  5
216
  8
1
  6
DASHED
 62
     3
 10
-20.000013727567978
 20
-3.9999999999999978
 30
0.0
 11
-21.38565437362309
 21
-3.199999999999998
 31
0.0
  0
LINE
  5
217
  8
1
  6
DASHED
 62
     3
 10
-20.000013727567978
 20
4.0000000000000009
 30
0.0
 11
-21.38565437362309
 21
3.2000000000000011
 31
0.0
  0
LINE
  5
218
  8
1
  6
DASHDOT
 62
     3
 10
-1.000013727567989
 20
-0.0000000000000004
 30
0.0
 11
-32.847534588974803
 21
0.0000000000000035
 31
0.0
  0
LINE
  5
219
  8
1
  6
DASHED
 62
     3
 10
-324.00001372756788
 20
3.2000000000000002
 30
0.0
 11
-301.60001372756801
 21
3.2000000000000002
 31
0.0
  0
LINE
  5
21A
  8
1
  6
DASHED
 62
     3
 10
-301.60001372756801
 20
3.2000000000000002
 30
0.0
 11
-301.60001372756801
 21
-3.2000000000000002
 31
0.0
  0
LINE
  5
21B
  8
1
  6
DASHED
 62
     3
 10
-301.60001372756801
 20
-3.2000000000000002
 30
0.0
 11
-324.00001372756788
 21
-3.2000000000000002
 31
0.0
  0
LINE
  5
21C
  8
1
  6
DASHED
 62
     3
 10
-301.60001372756801
 20
3.2000000000000002
 30
0.0
 11
-299.29061265080952
 21
0.0
 31
0.0
  0
LINE
  5
21D
  8
1
  6
DASHED
 62
     3
 10
-299.29061265080952
 20
0.0
 30
0.0
 11
-301.60001372756801
 21
-3.2000000000000002
 31
0.0
  0
LINE
  5
21E
  8
1
  6
DASHED
 62
     3
 10
-324.00001372756788
 20
4.0
 30
0.0
 11
-308.00001372756788
 21
4.0
 31
0.0
  0
LINE
  5
21F
  8
1
  6
DASHED
 62
     3
 10
-308.00001372756788
 20
4.0
 30
0.0
 11
-308.00001372756788
 21
-4.0
 31
0.0
  0
LINE
  5
220
  8
1
  6
DASHED
 62
     3
 10
-308.00001372756788
 20
-4.0
 30
0.0
 11
-324.00001372756788
 21
-4.0
 31
0.0
  0
LINE
  5
221
  8
1
  6
DASHED
 62
     3
 10
-308.00001372756788
 20
4.0
 30
0.0
 11
-306.61437308151289
 21
3.2000000000000002
 31
0.0
  0
LINE
  5
222
  8
1
  6
DASHED
 62
     3
 10
-308.00001372756788
 20
-4.0
 30
0.0
 11
-306.61437308151289
 21
-3.2000000000000002
 31
0.0
  0
LINE
  5
223
  8
1
  6
DASHDOT
 62
     3
 10
-327.00001372756799
 20
0.0
 30
0.0
 11
-295.1524928661612
 21
0.0
 31
0.0
  0
ARC
  5
224
  8
1
 62
     7
 10
-244.70347336118081
 20
-50.94354249492892
 30
0.0
 40
2.796540366387235
 50
137.89655112925391
 51
222.10344887074609
  0
ARC
  5
225
  8
1
 62
     7
 10
-237.39638401674961
 20
-56.56854249492892
 30
0.0
 40
10.10362971081844
 50
158.21321070173809
 51
201.78678929826191
  0
ARC
  5
226
  8
1
 62
     7
 10
-244.70347336118081
 20
-62.19354249492892
 30
0.0
 40
2.796540366387235
 50
137.89655112925391
 51
222.10344887074609
  0
ARC
  5
227
  8
1
 62
     7
 10
-244.70347336118081
 20
62.193542494929019
 30
0.0
 40
2.7965403663872399
 50
137.89655112925371
 51
222.10344887074609
  0
ARC
  5
228
  8
1
 62
     7
 10
-237.39638401674961
 20
56.568542494929019
 30
0.0
 40
10.10362971081844
 50
158.21321070173809
 51
201.78678929826191
  0
ARC
  5
229
  8
1
 62
     7
 10
-244.70347336118081
 20
50.943542494929019
 30
0.0
 40
2.796540366387235
 50
137.89655112925391
 51
222.10344887074609
  0
ARC
  5
22A
  8
1
 62
     7
 10
-234.00001372756799
 20
387.84265805085289
 30
0.0
 40
3.0
 50
90.0
 51
180.0
  0
ARC
  5
22B
  8
1
 62
     7
 10
-234.00001372756799
 20
203.84265805085261
 30
0.0
 40
3.0
 50
180.0
 51
270.0
  0
ARC
  5
22C
  8
1
 62
     7
 10
-287.50001372756799
 20
295.84265805085408
 30
0.0
 40
3.5000000000001128
 50
270.0
 51
90.0
  0
ARC
  5
22D
  8
1
 62
     7
 10
-94.000013727568003
 20
387.84265805085289
 30
0.0
 40
3.0
 50
0.0
 51
90.0
  0
ARC
  5
22E
  8
1
 62
     7
 10
-94.000013727568003
 20
203.84265805085261
 30
0.0
 40
3.0
 50
270.0
 51
0.0
  0
ARC
  5
22F
  8
1
 62
     7
 10
-40.500013727567982
 20
295.84265805085408
 30
0.0
 40
3.5000000000001128
 50
90.0
 51
270.0
  0
ARC
  5
230
  8
1
 62
     7
 10
-86.383607689231582
 20
346.78620054578278
 30
0.0
 40
2.88359396166353
 50
319.44103660467789
 51
40.55896339532201
  0
ARC
  5
231
  8
1
 62
     7
 10
-93.995159089680712
 20
352.41120054578278
 30
0.0
 40
10.495145362112661
 50
339.06503364814682
 51
20.93496635185307
  0
ARC
  5
232
  8
1
 62
     7
 10
-86.383607689231582
 20
358.03620054578278
 30
0.0
 40
2.88359396166353
 50
319.44103660467789
 51
40.55896339532201
  0
ARC
  5
233
  8
1
 62
     7
 10
-86.383607689231582
 20
233.64911555592531
 30
0.0
 40
2.88359396166353
 50
319.44103660467789
 51
40.55896339532201
  0
ARC
  5
234
  8
1
 62
     7
 10
-93.995159089680712
 20
239.27411555592531
 30
0.0
 40
10.495145362112661
 50
339.06503364814682
 51
20.93496635185307
  0
ARC
  5
235
  8
1
 62
     7
 10
-86.383607689231582
 20
244.89911555592531
 30
0.0
 40
2.88359396166353
 50
319.44103660467789
 51
40.55896339532201
  0
ARC
  5
236
  8
1
 62
     7
 10
-86.383607689231496
 20
50.943542494928693
 30
0.0
 40
2.8835939616634638
 50
319.44103660467681
 51
40.558963395323119
  0
ARC
  5
237
  8
1
 62
     7
 10
-93.995159089680712
 20
56.568542494928693
 30
0.0
 40
10.495145362112661
 50
339.06503364814682
 51
20.93496635185307
  0
ARC
  5
238
  8
1
 62
     7
 10
-86.383607689231496
 20
62.193542494928693
 30
0.0
 40
2.8835939616634638
 50
319.44103660467681
 51
40.558963395323119
  0
ARC
  5
239
  8
1
 62
     7
 10
-86.383607689231496
 20
-62.19354249492892
 30
0.0
 40
2.8835939616634638
 50
319.44103660467681
 51
40.558963395323119
  0
ARC
  5
23A
  8
1
 62
     7
 10
-93.995159089680712
 20
-56.56854249492892
 30
0.0
 40
10.495145362112661
 50
339.06503364814682
 51
20.93496635185307
  0
ARC
  5
23B
  8
1
 62
     7
 10
-86.383607689231496
 20
-50.94354249492892
 30
0.0
 40
2.8835939616634638
 50
319.44103660467681
 51
40.558963395323119
  0
ARC
  5
23C
  8
1
 62
     7
 10
-155.3000137275682
 20
-29.506546709565669
 30
0.0
 40
2.6999999999997901
 50
180.0
 51
270.0
  0
ARC
  5
23D
  8
1
 62
     7
 10
-164.0000137275679
 20
-29.506546709565669
 30
0.0
 40
6.0
 50
0.0
 51
180.0
  0
ARC
  5
23E
  8
1
 62
     7
 10
-172.70001372756781
 20
-29.506546709565669
 30
0.0
 40
2.700000000000037
 50
270.0
 51
0.0
  0
ARC
  5
23F
  8
1
 62
     7
 10
-161.95001372756801
 20
-34.256546709565669
 30
0.0
 40
1.7424999999999491
 50
90.0
 51
180.0
  0
ARC
  5
240
  8
1
 62
     7
 10
-166.050013727568
 20
-34.256546709565669
 30
0.0
 40
1.7425000000000059
 50
0.0
 51
90.0
  0
ARC
  5
241
  8
1
 62
     7
 10
-166.050013727568
 20
-30.156546709565649
 30
0.0
 40
1.7425000000000599
 50
270.0
 51
0.0
  0
ARC
  5
242
  8
1
 62
     7
 10
-161.95001372756801
 20
-30.156546709565649
 30
0.0
 40
1.7425000000000059
 50
180.0
 51
270.0
  0
ARC
  5
243
  8
1
 62
     7
 10
115.05223500519141
 20
-28.206546709565711
 30
0.0
 40
2.5
 50
270.0
 51
16.815927890146028
  0
ARC
  5
244
  8
1
 62
     7
 10
115.05223500519141
 20
28.206546709565711
 30
0.0
 40
2.4999999999999512
 50
343.18407210984032
 51
74.999999999993278
  0
ARC
  5
245
  8
1
 62
     7
 10
208.3830483667015
 20
0.0
 30
0.0
 40
15.00000000000006
 50
103.49339882155159
 51
76.506601178448804
  0
ARC
  5
246
  8
1
 62
     7
 10
208.38304836669599
 20
-0.0000000000238742
 30
0.0
 40
12.500000000000011
 50
106.2602047082861
 51
73.73979529166283
  0
ARC
  5
247
  8
1
 62
     7
 10
208.3830483667015
 20
0.962499999999977
 30
0.0
 40
16.837499999999999
 50
300.27134648487868
 51
239.72865351511831
  0
ARC
  5
248
  8
1
 62
     7
 10
208.38304836670031
 20
-0.0000000000052296
 30
0.0
 40
88.000000000000043
 50
98.797410709991084
 51
117.9773759469339
  0
ARC
  5
249
  8
1
 62
     7
 10
208.38304836670031
 20
-0.0000000000052296
 30
0.0
 40
80.000000000000057
 50
99.01114046497726
 51
117.92861702364679
  0
ARC
  5
24A
  8
1
 62
     7
 10
208.38304836670031
 20
-0.0000000000052296
 30
0.0
 40
80.000000000000057
 50
62.07138297635295
 51
80.988859535022826
  0
ARC
  5
24B
  8
1
 62
     7
 10
208.38304836670031
 20
-0.0000000000052296
 30
0.0
 40
88.000000000000057
 50
62.022624053066117
 51
81.202589290008945
  0
ARC
  5
24C
  8
1
 62
     7
 10
208.38304836670031
 20
-0.0000000000052296
 30
0.0
 40
90.000000000000014
 50
61.245658551590829
 51
118.75434144840899
  0
ARC
  5
24D
  8
1
 62
     7
 10
151.38304836670011
 20
-67.579951358045491
 30
0.0
 40
2.0
 50
0.0
 51
90.0
  0
ARC
  5
24E
  8
1
 62
     7
 10
165.3830483667
 20
-67.579951358045491
 30
0.0
 40
2.0
 50
90.0
 51
180.0
  0
ARC
  5
24F
  8
1
 62
     7
 10
208.38304836670031
 20
-0.0000000000052296
 30
0.0
 40
85.000000000000099
 50
191.3172603964066
 51
201.035102152825
  0
ARC
  5
250
  8
1
 62
     7
 10
208.38304836670031
 20
-0.0000000000052296
 30
0.0
 40
85.000000000000071
 50
206.9648978471748
 51
215.68273960359329
  0
ARC
  5
251
  8
1
 62
     7
 10
208.38304836670031
 20
-0.0000000000052296
 30
0.0
 40
89.000000000000185
 50
205.60964373549879
 51
217.0
  0
ARC
  5
252
  8
1
 62
     7
 10
208.38304836670031
 20
-0.0000000000052296
 30
0.0
 40
89.000000000000057
 50
189.99999999999989
 51
202.39035626450101
  0
ARC
  5
253
  8
1
 62
     7
 10
208.38304836670031
 20
-0.0000000000052296
 30
0.0
 40
88.999999999999943
 50
337.60964373549882
 51
349.99999999999977
  0
ARC
  5
254
  8
1
 62
     7
 10
208.38304836670031
 20
-0.0000000000052296
 30
0.0
 40
89.000000000000114
 50
322.99999999999977
 51
334.39035626450112
  0
ARC
  5
255
  8
1
 62
     7
 10
208.38304836670031
 20
-0.0000000000052296
 30
0.0
 40
85.000000000000071
 50
324.31726039640648
 51
333.03510215282512
  0
ARC
  5
256
  8
1
 62
     7
 10
208.38304836670031
 20
-0.0000000000052296
 30
0.0
 40
85.000000000000071
 50
338.96489784717483
 51
348.68273960359318
  0
ARC
  5
257
  8
1
 62
     7
 10
251.38304836670031
 20
-67.579951358045491
 30
0.0
 40
2.0
 50
0.0
 51
90.0
  0
ARC
  5
258
  8
1
 62
     7
 10
265.38304836670028
 20
-67.579951358045491
 30
0.0
 40
2.0
 50
90.0
 51
180.0
  0
ARC
  5
259
  8
1
 62
     7
 10
208.38304836670031
 20
-0.0000000000052296
 30
0.0
 40
94.999999999999957
 50
314.4270040008056
 51
225.57299599919429
  0
ARC
  5
25A
  8
1
 62
     7
 10
208.38304836670031
 20
-0.0000000000052296
 30
0.0
 40
84.999999999999389
 50
276.31726039640648
 51
287.68273960359329
  0
ARC
  5
25B
  8
1
 62
     7
 10
208.3830483667013
 20
-0.0000000000090949
 30
0.0
 40
88.999999999996064
 50
274.99999999999949
 51
289.0
  0
ARC
  5
25C
  8
1
 62
     7
 10
208.3830483667015
 20
0.0
 30
0.0
 40
85.000000000005315
 50
252.31726039640699
 51
263.68273960359301
  0
ARC
  5
25D
  8
1
 62
     7
 10
208.38304836669599
 20
-0.0000000000238742
 30
0.0
 40
88.999999999981029
 50
250.99999999999861
 51
265.00000000000148
  0
ARC
  5
25E
  8
1
 62
     7
 10
-244.70347336118081
 20
233.64911555592531
 30
0.0
 40
2.796540366387235
 50
137.89655112925391
 51
222.10344887074609
  0
ARC
  5
25F
  8
1
 62
     7
 10
-237.39638401674961
 20
239.27411555592531
 30
0.0
 40
10.10362971081844
 50
158.21321070173809
 51
201.78678929826191
  0
ARC
  5
260
  8
1
 62
     7
 10
-244.70347336118081
 20
244.89911555592531
 30
0.0
 40
2.796540366387235
 50
137.89655112925391
 51
222.10344887074609
  0
ARC
  5
261
  8
1
 62
     7
 10
-244.70347336118081
 20
346.78620054578278
 30
0.0
 40
2.796540366387235
 50
137.89655112925391
 51
222.10344887074609
  0
ARC
  5
262
  8
1
 62
     7
 10
-237.39638401674961
 20
352.41120054578278
 30
0.0
 40
10.10362971081844
 50
158.21321070173809
 51
201.78678929826191
  0
ARC
  5
263
  8
1
 62
     7
 10
-244.70347336118081
 20
358.03620054578278
 30
0.0
 40
2.796540366387235
 50
137.89655112925391
 51
222.10344887074609
  0
ARC
  5
264
  8
1
 62
     7
 10
-127.0000137275679
 20
203.011844689344
 30
0.0
 40
2.0
 50
0.0
 51
90.0
  0
ARC
  5
265
  8
1
 62
     7
 10
-201.00001372756799
 20
203.01184468934389
 30
0.0
 40
2.0
 50
90.0
 51
180.0
  0
ARC
  5
266
  8
1
 62
     7
 10
-202.50001372756799
 20
170.43481862750551
 30
0.0
 40
2.0
 50
180.0
 51
270.0
  0
ARC
  5
267
  8
1
 62
     7
 10
-125.500013727568
 20
170.43481862750559
 30
0.0
 40
2.0
 50
270.0
 51
0.0
  0
ARC
  5
268
  8
1
 62
     7
 10
-206.00001372756799
 20
195.97230354677191
 30
0.0
 40
2.0
 50
180.0
 51
270.0
  0
ARC
  5
269
  8
1
 62
     7
 10
-122.000013727568
 20
195.972303546772
 30
0.0
 40
2.0
 50
270.0
 51
0.0
  0
ARC
  5
26A
  8
1
 62
     7
 10
-206.00001372756799
 20
170.43481862750559
 30
0.0
 40
2.0
 50
180.0
 51
270.0
  0
ARC
  5
26B
  8
1
 62
     7
 10
-122.000013727568
 20
170.43481862750559
 30
0.0
 40
2.0
 50
270.0
 51
0.0
  0
ARC
  5
26C
  8
1
 62
     7
 10
-240.00001372756799
 20
340.34265805085278
 30
0.0
 40
3.0
 50
90.0
 51
180.0
  0
ARC
  5
26D
  8
1
 62
     7
 10
-240.00001372756799
 20
251.3426580508528
 30
0.0
 40
3.0
 50
180.0
 51
270.0
  0
ARC
  5
26E
  8
1
 62
     7
 10
-268.00001372756788
 20
206.84265805085269
 30
0.0
 40
6.0
 50
180.0
 51
270.0
  0
ARC
  5
26F
  8
1
 62
     7
 10
-268.00001372756788
 20
244.84265805085269
 30
0.0
 40
6.0
 50
90.0
 51
180.0
  0
ARC
  5
270
  8
1
 62
     7
 10
-268.00001372756788
 20
346.84265805085278
 30
0.0
 40
6.0
 50
180.0
 51
270.0
  0
ARC
  5
271
  8
1
 62
     7
 10
-268.00001372756788
 20
384.84265805085289
 30
0.0
 40
6.0
 50
90.0
 51
180.0
  0
ARC
  5
272
  8
1
 62
     7
 10
-272.00001372756788
 20
258.8426580508542
 30
0.0
 40
2.0
 50
180.0
 51
270.0
  0
ARC
  5
273
  8
1
 62
     7
 10
-272.00001372756788
 20
332.84265805085431
 30
0.0
 40
2.0
 50
90.0
 51
180.0
  0
ARC
  5
274
  8
1
 62
     7
 10
-88.000013727567975
 20
340.34265805085278
 30
0.0
 40
3.0
 50
0.0
 51
90.0
  0
ARC
  5
275
  8
1
 62
     7
 10
-88.000013727567975
 20
251.3426580508528
 30
0.0
 40
3.0
 50
270.0
 51
0.0
  0
ARC
  5
276
  8
1
 62
     7
 10
-60.000013727567982
 20
206.84265805085269
 30
0.0
 40
6.0
 50
270.0
 51
0.0
  0
ARC
  5
277
  8
1
 62
     7
 10
-60.000013727567982
 20
244.84265805085269
 30
0.0
 40
6.0
 50
0.0
 51
90.0
  0
ARC
  5
278
  8
1
 62
     7
 10
-60.000013727567982
 20
346.84265805085278
 30
0.0
 40
6.0
 50
270.0
 51
0.0
  0
ARC
  5
279
  8
1
 62
     7
 10
-60.000013727567982
 20
384.84265805085289
 30
0.0
 40
6.0
 50
0.0
 51
90.0
  0
ARC
  5
27A
  8
1
 62
     7
 10
-56.000013727567989
 20
258.8426580508542
 30
0.0
 40
2.0
 50
270.0
 51
0.0
  0
ARC
  5
27B
  8
1
 62
     7
 10
-56.000013727567989
 20
332.8426580508542
 30
0.0
 40
2.0
 50
0.0
 51
90.0
  0
ARC
  5
27C
  8
1
 62
     7
 10
-203.00001372756799
 20
28.793453290434289
 30
0.0
 40
5.0000000000000044
 50
90.0
 51
180.0
  0
ARC
  5
27D
  8
1
 62
     7
 10
-199.50001372756799
 20
24.293453290434289
 30
0.0
 40
5.0
 50
90.0
 51
180.0
  0
ARC
  5
27E
  8
1
 62
     7
 10
-125.000013727568
 20
28.793453290434289
 30
0.0
 40
5.0
 50
0.0
 51
90.0
  0
ARC
  5
27F
  8
1
 62
     7
 10
-128.5000137275679
 20
24.293453290434289
 30
0.0
 40
4.9999999999999858
 50
0.0
 51
90.0
  0
ARC
  5
280
  8
1
 62
     7
 10
-128.5000137275679
 20
-27.206546709565711
 30
0.0
 40
4.9999999999999947
 50
270.0
 51
0.0
  0
ARC
  5
281
  8
1
 62
     7
 10
-125.000013727568
 20
-32.206546709565707
 30
0.0
 40
5.0
 50
270.0
 51
0.0
  0
ARC
  5
282
  8
1
 62
     7
 10
-199.50001372756799
 20
-27.206546709565711
 30
0.0
 40
5.0
 50
180.0
 51
270.0
  0
ARC
  5
283
  8
1
 62
     7
 10
-203.00001372756799
 20
-32.206546709565707
 30
0.0
 40
5.0
 50
180.0
 51
270.0
  0
ARC
  5
284
  8
1
 62
     7
 10
92.552235005191406
 20
-31.706546709565711
 30
0.0
 40
1.0
 50
90.0
 51
180.0
  0
ARC
  5
285
  8
1
 62
     7
 10
90.552235005191406
 20
-36.206546709565707
 30
0.0
 40
1.0
 50
270.0
 51
0.0
  0
ARC
  5
286
  8
1
 62
     7
 10
82.849761264367487
 20
-31.606546709565571
 30
0.0
 40
0.5999999999998522
 50
180.0
 51
270.0
  0
ARC
  5
287
  8
1
 62
     7
 10
83.167101801741921
 20
-32.806546709565623
 30
0.0
 40
0.5999999999998553
 50
340.55180070494072
 51
90.0
  0
ARC
  5
288
  8
1
 62
     7
 10
83.663372300661806
 20
-36.206546709565707
 30
0.0
 40
1.00000000000003
 50
160.55180070494239
 51
270.0
  0
ARC
  5
289
  8
1
 62
     7
 10
87.472151431791417
 20
-36.206546709565707
 30
0.0
 40
1.0
 50
270.0
 51
340.55180070494532
  0
ARC
  5
28A
  8
1
 62
     7
 10
111.83615022807319
 20
32.793453290434279
 30
0.0
 40
1.0000000000000251
 50
340.55180070494811
 51
90.0
  0
ARC
  5
28B
  8
1
 62
     7
 10
108.0273710969436
 20
32.793453290434279
 30
0.0
 40
1.0
 50
90.0
 51
160.55180070494279
  0
ARC
  5
28C
  8
1
 62
     7
 10
83.249761264367635
 20
28.293453290434279
 30
0.0
 40
1.0
 50
90.0
 51
180.0
  0
ARC
  5
28D
  8
1
 62
     7
 10
105.0235983084401
 20
30.293453290434289
 30
0.0
 40
1.0
 50
270.0
 51
340.5518007049485
  0
ARC
  5
28E
  8
1
 62
     7
 10
-272.00001372756788
 20
-37.0
 30
0.0
 40
2.0
 50
180.0
 51
270.0
  0
ARC
  5
28F
  8
1
 62
     7
 10
-272.00001372756788
 20
37.0
 30
0.0
 40
2.0
 50
90.0
 51
180.0
  0
ARC
  5
290
  8
1
 62
     7
 10
-230.4781795114701
 20
-66.131914369244654
 30
0.0
 40
3.0
 50
180.0
 51
270.0
  0
ARC
  5
291
  8
1
 62
     7
 10
-239.00001372756799
 20
-65.639661787882687
 30
0.0
 40
1.9999999999998439
 50
299.63124988736701
 51
0.0
  0
ARC
  5
292
  8
1
 62
     7
 10
-227.50001372756799
 20
-47.917344000715502
 30
0.0
 40
3.0
 50
180.0
 51
270.0
  0
ARC
  5
293
  8
1
 62
     7
 10
-232.00001372756799
 20
-52.172427199444428
 30
0.0
 40
5.0
 50
180.0
 51
270.0
  0
ARC
  5
294
  8
1
 62
     7
 10
-232.00001372756799
 20
-35.639981092200969
 30
0.0
 40
5.0
 50
180.0
 51
270.0
  0
ARC
  5
295
  8
1
 62
     7
 10
-228.50001372756799
 20
-30.381337631317589
 30
0.0
 40
2.0
 50
180.0
 51
270.0
  0
ARC
  5
296
  8
1
 62
     7
 10
-232.00001372756799
 20
-31.342735636059391
 30
0.0
 40
5.0
 50
180.0
 51
270.0
  0
ARC
  5
297
  8
1
 62
     7
 10
-232.00001372756799
 20
-11.496576878358381
 30
0.0
 40
5.0
 50
180.0
 51
270.0
  0
ARC
  5
298
  8
1
 62
     7
 10
-181.00001372756799
 20
-85.0
 30
0.0
 40
2.0
 50
270.0
 51
0.0
  0
ARC
  5
299
  8
1
 62
     7
 10
-181.00001372756799
 20
-39.639981092200969
 30
0.0
 40
2.0
 50
0.0
 51
90.0
  0
ARC
  5
29A
  8
1
 62
     7
 10
-239.00001372756799
 20
-85.0
 30
0.0
 40
2.0
 50
270.0
 51
0.0
  0
ARC
  5
29B
  8
1
 62
     7
 10
-272.00001372756788
 20
-89.0
 30
0.0
 40
2.0
 50
90.0
 51
180.0
  0
ARC
  5
29C
  8
1
 62
     7
 10
-241.00001372756799
 20
80.661472583856948
 30
0.0
 40
2.0
 50
180.0
 51
270.0
  0
ARC
  5
29D
  8
1
 62
     7
 10
-240.00001372756799
 20
92.0
 30
0.0
 40
3.0
 50
90.0
 51
180.0
  0
ARC
  5
29E
  8
1
 62
     7
 10
-56.000013727567989
 20
-37.0
 30
0.0
 40
2.0
 50
270.0
 51
0.0
  0
ARC
  5
29F
  8
1
 62
     7
 10
-56.000013727567989
 20
37.0
 30
0.0
 40
2.0
 50
0.0
 51
90.0
  0
ARC
  5
2A0
  8
1
 62
     7
 10
-97.52184794366579
 20
-66.131914369244654
 30
0.0
 40
3.0
 50
270.0
 51
0.0
  0
ARC
  5
2A1
  8
1
 62
     7
 10
-89.000013727567975
 20
-65.639661787882687
 30
0.0
 40
2.0
 50
180.0
 51
240.36875011263299
  0
ARC
  5
2A2
  8
1
 62
     7
 10
-100.500013727568
 20
-47.917344000715502
 30
0.0
 40
3.0
 50
270.0
 51
0.0
  0
ARC
  5
2A3
  8
1
 62
     7
 10
-96.000013727568003
 20
-52.172427199444428
 30
0.0
 40
5.0
 50
270.0
 51
0.0
  0
ARC
  5
2A4
  8
1
 62
     7
 10
-96.000013727568003
 20
-35.639981092200969
 30
0.0
 40
5.0
 50
270.0
 51
0.0
  0
ARC
  5
2A5
  8
1
 62
     7
 10
-99.500013727568003
 20
-30.381337631317589
 30
0.0
 40
2.0000000000000031
 50
270.0
 51
0.0
  0
ARC
  5
2A6
  8
1
 62
     7
 10
-96.000013727568003
 20
-31.342735636059391
 30
0.0
 40
4.9999999999999947
 50
270.0
 51
0.0
  0
ARC
  5
2A7
  8
1
 62
     7
 10
-96.000013727568003
 20
-11.496576878358381
 30
0.0
 40
4.9999999999999982
 50
270.0
 51
0.0
  0
ARC
  5
2A8
  8
1
 62
     7
 10
-147.0000137275679
 20
-85.0
 30
0.0
 40
2.0
 50
180.0
 51
270.0
  0
ARC
  5
2A9
  8
1
 62
     7
 10
-147.0000137275679
 20
-39.639981092200969
 30
0.0
 40
2.0
 50
90.0
 51
180.0
  0
ARC
  5
2AA
  8
1
 62
     7
 10
-89.000013727567975
 20
-85.0
 30
0.0
 40
2.0
 50
180.0
 51
270.0
  0
ARC
  5
2AB
  8
1
 62
     7
 10
-56.000013727567989
 20
-89.0
 30
0.0
 40
2.0
 50
0.0
 51
90.0
  0
ARC
  5
2AC
  8
1
 62
     7
 10
-87.000013727567975
 20
80.661472583856948
 30
0.0
 40
2.0
 50
270.0
 51
0.0
  0
ARC
  5
2AD
  8
1
 62
     7
 10
-88.000013727567975
 20
92.0
 30
0.0
 40
3.0
 50
0.0
 51
90.0
  0
ARC
  5
2AE
  8
1
 62
     7
 10
198.38304836670099
 20
-16.170112359181861
 30
0.0
 40
3.0
 50
359.99999999999773
 51
59.728653515118992
  0
ARC
  5
2AF
  8
1
 62
     7
 10
218.38304836670099
 20
-16.17011235918233
 30
0.0
 40
2.9999999999999472
 50
120.2713464848793
 51
179.99999999999761
  0
ARC
  5
2B0
  8
1
 62
     7
 10
203.38304836670099
 20
-16.796938456698971
 30
0.0
 40
2.0
 50
180.0
 51
270.0
  0
ARC
  5
2B1
  8
1
 62
     7
 10
213.3830483667011
 20
-16.796938456699191
 30
0.0
 40
2.0
 50
270.0
 51
0.0
  0
ARC
  5
2B2
  8
1
 62
     7
 10
195.38304836670031
 20
81.975606127671654
 30
0.0
 40
3.0000000000000511
 50
279.01114046497742
 51
0.0
  0
ARC
  5
2B3
  8
1
 62
     7
 10
221.38304836670031
 20
83.999999999994785
 30
0.0
 40
3.0000000000000662
 50
81.202589290008405
 51
180.0
  0
ARC
  5
2B4
  8
1
 62
     7
 10
247.2578548620024
 20
73.33313998426685
 30
0.0
 40
3.0000000000001532
 50
242.0713829763524
 51
329.99999999999977
  0
ARC
  5
2B5
  8
1
 62
     7
 10
154.94719082659429
 20
47.071896509421776
 30
0.0
 40
2.0000000000001572
 50
44.999999999995971
 51
108.2563160495919
  0
ARC
  5
2B6
  8
1
 62
     7
 10
161.3111518572733
 20
53.435857540100869
 30
0.0
 40
1.9999999999999949
 50
161.74368395040369
 51
225.0
  0
ARC
  5
2B7
  8
1
 62
     7
 10
182.8293946223516
 20
33.331828337395777
 30
0.0
 40
3.0000000000001421
 50
225.0000000000006
 51
307.47536977763212
  0
ARC
  5
2B8
  8
1
 62
     7
 10
175.05122002929949
 20
25.553653744343588
 30
0.0
 40
3.0000000000001359
 50
322.52463022236662
 51
44.999999999999709
  0
ARC
  5
2B9
  8
1
 62
     7
 10
241.7148767041009
 20
25.553653744343588
 30
0.0
 40
3.0000000000001301
 50
134.99999999999881
 51
217.47536977763619
  0
ARC
  5
2BA
  8
1
 62
     7
 10
233.9367021110489
 20
33.331828337395777
 30
0.0
 40
3.000000000000218
 50
232.52463022236381
 51
314.99999999999778
  0
ARC
  5
2BB
  8
1
 62
     7
 10
255.454944876127
 20
53.435857540100869
 30
0.0
 40
2.0000000000000351
 50
315.00000000000063
 51
18.256316049596279
  0
ARC
  5
2BC
  8
1
 62
     7
 10
261.81890590680592
 20
47.071896509421776
 30
0.0
 40
2.000000000000028
 50
71.743683950400751
 51
135.0
  0
ARC
  5
2BD
  8
1
 62
     7
 10
175.05122002929949
 20
-25.55365374435382
 30
0.0
 40
3.0000000000000471
 50
315.0000000000033
 51
37.475369777636843
  0
ARC
  5
2BE
  8
1
 62
     7
 10
182.8293946223516
 20
-33.331828337405803
 30
0.0
 40
2.999999999999853
 50
52.524630222365928
 51
135.00000000000219
  0
ARC
  5
2BF
  8
1
 62
     7
 10
161.3111518572733
 20
-53.435857540110867
 30
0.0
 40
2.0000000000000111
 50
135.0000000000002
 51
198.25631604959631
  0
ARC
  5
2C0
  8
1
 62
     7
 10
154.94719082659429
 20
-47.071896509432008
 30
0.0
 40
1.9999999999999309
 50
251.74368395040929
 51
315.00000000000421
  0
ARC
  5
2C1
  8
1
 62
     7
 10
115.38304836670009
 20
-89.000000000005215
 30
0.0
 40
2.0
 50
90.0
 51
180.0
  0
ARC
  5
2C2
  8
1
 62
     7
 10
161.38304836670011
 20
-89.000000000005215
 30
0.0
 40
2.0
 50
0.0
 51
90.0
  0
ARC
  5
2C3
  8
1
 62
     7
 10
141.38304836670011
 20
-85.000000000005244
 30
0.0
 40
2.0
 50
270.0
 51
0.0
  0
ARC
  5
2C4
  8
1
 62
     7
 10
138.38304836670011
 20
-71.414284285433723
 30
0.0
 40
5.0
 50
0.0
 51
45.572995999193537
  0
ARC
  5
2C5
  8
1
 62
     7
 10
151.38304836670011
 20
-85.000000000005244
 30
0.0
 40
2.0
 50
270.0
 51
0.0
  0
ARC
  5
2C6
  8
1
 62
     7
 10
123.0747124605025
 20
-17.073014523380149
 30
0.0
 40
2.0000000000000879
 50
11.31726039640537
 51
99.999999999998224
  0
ARC
  5
2C7
  8
1
 62
     7
 10
127.18066765385871
 20
-31.227765955429501
 30
0.0
 40
2.0000000000000608
 50
294.0000000000021
 51
21.035102152823931
  0
ARC
  5
2C8
  8
1
 62
     7
 10
130.841297441541
 20
-39.449675074213019
 30
0.0
 40
1.9999999999999301
 50
26.96489784717474
 51
114.00000000000421
  0
ARC
  5
2C9
  8
1
 62
     7
 10
137.71649080954469
 20
-50.746799337709497
 30
0.0
 40
1.999999999999954
 50
306.99999999999329
 51
35.682739603593006
  0
ARC
  5
2CA
  8
1
 62
     7
 10
165.3830483667
 20
-97.00000000000523
 30
0.0
 40
2.0
 50
90.0
 51
180.0
  0
ARC
  5
2CB
  8
1
 62
     7
 10
251.38304836670031
 20
-97.00000000000523
 30
0.0
 40
2.0
 50
0.0
 51
90.0
  0
ARC
  5
2CC
  8
1
 62
     7
 10
279.04960592385578
 20
-50.746799337709497
 30
0.0
 40
1.999999999999875
 50
144.3172603964143
 51
233.00000000000401
  0
ARC
  5
2CD
  8
1
 62
     7
 10
285.92479929185947
 20
-39.449675074213019
 30
0.0
 40
2.0000000000000351
 50
65.999999999999403
 51
153.03510215282779
  0
ARC
  5
2CE
  8
1
 62
     7
 10
289.58542907954183
 20
-31.227765955429501
 30
0.0
 40
2.0
 50
158.96489784717761
 51
245.99999999999639
  0
ARC
  5
2CF
  8
1
 62
     7
 10
293.69138427289772
 20
-17.073014523380149
 30
0.0
 40
2.0000000000000231
 50
79.999999999994969
 51
168.6827396035938
  0
ARC
  5
2D0
  8
1
 62
     7
 10
265.38304836670028
 20
-85.000000000005244
 30
0.0
 40
2.0
 50
180.0
 51
270.0
  0
ARC
  5
2D1
  8
1
 62
     7
 10
278.38304836670028
 20
-71.414284285433723
 30
0.0
 40
5.000000000000016
 50
134.4270040008054
 51
180.0
  0
ARC
  5
2D2
  8
1
 62
     7
 10
275.38304836670028
 20
-85.000000000005244
 30
0.0
 40
2.0
 50
180.0
 51
270.0
  0
ARC
  5
2D3
  8
1
 62
     7
 10
255.38304836670031
 20
-89.000000000005215
 30
0.0
 40
2.0
 50
90.0
 51
180.0
  0
ARC
  5
2D4
  8
1
 62
     7
 10
301.38304836670028
 20
-89.000000000005215
 30
0.0
 40
2.0
 50
0.0
 51
90.0
  0
ARC
  5
2D5
  8
1
 62
     7
 10
261.81890590680592
 20
-47.071896509432008
 30
0.0
 40
2.0000000000000111
 50
224.99999999999989
 51
288.25631604959938
  0
ARC
  5
2D6
  8
1
 62
     7
 10
255.454944876127
 20
-53.435857540110867
 30
0.0
 40
2.0000000000000231
 50
341.74368395040381
 51
44.999999999999282
  0
ARC
  5
2D7
  8
1
 62
     7
 10
233.9367021110489
 20
-33.331828337405803
 30
0.0
 40
2.999999999999909
 50
44.999999999999332
 51
127.4753697776388
  0
ARC
  5
2D8
  8
1
 62
     7
 10
241.7148767041009
 20
-25.55365374435382
 30
0.0
 40
3.000000000000091
 50
142.5246302223606
 51
224.9999999999981
  0
ARC
  5
2D9
  8
1
 62
     7
 10
248.2584933185376
 20
75.066296630992838
 30
0.0
 40
3.0000000000000728
 50
330.00000000000063
 51
62.022624053066401
  0
ARC
  5
2DA
  8
1
 62
     7
 10
221.38304836670031
 20
81.975606127671654
 30
0.0
 40
3.0
 50
180.0
 51
260.98885953502042
  0
ARC
  5
2DB
  8
1
 62
     7
 10
195.38304836670031
 20
83.999999999994785
 30
0.0
 40
3.0
 50
0.0
 51
98.797410709991695
  0
ARC
  5
2DC
  8
1
 62
     7
 10
168.5076034148631
 20
75.066296630992838
 30
0.0
 40
3.0000000000001328
 50
117.9773759469379
 51
209.9999999999992
  0
ARC
  5
2DD
  8
1
 62
     7
 10
169.5082418713981
 20
73.33313998426685
 30
0.0
 40
2.999999999999901
 50
210.00000000000099
 51
297.92861702365212
  0
ARC
  5
2DE
  8
1
 62
     7
 10
164.1259700240017
 20
80.655508284105267
 30
0.0
 40
2.000000000000286
 50
209.99999999999531
 51
298.7543414484071
  0
ARC
  5
2DF
  8
1
 62
     7
 10
252.64012670939911
 20
80.655508284105267
 30
0.0
 40
1.999999999999982
 50
241.24565855159111
 51
330.00000000000011
  0
ARC
  5
2E0
  8
1
 62
     7
 10
234.8089553388098
 20
-82.889513454369975
 30
0.0
 40
2.0000000000000471
 50
18.999999999997922
 51
107.6827396035912
  0
ARC
  5
2E1
  8
1
 62
     7
 10
217.9559835368583
 20
-86.471723194514539
 30
0.0
 40
1.999999999999956
 50
96.317260396414298
 51
184.99999999999969
  0
ARC
  5
2E2
  8
1
 62
     7
 10
198.81011319654229
 20
-86.471723194515235
 30
0.0
 40
2.0000000000000191
 50
355.00000000000023
 51
83.682739603591699
  0
ARC
  5
2E3
  8
1
 62
     7
 10
181.95714139459039
 20
-82.889513454370444
 30
0.0
 40
1.999999999999988
 50
72.317260396402986
 51
161.00000000000131
  0
ARC
  5
2E4
  8
1
 62
     7
 10
-167.0000137275679
 20
-39.639981092200969
 30
0.0
 40
2.0
 50
90.0
 51
180.0
  0
ARC
  5
2E5
  8
1
 62
     7
 10
-161.00001372756799
 20
-39.639981092200969
 30
0.0
 40
2.0
 50
0.0
 51
90.0
  0
CIRCLE
  5
2E6
  8
1
 62
     7
 10
-259.00001372756799
 20
215.84265805085261
 30
0.0
 40
11.25
  0
CIRCLE
  5
2E7
  8
1
 62
     7
 10
-259.00001372756799
 20
375.84265805085278
 30
0.0
 40
11.25
  0
CIRCLE
  5
2E8
  8
1
 62
     7
 10
-69.000013727567989
 20
375.84265805085278
 30
0.0
 40
11.25
  0
CIRCLE
  5
2E9
  8
1
 62
     7
 10
-69.000013727567989
 20
215.84265805085261
 30
0.0
 40
11.25
  0
CIRCLE
  5
2EA
  8
1
 62
     7
 10
-259.00001372756799
 20
215.84265805085261
 30
0.0
 40
5.5
  0
CIRCLE
  5
2EB
  8
1
 62
     7
 10
-259.00001372756799
 20
375.84265805085278
 30
0.0
 40
5.5
  0
CIRCLE
  5
2EC
  8
1
 62
     7
 10
-69.000013727567989
 20
215.84265805085261
 30
0.0
 40
5.5
  0
CIRCLE
  5
2ED
  8
1
 62
     7
 10
-69.000013727567989
 20
375.84265805085278
 30
0.0
 40
5.5
  0
CIRCLE
  5
2EE
  8
1
 62
     7
 10
-164.0000137275679
 20
-32.206546709565707
 30
0.0
 40
3.5
  0
CIRCLE
  5
2EF
  8
1
 62
     3
 10
208.38304836669599
 20
-0.0000000000238742
 30
0.0
 40
4.0
  0
CIRCLE
  5
2F0
  8
1
 62
     7
 10
208.38304836669599
 20
-0.0000000000238742
 30
0.0
 40
3.1999999999999882
  0
CIRCLE
  5
2F1
  8
1
 62
     7
 10
203.38304836670099
 20
-16.746938456698899
 30
0.0
 40
1.0
  0
CIRCLE
  5
2F2
  8
1
 62
     7
 10
213.3830483667011
 20
-16.74693845669924
 30
0.0
 40
1.0
  0
CIRCLE
  5
2F3
  8
1
 62
     7
 10
208.38304836670031
 20
-0.0000000000052296
 30
0.0
 40
39.0
  0
CIRCLE
  5
2F4
  8
1
 62
     7
 10
208.38304836670031
 20
-0.0000000000052296
 30
0.0
 40
31.0
  0
CIRCLE
  5
2F5
  8
1
 62
     7
 10
151.8145058717765
 20
-56.56854249492892
 30
0.0
 40
8.0000000000000853
  0
CIRCLE
  5
2F6
  8
1
 62
     7
 10
264.95159086162403
 20
-56.568542494929019
 30
0.0
 40
8.0
  0
CIRCLE
  5
2F7
  8
1
 62
     7
 10
264.95159086162403
 20
56.568542494918461
 30
0.0
 40
8.0
  0
CIRCLE
  5
2F8
  8
1
 62
     7
 10
151.8145058717765
 20
56.568542494918567
 30
0.0
 40
8.0
  0
CIRCLE
  5
2F9
  8
1
 62
     7
 10
151.8145058717765
 20
-56.56854249492892
 30
0.0
 40
6.4999999999998863
  0
CIRCLE
  5
2FA
  8
1
 62
     7
 10
151.8145058717765
 20
-56.56854249492892
 30
0.0
 40
7.6999999999997897
  0
CIRCLE
  5
2FB
  8
1
 62
     7
 10
264.95159086162403
 20
-56.568542494929019
 30
0.0
 40
6.5
  0
CIRCLE
  5
2FC
  8
1
 62
     7
 10
264.95159086162403
 20
-56.568542494929019
 30
0.0
 40
7.6999999999999869
  0
CIRCLE
  5
2FD
  8
1
 62
     7
 10
264.95159086162403
 20
56.568542494918461
 30
0.0
 40
6.5
  0
CIRCLE
  5
2FE
  8
1
 62
     7
 10
264.95159086162403
 20
56.568542494918461
 30
0.0
 40
7.6999999999999869
  0
CIRCLE
  5
2FF
  8
1
 62
     7
 10
151.8145058717765
 20
56.568542494918567
 30
0.0
 40
6.4999999999999147
  0
CIRCLE
  5
300
  8
1
 62
     7
 10
151.8145058717765
 20
56.568542494918567
 30
0.0
 40
7.6999999999999016
  0
CIRCLE
  5
301
  8
1
 62
     7
 10
260.88304836670028
 20
-0.0000000000052296
 30
0.0
 40
6.0999999999999091
  0
CIRCLE
  5
302
  8
1
 62
     7
 10
260.88304836670028
 20
-0.0000000000052296
 30
0.0
 40
5.0
  0
CIRCLE
  5
303
  8
1
 62
     7
 10
208.3830483667067
 20
52.499999999998749
 30
0.0
 40
6.0999999999999943
  0
CIRCLE
  5
304
  8
1
 62
     7
 10
208.3830483667067
 20
52.499999999998749
 30
0.0
 40
5.0
  0
CIRCLE
  5
305
  8
1
 62
     7
 10
155.88304836670281
 20
0.0000000000050022
 30
0.0
 40
6.0999999999999943
  0
CIRCLE
  5
306
  8
1
 62
     7
 10
155.88304836670281
 20
0.0000000000050022
 30
0.0
 40
5.0
  0
CIRCLE
  5
307
  8
1
 62
     7
 10
208.38304836669641
 20
-52.499999999998863
 30
0.0
 40
6.0999999999999943
  0
CIRCLE
  5
308
  8
1
 62
     7
 10
208.38304836669641
 20
-52.499999999998863
 30
0.0
 40
5.0
  0
TEXT
  5
309
  8
1
 62
     7
 10
181.3830483667015
 20
307.3426580508542
 30
0.0
 40
10.0
  1
MP 500
 41
0.9
  7
SIMPLEX
  0
TEXT
  5
30B
  8
1
 62
     7
 10
186.1080483667003
 20
-70.709699397775125
 30
0.0
 40
6.0
  1
I N P U T
 41
0.8910000000000001
 72
     1
 11
208.38304836670031
 21
-70.709699397775125
 31
0.0
  0
ENDSEC
  0
EOF
