  0
SECTION
  2
HEADER
  9
$ACADVER
  1
AC1009
  9
$INSBASE
 10
0.0
 20
0.0
 30
0.0
  9
$EXTMIN
 10
-176.602120511208
 20
10.580089894015771
 30
0.0
  9
$EXTMAX
 10
201.4104264700548
 20
298.30489925432568
 30
0.0
  9
$LIMMIN
 10
-176.602120511208
 20
10.580089894015771
  9
$LIMMAX
 10
201.4104264700548
 20
297.26936534839291
  9
$ORTHOMODE
 70
     0
  9
$REGENMODE
 70
     1
  9
$FILLMODE
 70
     1
  9
$QTEXTMODE
 70
     0
  9
$MIRRTEXT
 70
     1
  9
$DRAGMODE
 70
     2
  9
$LTSCALE
 40
1.0
  9
$OSMODE
 70
    37
  9
$ATTMODE
 70
     1
  9
$TEXTSIZE
 40
3.5
  9
$TRACEWID
 40
0.5
  9
$TEXTSTYLE
  7
STANDARD
  9
$CLAYER
  8
0
  9
$CELTYPE
  6
BYLAYER
  9
$CECOLOR
 62
   256
  9
$DIMSCALE
 40
1.0
  9
$DIMASZ
 40
0.18
  9
$DIMEXO
 40
0.0625
  9
$DIMDLI
 40
0.38
  9
$DIMRND
 40
0.0
  9
$DIMDLE
 40
0.0
  9
$DIMEXE
 40
0.18
  9
$DIMTP
 40
0.0
  9
$DIMTM
 40
0.0
  9
$DIMTXT
 40
0.18
  9
$DIMCEN
 40
0.09
  9
$DIMTSZ
 40
0.0
  9
$DIMTOL
 70
     0
  9
$DIMLIM
 70
     0
  9
$DIMTIH
 70
     1
  9
$DIMTOH
 70
     1
  9
$DIMSE1
 70
     0
  9
$DIMSE2
 70
     0
  9
$DIMTAD
 70
     0
  9
$DIMZIN
 70
     0
  9
$DIMBLK
  1

  9
$DIMASO
 70
     1
  9
$DIMSHO
 70
     1
  9
$DIMPOST
  1

  9
$DIMAPOST
  1

  9
$DIMALT
 70
     0
  9
$DIMALTD
 70
     2
  9
$DIMALTF
 40
25.399999999999999
  9
$DIMLFAC
 40
1.0
  9
$DIMTOFL
 70
     0
  9
$DIMTVP
 40
0.0
  9
$DIMTIX
 70
     0
  9
$DIMSOXD
 70
     0
  9
$DIMSAH
 70
     0
  9
$DIMBLK1
  1

  9
$DIMBLK2
  1

  9
$DIMSTYLE
  2
STANDARD
  9
$DIMCLRD
 70
     0
  9
$DIMCLRE
 70
     0
  9
$DIMCLRT
 70
     0
  9
$DIMTFAC
 40
1.0
  9
$DIMGAP
 40
0.09
  9
$LUNITS
 70
     2
  9
$LUPREC
 70
     4
  9
$SKETCHINC
 40
0.1
  9
$FILLETRAD
 40
2.0
  9
$AUNITS
 70
     0
  9
$AUPREC
 70
     0
  9
$MENU
  1
ACAD
  9
$ELEVATION
 40
0.0
  9
$PELEVATION
 40
0.0
  9
$THICKNESS
 40
0.0
  9
$LIMCHECK
 70
     0
  9
$BLIPMODE
 70
     0
  9
$CHAMFERA
 40
0.0
  9
$CHAMFERB
 40
0.0
  9
$SKPOLY
 70
     0
  9
$TDCREATE
 40
2452094.9175061341
  9
$TDUPDATE
 40
2452094.9181024302
  9
$TDINDWG
 40
0.0006090278
  9
$TDUSRTIMER
 40
0.0006090278
  9
$USRTIMER
 70
     1
  9
$ANGBASE
 50
0.0
  9
$ANGDIR
 70
     0
  9
$PDMODE
 70
     0
  9
$PDSIZE
 40
0.0
  9
$PLINEWID
 40
0.0
  9
$COORDS
 70
     1
  9
$SPLFRAME
 70
     0
  9
$SPLINETYPE
 70
     6
  9
$SPLINESEGS
 70
     8
  9
$ATTDIA
 70
     0
  9
$ATTREQ
 70
     1
  9
$HANDLING
 70
 10241
  9
$HANDSEED
  5
24B
  9
$SURFTAB1
 70
     6
  9
$SURFTAB2
 70
     6
  9
$SURFTYPE
 70
     6
  9
$SURFU
 70
     6
  9
$SURFV
 70
     6
  9
$UCSNAME
  2

  9
$UCSORG
 10
0.0
 20
0.0
 30
0.0
  9
$UCSXDIR
 10
1.0
 20
0.0
 30
0.0
  9
$UCSYDIR
 10
0.0
 20
1.0
 30
0.0
  9
$PUCSNAME
  2

  9
$PUCSORG
 10
0.0
 20
0.0
 30
0.0
  9
$PUCSXDIR
 10
1.0
 20
0.0
 30
0.0
  9
$PUCSYDIR
 10
0.0
 20
1.0
 30
0.0
  9
$USERI1
 70
     0
  9
$USERI2
 70
     0
  9
$USERI3
 70
     0
  9
$USERI4
 70
     0
  9
$USERI5
 70
     0
  9
$USERR1
 40
0.0
  9
$USERR2
 40
0.0
  9
$USERR3
 40
0.0
  9
$USERR4
 40
0.0
  9
$USERR5
 40
0.0
  9
$WORLDVIEW
 70
     1
  9
$SHADEDGE
 70
     3
  9
$SHADEDIF
 70
    70
  9
$TILEMODE
 70
     1
  9
$MAXACTVP
 70
    64
  9
$PLIMCHECK
 70
     0
  9
$PEXTMIN
 10
1.0000000000000000E+020
 20
1.0000000000000000E+020
 30
1.0000000000000000E+020
  9
$PEXTMAX
 10
-1.0000000000000000E+020
 20
-1.0000000000000000E+020
 30
-1.0000000000000000E+020
  9
$PLIMMIN
 10
0.0
 20
0.0
  9
$PLIMMAX
 10
12.0
 20
9.0
  9
$UNITMODE
 70
     0
  9
$VISRETAIN
 70
     1
  9
$PLINEGEN
 70
     0
  9
$PSLTSCALE
 70
     1
  0
ENDSEC
  0
SECTION
  2
TABLES
  0
TABLE
  2
VPORT
 70
     2
  0
VPORT
  2
*ACTIVE
 70
     0
 10
0.0
 20
0.0
 11
1.0
 21
1.0
 12
-71.210547252295328
 22
144.06812118300621
 13
0.0
 23
0.0
 14
1.0
 24
1.0
 15
0.0
 25
0.0
 16
0.0
 26
0.0
 36
1.0
 17
0.0
 27
0.0
 37
0.0
 40
8.9999999711075258
 41
2.4144144144144142
 42
50.0
 43
0.0
 44
0.0
 50
0.0
 51
0.0
 71
     0
 72
   100
 73
     1
 74
     1
 75
     0
 76
     0
 77
     0
 78
     0
  0
ENDTAB
  0
TABLE
  2
LTYPE
 70
     9
  0
LTYPE
  2
CONTINUOUS
 70
     0
  3
Solid line
 72
    65
 73
     0
 40
0.0
  0
LTYPE
  2
BORDER
 70
     0
  3
__ __ . __ __ .
 72
    65
 73
     6
 40
17.408472558347619
 49
4.9738493023850383
 49
-2.4869246511925192
 49
4.9738493023850383
 49
-2.4869246511925192
 49
0.0
 49
-2.4869246511925192
  0
LTYPE
  2
CENTER
 70
     0
  3
____ _ ____ _
 72
    65
 73
     4
 40
19.895397209540139
 49
12.434623255962601
 49
-2.4869246511925192
 49
2.4869246511925192
 49
-2.4869246511925192
  0
LTYPE
  2
DASHDOT
 70
     0
  3
__ . __ . __ .
 72
    65
 73
     4
 40
9.9476986047700766
 49
4.9738493023850383
 49
-2.4869246511925192
 49
0.0
 49
-2.4869246511925192
  0
LTYPE
  2
DASHED
 70
     0
  3
__ __ __ __ __
 72
    65
 73
     2
 40
7.460773953577557
 49
4.9738493023850383
 49
-2.4869246511925192
  0
LTYPE
  2
DIVIDE
 70
     0
  3
__ . . __ . . 
 72
    65
 73
     6
 40
12.434623255962601
 49
4.9738493023850383
 49
-2.4869246511925192
 49
0.0
 49
-2.4869246511925192
 49
0.0
 49
-2.4869246511925192
  0
LTYPE
  2
DOT
 70
     0
  3
..............
 72
    65
 73
     4
 40
4.9738493023850383
 49
0.0
 49
-2.4869246511925192
 49
0.0
 49
-2.4869246511925192
  0
LTYPE
  2
HIDDEN
 70
     0
  3
_ _ _ _ _ _ _
 72
    65
 73
     2
 40
3.7303869767887781
 49
2.4869246511925192
 49
-1.24346232559626
  0
LTYPE
  2
PHANTOM
 70
     0
  3
_____ _ _ _____ _ _ 
 72
    65
 73
     6
 40
24.869246511925191
 49
12.434623255962601
 49
-2.4869246511925192
 49
2.4869246511925192
 49
-2.4869246511925192
 49
2.4869246511925192
 49
-2.4869246511925192
  0
ENDTAB
  0
TABLE
  2
LAYER
 70
     2
  0
LAYER
  2
0
 70
     0
 62
     7
  6
CONTINUOUS
  0
LAYER
  2
1
 70
     0
 62
     7
  6
CONTINUOUS
  0
ENDTAB
  0
TABLE
  2
STYLE
 70
     4
  0
STYLE
  2
STANDARD
 70
     0
 40
0.0
 41
1.0
 50
0.0
 71
     0
 42
3.5
  3
txt
  4

  0
STYLE
  2
SIMPLEX
 70
     0
 40
0.0
 41
1.0
 50
0.0
 71
     0
 42
3.5
  3
simplex
  4

  0
STYLE
  2
COMPLEX
 70
     0
 40
0.0
 41
1.0
 50
0.0
 71
     0
 42
3.5
  3
complex
  4

  0
STYLE
  2
ITALIC
 70
     0
 40
0.0
 41
1.0
 50
0.0
 71
     0
 42
3.5
  3
italic
  4

  0
ENDTAB
  0
TABLE
  2
VIEW
 70
     0
  0
ENDTAB
  0
TABLE
  2
UCS
 70
     0
  0
ENDTAB
  0
TABLE
  2
APPID
 70
     1
  0
APPID
  2
ACAD
 70
     0
  0
ENDTAB
  0
TABLE
  2
DIMSTYLE
 70
     1
  0
DIMSTYLE
  2
STANDARD
 70
     0
  3

  4

  5

  6

  7

 40
1.0
 41
0.18
 42
0.0625
 43
0.38
 44
0.18
 45
0.0
 46
0.0
 47
0.0
 48
0.0
140
0.18
141
0.09
142
0.0
143
25.399999999999999
144
1.0
145
0.0
146
1.0
147
0.09
 71
     0
 72
     0
 73
     1
 74
     1
 75
     0
 76
     0
 77
     0
 78
     0
170
     0
171
     2
172
     0
173
     0
174
     0
175
     0
176
     0
177
     0
178
     0
  0
ENDTAB
  0
ENDSEC
  0
SECTION
  2
BLOCKS
  0
BLOCK
  8
0
  2
$MODEL_SPACE
 70
     0
 10
0.0
 20
0.0
 30
0.0
  3
$MODEL_SPACE
  1

  0
ENDBLK
  5
20
  8
0
  0
BLOCK
 67
     1
  8
0
  2
$PAPER_SPACE
 70
     0
 10
0.0
 20
0.0
 30
0.0
  3
$PAPER_SPACE
  1

  0
ENDBLK
  5
1C
 67
     1
  8
0
  0
ENDSEC
  0
SECTION
  2
ENTITIES
  0
LINE
  5
33
  8
1
 62
     3
 10
-123.5249442944049
 20
178.09448233340891
 30
0.0
 11
-120.89193937454419
 21
179.532287985084
 31
0.0
  0
LINE
  5
34
  8
1
 62
     7
 10
-120.4605976790417
 20
178.74238650912591
 30
0.0
 11
-121.3232810700467
 21
180.32218946104209
 31
0.0
  0
LINE
  5
35
  8
1
 62
     3
 10
-123.7406151421561
 20
178.48943307138811
 30
0.0
 11
-121.10761022229551
 21
179.927238723063
 31
0.0
  0
LINE
  5
36
  8
1
 62
     3
 10
-120.676268526793
 20
179.13733724710491
 30
0.0
 11
-123.30927344665361
 21
177.6995315954297
 31
0.0
  0
LINE
  5
37
  8
1
 62
     3
 10
-114.8058339296899
 20
175.65894781980981
 30
0.0
 11
-116.3058339296898
 21
173.06087160845661
 31
0.0
  0
LINE
  5
38
  8
1
 62
     7
 10
-115.58525679309589
 20
176.10894781980991
 30
0.0
 11
-114.0264110662839
 21
175.20894781980959
 31
0.0
  0
LINE
  5
39
  8
1
 62
     3
 10
-115.9161224979869
 20
172.83587160845639
 30
0.0
 11
-114.4161224979869
 21
175.43394781980959
 31
0.0
  0
LINE
  5
3A
  8
1
 62
     3
 10
-115.1955453613929
 20
175.88394781980961
 30
0.0
 11
-116.6955453613929
 21
173.28587160845649
 31
0.0
  0
LINE
  5
3B
  8
1
 62
     3
 10
-28.898407092726298
 20
173.06087160845661
 30
0.0
 11
-30.398407092726298
 21
175.65894781980981
 31
0.0
  0
LINE
  5
3C
  8
1
 62
     3
 10
-24.012301647872
 20
179.532287985084
 30
0.0
 11
-21.379296728011301
 21
178.09448233340891
 31
0.0
  0
LINE
  5
3D
  8
1
 62
     3
 10
85.245401870751067
 20
68.369118152391451
 30
0.0
 11
83.807596219075862
 21
65.736113232530641
 31
0.0
  0
LINE
  5
3E
  8
1
 62
     3
 10
85.640352608730197
 20
68.15344730464021
 30
0.0
 11
84.20254695705502
 21
65.520442384779386
 31
0.0
  0
LINE
  5
3F
  8
1
 62
     3
 10
83.412645481096817
 20
65.951784080281953
 30
0.0
 11
84.850451132771937
 21
68.584789000142706
 31
0.0
  0
LINE
  5
40
  8
1
 62
     7
 10
86.035303346709327
 20
67.937776456888926
 30
0.0
 11
84.455500394792821
 21
68.800459847894004
 31
0.0
  0
LINE
  5
41
  8
1
 62
     3
 10
80.812350258701585
 20
70.660852007548854
 30
0.0
 11
83.410426470054915
 21
72.160852007548854
 31
0.0
  0
LINE
  5
42
  8
1
 62
     3
 10
83.185426470054892
 20
72.550563439251874
 30
0.0
 11
80.587350258701633
 21
71.050563439251803
 31
0.0
  0
LINE
  5
43
  8
1
 62
     3
 10
81.037350258701636
 20
70.271140575845862
 30
0.0
 11
83.635426470054924
 21
71.771140575845862
 31
0.0
  0
LINE
  5
44
  8
1
 62
     7
 10
82.960426470054941
 20
72.94027487095488
 30
0.0
 11
83.860426470054904
 21
71.381429144142899
 31
0.0
  0
LINE
  5
45
  8
1
 62
     3
 10
83.410426470054915
 20
80.199327780482577
 30
0.0
 11
80.812350258701585
 21
81.699327780482577
 31
0.0
  0
LINE
  5
46
  8
1
 62
     3
 10
83.807596219075862
 20
86.624066555500775
 30
0.0
 11
85.245401870751067
 21
83.991061635639966
 31
0.0
  0
LINE
  5
47
  8
1
 62
     7
 10
192.4657269848945
 20
45.178559649721137
 30
0.0
 11
184.3551259552151
 21
45.627767460011349
 31
0.0
  0
LINE
  5
48
  8
1
 62
     7
 10
184.3551259552151
 20
42.732412328020096
 30
0.0
 11
192.4657269848945
 21
43.181620138310279
 31
0.0
  0
LINE
  5
49
  8
1
 62
     7
 10
192.4657269848945
 20
53.178559649721137
 30
0.0
 11
184.3551259552151
 21
53.627767460011349
 31
0.0
  0
LINE
  5
4A
  8
1
 62
     7
 10
184.3551259552151
 20
50.732412328020096
 30
0.0
 11
192.4657269848945
 21
51.181620138310279
 31
0.0
  0
LINE
  5
4B
  8
1
 62
     7
 10
192.4657269848945
 20
61.178559649721137
 30
0.0
 11
184.3551259552151
 21
61.627767460011349
 31
0.0
  0
LINE
  5
4C
  8
1
 62
     7
 10
184.3551259552151
 20
58.732412328020082
 30
0.0
 11
192.4657269848945
 21
59.181620138310286
 31
0.0
  0
LINE
  5
4D
  8
1
 62
     7
 10
192.4657269848945
 20
69.178559649721151
 30
0.0
 11
184.3551259552151
 21
69.627767460011356
 31
0.0
  0
LINE
  5
4E
  8
1
 62
     7
 10
184.3551259552151
 20
66.732412328020089
 30
0.0
 11
192.4657269848945
 21
67.181620138310294
 31
0.0
  0
LINE
  5
4F
  8
1
 62
     7
 10
184.3551259552151
 20
106.73241232802
 30
0.0
 11
192.4657269848945
 21
107.18162013831019
 31
0.0
  0
LINE
  5
50
  8
1
 62
     7
 10
192.4657269848945
 20
109.178559649721
 30
0.0
 11
184.3551259552151
 21
109.6277674600112
 31
0.0
  0
LINE
  5
51
  8
1
 62
     7
 10
184.3551259552151
 20
98.732412328020075
 30
0.0
 11
192.4657269848945
 21
99.181620138310294
 31
0.0
  0
LINE
  5
52
  8
1
 62
     7
 10
192.4657269848945
 20
101.178559649721
 30
0.0
 11
184.3551259552151
 21
101.6277674600112
 31
0.0
  0
LINE
  5
53
  8
1
 62
     7
 10
184.3551259552151
 20
90.732412328020075
 30
0.0
 11
192.4657269848945
 21
91.181620138310279
 31
0.0
  0
LINE
  5
54
  8
1
 62
     7
 10
192.4657269848945
 20
93.178559649721166
 30
0.0
 11
184.3551259552151
 21
93.627767460011356
 31
0.0
  0
LINE
  5
55
  8
1
 62
     7
 10
184.3551259552151
 20
82.732412328020075
 30
0.0
 11
192.4657269848945
 21
83.181620138310265
 31
0.0
  0
LINE
  5
56
  8
1
 62
     7
 10
192.4657269848945
 20
85.178559649721123
 30
0.0
 11
184.3551259552151
 21
85.627767460011341
 31
0.0
  0
LINE
  5
57
  8
1
 62
     7
 10
184.3551259552151
 20
74.732412328020075
 30
0.0
 11
192.4657269848945
 21
75.181620138310279
 31
0.0
  0
LINE
  5
58
  8
1
 62
     7
 10
192.4657269848945
 20
77.178559649721123
 30
0.0
 11
184.3551259552151
 21
77.627767460011341
 31
0.0
  0
LINE
  5
59
  8
1
 62
     7
 10
183.41042647005489
 20
111.18008989401559
 30
0.0
 11
183.41042647005489
 21
41.180089894015701
 31
0.0
  0
LINE
  5
5A
  8
1
 62
     7
 10
98.465726984894644
 20
45.627767460011349
 30
0.0
 11
90.355125955215087
 21
45.178559649721137
 31
0.0
  0
LINE
  5
5B
  8
1
 62
     7
 10
90.355125955215087
 20
43.181620138310279
 30
0.0
 11
98.465726984894644
 21
42.732412328020096
 31
0.0
  0
LINE
  5
5C
  8
1
 62
     7
 10
98.465726984894644
 20
53.627767460011349
 30
0.0
 11
90.355125955215087
 21
53.178559649721137
 31
0.0
  0
LINE
  5
5D
  8
1
 62
     7
 10
90.355125955215087
 20
51.181620138310279
 30
0.0
 11
98.465726984894644
 21
50.732412328020096
 31
0.0
  0
LINE
  5
5E
  8
1
 62
     7
 10
98.465726984894644
 20
61.627767460011349
 30
0.0
 11
90.355125955215087
 21
61.178559649721137
 31
0.0
  0
LINE
  5
5F
  8
1
 62
     7
 10
90.355125955215087
 20
59.181620138310286
 30
0.0
 11
98.465726984894644
 21
58.732412328020082
 31
0.0
  0
LINE
  5
60
  8
1
 62
     7
 10
98.465726984894644
 20
69.627767460011356
 30
0.0
 11
90.355125955215087
 21
69.178559649721151
 31
0.0
  0
LINE
  5
61
  8
1
 62
     7
 10
90.355125955215087
 20
67.181620138310294
 30
0.0
 11
98.465726984894644
 21
66.732412328020089
 31
0.0
  0
LINE
  5
62
  8
1
 62
     7
 10
90.355125955215087
 20
107.18162013831019
 30
0.0
 11
98.465726984894644
 21
106.73241232802
 31
0.0
  0
LINE
  5
63
  8
1
 62
     7
 10
98.465726984894644
 20
109.6277674600112
 30
0.0
 11
90.355125955215087
 21
109.178559649721
 31
0.0
  0
LINE
  5
64
  8
1
 62
     7
 10
90.355125955215087
 20
99.181620138310294
 30
0.0
 11
98.465726984894644
 21
98.732412328020075
 31
0.0
  0
LINE
  5
65
  8
1
 62
     7
 10
98.465726984894644
 20
101.6277674600112
 30
0.0
 11
90.355125955215087
 21
101.178559649721
 31
0.0
  0
LINE
  5
66
  8
1
 62
     7
 10
90.355125955215087
 20
91.181620138310279
 30
0.0
 11
98.465726984894644
 21
90.732412328020075
 31
0.0
  0
LINE
  5
67
  8
1
 62
     7
 10
98.465726984894644
 20
93.627767460011356
 30
0.0
 11
90.355125955215087
 21
93.178559649721166
 31
0.0
  0
LINE
  5
68
  8
1
 62
     7
 10
90.355125955215087
 20
83.181620138310265
 30
0.0
 11
98.465726984894644
 21
82.732412328020075
 31
0.0
  0
LINE
  5
69
  8
1
 62
     7
 10
98.465726984894644
 20
85.627767460011341
 30
0.0
 11
90.355125955215087
 21
85.178559649721123
 31
0.0
  0
LINE
  5
6A
  8
1
 62
     7
 10
163.91042647005489
 20
21.680089894015708
 30
0.0
 11
163.91042647005489
 21
21.180089894015708
 31
0.0
  0
LINE
  5
6B
  8
1
 62
     7
 10
178.9104264700548
 20
21.180089894015708
 30
0.0
 11
178.9104264700548
 21
32.828443349770673
 31
0.0
  0
LINE
  5
6C
  8
1
 62
     7
 10
120.9104264700549
 20
23.680089894015708
 30
0.0
 11
161.9104264700548
 21
23.680089894015708
 31
0.0
  0
LINE
  5
6D
  8
1
 62
     7
 10
118.9104264700549
 20
21.180089894015708
 30
0.0
 11
118.9104264700549
 21
21.680089894015708
 31
0.0
  0
LINE
  5
6E
  8
1
 62
     7
 10
103.9104264700549
 20
32.828443349770673
 30
0.0
 11
103.9104264700549
 21
21.180089894015708
 31
0.0
  0
LINE
  5
6F
  8
1
 62
     7
 10
176.4104264700548
 20
34.180089894015701
 30
0.0
 11
106.4104264700549
 21
34.180089894015701
 31
0.0
  0
LINE
  5
70
  8
1
 62
     7
 10
106.4104264700549
 20
118.18008989401559
 30
0.0
 11
176.4104264700548
 21
118.18008989401559
 31
0.0
  0
LINE
  5
71
  8
1
 62
     7
 10
99.410426470054887
 20
41.180089894015701
 30
0.0
 11
99.410426470054887
 21
111.18008989401559
 31
0.0
  0
LINE
  5
72
  8
1
 62
     7
 10
-28.602120511208089
 20
118.18008989401559
 30
0.0
 11
-28.602120511208089
 21
34.180089894015701
 31
0.0
  0
LINE
  5
73
  8
1
 62
     7
 10
-96.102120511208113
 20
77.680089894015708
 30
0.0
 11
-49.102120511208113
 21
77.680089894015708
 31
0.0
  0
LINE
  5
74
  8
1
 62
     7
 10
-49.102120511208113
 20
74.680089894015708
 30
0.0
 11
-96.102120511208113
 21
74.680089894015708
 31
0.0
  0
LINE
  5
75
  8
1
 62
     7
 10
-96.102120511208113
 20
85.680089894015708
 30
0.0
 11
-49.102120511208113
 21
85.680089894015708
 31
0.0
  0
LINE
  5
76
  8
1
 62
     7
 10
-49.102120511208113
 20
82.680089894015694
 30
0.0
 11
-96.102120511208113
 21
82.680089894015694
 31
0.0
  0
LINE
  5
77
  8
1
 62
     7
 10
-96.102120511208113
 20
93.680089894015708
 30
0.0
 11
-49.102120511208113
 21
93.680089894015708
 31
0.0
  0
LINE
  5
78
  8
1
 62
     7
 10
-49.102120511208113
 20
90.680089894015708
 30
0.0
 11
-96.102120511208113
 21
90.680089894015708
 31
0.0
  0
LINE
  5
79
  8
1
 62
     7
 10
-96.102120511208113
 20
101.68008989401559
 30
0.0
 11
-49.102120511208113
 21
101.68008989401559
 31
0.0
  0
LINE
  5
7A
  8
1
 62
     7
 10
-49.102120511208113
 20
98.680089894015708
 30
0.0
 11
-96.102120511208113
 21
98.680089894015708
 31
0.0
  0
LINE
  5
7B
  8
1
 62
     7
 10
-96.102120511208113
 20
109.68008989401559
 30
0.0
 11
-49.102120511208113
 21
109.68008989401559
 31
0.0
  0
LINE
  5
7C
  8
1
 62
     7
 10
-49.102120511208113
 20
106.68008989401559
 30
0.0
 11
-96.102120511208113
 21
106.68008989401559
 31
0.0
  0
LINE
  5
7D
  8
1
 62
     7
 10
-49.102120511208113
 20
66.680089894015723
 30
0.0
 11
-96.102120511208113
 21
66.680089894015723
 31
0.0
  0
LINE
  5
7E
  8
1
 62
     7
 10
-96.102120511208113
 20
69.680089894015723
 30
0.0
 11
-49.102120511208113
 21
69.680089894015723
 31
0.0
  0
LINE
  5
7F
  8
1
 62
     7
 10
-49.102120511208113
 20
58.680089894015723
 30
0.0
 11
-96.102120511208113
 21
58.680089894015723
 31
0.0
  0
LINE
  5
80
  8
1
 62
     7
 10
-96.102120511208113
 20
61.680089894015723
 30
0.0
 11
-49.102120511208113
 21
61.680089894015723
 31
0.0
  0
LINE
  5
81
  8
1
 62
     7
 10
-49.102120511208113
 20
50.680089894015723
 30
0.0
 11
-96.102120511208113
 21
50.680089894015723
 31
0.0
  0
LINE
  5
82
  8
1
 62
     7
 10
-96.102120511208113
 20
53.680089894015723
 30
0.0
 11
-49.102120511208113
 21
53.680089894015723
 31
0.0
  0
LINE
  5
83
  8
1
 62
     7
 10
-49.102120511208113
 20
42.680089894015708
 30
0.0
 11
-96.102120511208113
 21
42.680089894015708
 31
0.0
  0
LINE
  5
84
  8
1
 62
     7
 10
-96.102120511208113
 20
45.680089894015723
 30
0.0
 11
-49.102120511208113
 21
45.680089894015723
 31
0.0
  0
LINE
  5
85
  8
1
 62
     7
 10
-48.602120511208113
 20
102.68008989401559
 30
0.0
 11
-48.602120511208113
 21
105.68008989401559
 31
0.0
  0
LINE
  5
86
  8
1
 62
     7
 10
-48.602120511208071
 20
94.680089894015708
 30
0.0
 11
-48.602120511208071
 21
97.680089894015723
 31
0.0
  0
LINE
  5
87
  8
1
 62
     7
 10
-28.602120511208089
 20
79.180089894015694
 30
0.0
 11
-33.799344873476002
 21
79.180089894015694
 31
0.0
  0
LINE
  5
88
  8
1
  6
CENTER
 62
     3
 10
81.410426470054801
 20
13.18008989401571
 30
0.0
 11
81.410426470054801
 21
21.180089894015708
 31
0.0
  0
LINE
  5
89
  8
1
  6
CENTER
 62
     3
 10
81.410426470054801
 20
21.180089894015708
 30
0.0
 11
103.9104264700549
 21
21.180089894015708
 31
0.0
  0
LINE
  5
8A
  8
1
  6
CENTER
 62
     3
 10
201.4104264700548
 20
21.180089894015708
 30
0.0
 11
201.4104264700548
 21
13.18008989401571
 31
0.0
  0
LINE
  5
8B
  8
1
  6
CENTER
 62
     3
 10
201.4104264700548
 20
13.18008989401571
 30
0.0
 11
181.4104264700548
 21
13.18008989401571
 31
0.0
  0
LINE
  5
8C
  8
1
  6
CENTER
 62
     3
 10
102.1104264700548
 20
13.880089894015709
 30
0.0
 11
180.71042647005481
 21
13.880089894015709
 31
0.0
  0
LINE
  5
8D
  8
1
  6
CENTER
 62
     3
 10
101.4104264700548
 20
13.18008989401571
 30
0.0
 11
81.410426470054801
 21
13.18008989401571
 31
0.0
  0
LINE
  5
8E
  8
1
 62
     7
 10
-116.6021205112081
 20
195.26936534839311
 30
0.0
 11
-116.6021205112081
 21
279.26936534839302
 31
0.0
  0
LINE
  5
8F
  8
1
 62
     7
 10
-28.602120511208089
 20
279.26936534839302
 30
0.0
 11
-28.602120511208089
 21
195.26936534839311
 31
0.0
  0
LINE
  5
90
  8
1
 62
     7
 10
-96.602120511208085
 20
185.26936534839311
 30
0.0
 11
-48.602120511208092
 21
185.26936534839311
 31
0.0
  0
LINE
  5
91
  8
1
 62
     7
 10
-48.602120511208092
 20
289.2693653483928
 30
0.0
 11
-96.602120511208085
 21
289.2693653483928
 31
0.0
  0
LINE
  5
92
  8
1
 62
     7
 10
-97.602120511208085
 20
288.2693653483928
 30
0.0
 11
-97.602120511208085
 21
280.26936534839291
 31
0.0
  0
LINE
  5
93
  8
1
  6
CENTER
 62
     3
 10
-99.352120511208099
 20
279.26936534839291
 30
0.0
 11
-99.352120511208099
 21
292.26936534839291
 31
0.0
  0
LINE
  5
94
  8
1
  6
CENTER
 62
     3
 10
-104.3521205112081
 20
297.2693653483928
 30
0.0
 11
-110.852120511208
 21
297.26936534839291
 31
0.0
  0
LINE
  5
95
  8
1
  6
CENTER
 62
     3
 10
-115.8521205112081
 20
292.26936534839291
 30
0.0
 11
-115.8521205112081
 21
279.26936534839291
 31
0.0
  0
LINE
  5
96
  8
1
  6
DASHDOT
 62
     3
 10
-113.976100804178
 20
287.26936534839291
 30
0.0
 11
-101.228140218238
 21
287.26936534839291
 31
0.0
  0
LINE
  5
97
  8
1
  6
DASHDOT
 62
     3
 10
-107.602120511208
 20
280.89538505542282
 30
0.0
 11
-107.602120511208
 21
293.64334564136288
 31
0.0
  0
LINE
  5
98
  8
1
 62
     7
 10
-31.302120511208098
 20
79.180089894015694
 30
0.0
 11
-31.302120511208098
 21
73.180089894015708
 31
0.0
  0
LINE
  5
99
  8
1
 62
     7
 10
-23.602120511208099
 20
117.18008989401559
 30
0.0
 11
-23.602120511208099
 21
35.180089894015708
 31
0.0
  0
LINE
  5
9A
  8
1
 62
     7
 10
-22.90039550434404
 20
98.460800829370712
 30
0.0
 11
-16.303845518072151
 21
96.399378958660719
 31
0.0
  0
LINE
  5
9B
  8
1
 62
     7
 10
-15.602120511208099
 20
95.444898980625695
 30
0.0
 11
-15.602120511208099
 21
56.915280807405722
 31
0.0
  0
LINE
  5
9C
  8
1
 62
     7
 10
-16.303845518072151
 20
55.960800829370697
 30
0.0
 11
-22.90039550434404
 21
53.899378958660719
 31
0.0
  0
LINE
  5
9D
  8
1
 62
     7
 10
-15.602120511208099
 20
83.680089894015708
 30
0.0
 11
23.89787948879189
 21
83.680089894015708
 31
0.0
  0
LINE
  5
9E
  8
1
 62
     7
 10
23.89787948879189
 20
68.680089894015708
 30
0.0
 11
-15.602120511208099
 21
68.680089894015708
 31
0.0
  0
LINE
  5
9F
  8
1
 62
     7
 10
24.397879488791901
 20
83.180089894015708
 30
0.0
 11
23.89787948879189
 21
83.680089894015708
 31
0.0
  0
LINE
  5
A0
  8
1
 62
     7
 10
23.89787948879189
 20
68.680089894015708
 30
0.0
 11
24.397879488791901
 21
69.180089894015694
 31
0.0
  0
LINE
  5
A1
  8
1
 62
     7
 10
23.89787948879189
 20
68.680089894015708
 30
0.0
 11
23.89787948879189
 21
83.680089894015708
 31
0.0
  0
LINE
  5
A2
  8
1
 62
     7
 10
-10.60212051120809
 20
83.680089894015708
 30
0.0
 11
-10.60212051120809
 21
85.680089894015708
 31
0.0
  0
LINE
  5
A3
  8
1
 62
     7
 10
-10.60212051120809
 20
85.680089894015708
 30
0.0
 11
24.397879488791901
 21
85.680089894015708
 31
0.0
  0
LINE
  5
A4
  8
1
 62
     7
 10
24.397879488791901
 20
85.680089894015708
 30
0.0
 11
24.397879488791901
 21
69.180089894015694
 31
0.0
  0
LINE
  5
A5
  8
1
 62
     7
 10
-116.6021205112081
 20
34.180089894015701
 30
0.0
 11
-116.6021205112081
 21
118.18008989401559
 31
0.0
  0
LINE
  5
A6
  8
1
 62
     7
 10
-115.6021205112081
 20
33.180089894015701
 30
0.0
 11
-115.6021205112081
 21
21.180089894015708
 31
0.0
  0
LINE
  5
A7
  8
1
 62
     7
 10
-96.602120511208128
 20
105.68008989401559
 30
0.0
 11
-96.602120511208128
 21
102.68008989401559
 31
0.0
  0
LINE
  5
A8
  8
1
 62
     7
 10
-96.602120511208128
 20
97.680089894015723
 30
0.0
 11
-96.602120511208128
 21
94.680089894015708
 31
0.0
  0
LINE
  5
A9
  8
1
 62
     7
 10
-116.6021205112081
 20
73.180089894015708
 30
0.0
 11
-111.4048961489402
 21
73.180089894015708
 31
0.0
  0
LINE
  5
AA
  8
1
  6
CENTER
 62
     3
 10
-115.8521205112081
 20
13.18008989401571
 30
0.0
 11
-99.352120511208099
 21
13.18008989401571
 31
0.0
  0
LINE
  5
AB
  8
1
  6
CENTER
 62
     3
 10
-115.8521205112081
 20
13.18008989401571
 30
0.0
 11
-115.8521205112081
 21
21.180089894015708
 31
0.0
  0
LINE
  5
AC
  8
1
  6
CENTER
 62
     3
 10
-99.352120511208142
 20
21.180089894015708
 30
0.0
 11
-99.352120511208099
 21
13.18008989401571
 31
0.0
  0
LINE
  5
AD
  8
1
 62
     7
 10
-113.902120511208
 20
73.180089894015708
 30
0.0
 11
-113.902120511208
 21
79.180089894015694
 31
0.0
  0
LINE
  5
AE
  8
1
 62
     7
 10
-121.6021205112081
 20
35.180089894015708
 30
0.0
 11
-121.6021205112081
 21
117.18008989401559
 31
0.0
  0
LINE
  5
AF
  8
1
 62
     7
 10
-128.900395504344
 20
96.399378958660719
 30
0.0
 11
-122.30384551807219
 21
98.460800829370712
 31
0.0
  0
LINE
  5
B0
  8
1
 62
     7
 10
-129.602120511208
 20
56.915280807405722
 30
0.0
 11
-129.602120511208
 21
95.444898980625695
 31
0.0
  0
LINE
  5
B1
  8
1
 62
     7
 10
-122.30384551807219
 20
53.899378958660719
 30
0.0
 11
-128.900395504344
 21
55.960800829370697
 31
0.0
  0
LINE
  5
B2
  8
1
 62
     7
 10
-169.10212051120811
 20
83.680089894015708
 30
0.0
 11
-129.602120511208
 21
83.680089894015708
 31
0.0
  0
LINE
  5
B3
  8
1
 62
     7
 10
-129.602120511208
 20
68.680089894015708
 30
0.0
 11
-169.10212051120811
 21
68.680089894015708
 31
0.0
  0
LINE
  5
B4
  8
1
 62
     7
 10
-169.10212051120811
 20
83.680089894015708
 30
0.0
 11
-169.602120511208
 21
83.180089894015708
 31
0.0
  0
LINE
  5
B5
  8
1
 62
     7
 10
-169.602120511208
 20
69.180089894015694
 30
0.0
 11
-169.10212051120811
 21
68.680089894015708
 31
0.0
  0
LINE
  5
B6
  8
1
 62
     7
 10
-169.10212051120811
 20
83.680089894015708
 30
0.0
 11
-169.10212051120811
 21
68.680089894015708
 31
0.0
  0
LINE
  5
B7
  8
1
 62
     7
 10
-134.602120511208
 20
85.680089894015708
 30
0.0
 11
-134.602120511208
 21
83.680089894015708
 31
0.0
  0
LINE
  5
B8
  8
1
 62
     7
 10
-169.602120511208
 20
85.680089894015708
 30
0.0
 11
-134.602120511208
 21
85.680089894015708
 31
0.0
  0
LINE
  5
B9
  8
1
 62
     7
 10
-169.602120511208
 20
69.180089894015694
 30
0.0
 11
-169.602120511208
 21
85.680089894015708
 31
0.0
  0
LINE
  5
BA
  8
1
 62
     7
 10
-120.6021205112081
 20
34.180089894015708
 30
0.0
 11
-24.602120511208089
 21
34.180089894015708
 31
0.0
  0
LINE
  5
BB
  8
1
 62
     7
 10
-120.6021205112081
 20
118.18008989401559
 30
0.0
 11
-24.602120511208089
 21
118.18008989401559
 31
0.0
  0
LINE
  5
BC
  8
1
 62
     7
 10
-23.602120511208099
 20
278.26936534839308
 30
0.0
 11
-23.602120511208099
 21
196.26936534839299
 31
0.0
  0
LINE
  5
BD
  8
1
 62
     7
 10
-22.90039550434404
 20
259.55007628374801
 30
0.0
 11
-16.303845518072151
 21
257.48865441303792
 31
0.0
  0
LINE
  5
BE
  8
1
 62
     7
 10
-15.602120511208099
 20
256.53417443500302
 30
0.0
 11
-15.602120511208099
 21
218.00455626178291
 31
0.0
  0
LINE
  5
BF
  8
1
 62
     7
 10
-16.303845518072151
 20
217.05007628374801
 30
0.0
 11
-22.90039550434404
 21
214.98865441303789
 31
0.0
  0
LINE
  5
C0
  8
1
 62
     7
 10
-15.602120511208099
 20
244.76936534839299
 30
0.0
 11
23.89787948879189
 21
244.76936534839299
 31
0.0
  0
LINE
  5
C1
  8
1
 62
     7
 10
23.89787948879189
 20
229.76936534839291
 30
0.0
 11
-15.602120511208099
 21
229.76936534839291
 31
0.0
  0
LINE
  5
C2
  8
1
 62
     7
 10
24.397879488791901
 20
244.26936534839291
 30
0.0
 11
23.89787948879189
 21
244.76936534839299
 31
0.0
  0
LINE
  5
C3
  8
1
 62
     7
 10
23.89787948879189
 20
229.76936534839291
 30
0.0
 11
24.397879488791901
 21
230.26936534839299
 31
0.0
  0
LINE
  5
C4
  8
1
 62
     7
 10
23.89787948879189
 20
229.76936534839291
 30
0.0
 11
23.89787948879189
 21
234.76936534839299
 31
0.0
  0
LINE
  5
C5
  8
1
 62
     7
 10
24.397879488791901
 20
244.26936534839291
 30
0.0
 11
24.397879488791901
 21
230.26936534839299
 31
0.0
  0
LINE
  5
C6
  8
1
 62
     7
 10
-8.1021205112080903
 20
239.76936534839291
 30
0.0
 11
24.397879488791911
 21
239.76936534839291
 31
0.0
  0
LINE
  5
C7
  8
1
 62
     7
 10
24.397879488791911
 20
234.76936534839299
 30
0.0
 11
-8.1021205112080903
 21
234.76936534839299
 31
0.0
  0
LINE
  5
C8
  8
1
 62
     7
 10
23.89787948879189
 20
239.76936534839291
 30
0.0
 11
23.89787948879189
 21
244.76936534839299
 31
0.0
  0
LINE
  5
C9
  8
1
  6
DASHDOT
 62
     3
 10
24.397879488791911
 20
237.26936534839299
 30
0.0
 11
31.397879488791901
 21
237.26936534839299
 31
0.0
  0
LINE
  5
CA
  8
1
 62
     7
 10
-121.6021205112081
 20
196.26936534839299
 30
0.0
 11
-121.6021205112081
 21
278.26936534839308
 31
0.0
  0
LINE
  5
CB
  8
1
 62
     7
 10
-128.900395504344
 20
257.48865441303792
 30
0.0
 11
-122.30384551807219
 21
259.55007628374801
 31
0.0
  0
LINE
  5
CC
  8
1
 62
     7
 10
-129.602120511208
 20
218.00455626178291
 30
0.0
 11
-129.602120511208
 21
256.53417443500302
 31
0.0
  0
LINE
  5
CD
  8
1
 62
     7
 10
-122.30384551807219
 20
214.98865441303789
 30
0.0
 11
-128.900395504344
 21
217.05007628374801
 31
0.0
  0
LINE
  5
CE
  8
1
 62
     7
 10
-169.10212051120811
 20
244.76936534839299
 30
0.0
 11
-129.602120511208
 21
244.76936534839299
 31
0.0
  0
LINE
  5
CF
  8
1
 62
     7
 10
-129.602120511208
 20
229.76936534839291
 30
0.0
 11
-169.10212051120811
 21
229.76936534839291
 31
0.0
  0
LINE
  5
D0
  8
1
 62
     7
 10
-169.10212051120811
 20
244.76936534839299
 30
0.0
 11
-169.602120511208
 21
244.26936534839291
 31
0.0
  0
LINE
  5
D1
  8
1
 62
     7
 10
-169.602120511208
 20
230.26936534839299
 30
0.0
 11
-169.10212051120811
 21
229.76936534839291
 31
0.0
  0
LINE
  5
D2
  8
1
 62
     7
 10
-169.10212051120811
 20
234.76936534839299
 30
0.0
 11
-169.10212051120811
 21
229.76936534839291
 31
0.0
  0
LINE
  5
D3
  8
1
 62
     7
 10
-169.602120511208
 20
230.26936534839299
 30
0.0
 11
-169.602120511208
 21
244.26936534839291
 31
0.0
  0
LINE
  5
D4
  8
1
 62
     7
 10
-169.602120511208
 20
239.76936534839291
 30
0.0
 11
-137.102120511208
 21
239.76936534839291
 31
0.0
  0
LINE
  5
D5
  8
1
 62
     7
 10
-137.102120511208
 20
234.76936534839299
 30
0.0
 11
-169.602120511208
 21
234.76936534839299
 31
0.0
  0
LINE
  5
D6
  8
1
 62
     7
 10
-169.10212051120811
 20
244.76936534839299
 30
0.0
 11
-169.10212051120811
 21
239.76936534839291
 31
0.0
  0
LINE
  5
D7
  8
1
  6
DASHDOT
 62
     3
 10
-176.602120511208
 20
237.26936534839299
 30
0.0
 11
-169.602120511208
 21
237.26936534839299
 31
0.0
  0
LINE
  5
D8
  8
1
 62
     7
 10
-120.6021205112081
 20
279.26936534839302
 30
0.0
 11
-24.602120511208089
 21
279.26936534839302
 31
0.0
  0
LINE
  5
D9
  8
1
 62
     7
 10
-120.6021205112081
 20
195.26936534839299
 30
0.0
 11
-24.602120511208089
 21
195.26936534839299
 31
0.0
  0
LINE
  5
DA
  8
1
 62
     7
 10
173.60523162344941
 20
110.49989504741021
 30
0.0
 11
172.85523162344941
 21
110.49989504741021
 31
0.0
  0
LINE
  5
DB
  8
1
 62
     7
 10
170.73023162344941
 20
108.37489504741021
 30
0.0
 11
170.73023162344941
 21
107.62489504741021
 31
0.0
  0
LINE
  5
DC
  8
1
 62
     7
 10
172.85523162344941
 20
105.49989504741021
 30
0.0
 11
173.60523162344941
 21
105.49989504741021
 31
0.0
  0
LINE
  5
DD
  8
1
 62
     7
 10
175.73023162344941
 20
107.62489504741021
 30
0.0
 11
175.73023162344941
 21
108.37489504741021
 31
0.0
  0
LINE
  5
DE
  8
1
 62
     7
 10
107.0906213166601
 20
108.37489504741021
 30
0.0
 11
107.0906213166601
 21
107.62489504741021
 31
0.0
  0
LINE
  5
DF
  8
1
 62
     7
 10
109.2156213166601
 20
105.49989504741021
 30
0.0
 11
109.9656213166601
 21
105.49989504741021
 31
0.0
  0
LINE
  5
E0
  8
1
 62
     7
 10
112.0906213166601
 20
107.62489504741021
 30
0.0
 11
112.0906213166601
 21
108.37489504741021
 31
0.0
  0
LINE
  5
E1
  8
1
 62
     7
 10
109.9656213166601
 20
110.49989504741021
 30
0.0
 11
109.2156213166601
 21
110.49989504741021
 31
0.0
  0
LINE
  5
E2
  8
1
 62
     7
 10
109.2156213166601
 20
41.860284740621132
 30
0.0
 11
109.9656213166601
 21
41.860284740621132
 31
0.0
  0
LINE
  5
E3
  8
1
 62
     7
 10
112.0906213166601
 20
43.985284740621118
 30
0.0
 11
112.0906213166601
 21
44.735284740621132
 31
0.0
  0
LINE
  5
E4
  8
1
 62
     7
 10
109.9656213166601
 20
46.860284740621118
 30
0.0
 11
109.2156213166601
 21
46.860284740621118
 31
0.0
  0
LINE
  5
E5
  8
1
 62
     7
 10
107.0906213166601
 20
44.735284740621132
 30
0.0
 11
107.0906213166601
 21
43.985284740621118
 31
0.0
  0
LINE
  5
E6
  8
1
 62
     7
 10
175.73023162344941
 20
43.985284740621083
 30
0.0
 11
175.73023162344941
 21
44.735284740621083
 31
0.0
  0
LINE
  5
E7
  8
1
 62
     7
 10
173.60523162344941
 20
46.860284740621083
 30
0.0
 11
172.85523162344941
 21
46.860284740621083
 31
0.0
  0
LINE
  5
E8
  8
1
 62
     7
 10
170.73023162344941
 20
44.735284740621083
 30
0.0
 11
170.73023162344941
 21
43.985284740621083
 31
0.0
  0
LINE
  5
E9
  8
1
 62
     7
 10
172.85523162344941
 20
41.860284740621083
 30
0.0
 11
173.60523162344941
 21
41.860284740621083
 31
0.0
  0
LINE
  5
EA
  8
1
 62
     7
 10
138.9104264700548
 20
80.680089894015708
 30
0.0
 11
138.9104264700548
 21
85.680089894015708
 31
0.0
  0
LINE
  5
EB
  8
1
 62
     7
 10
138.9104264700548
 20
85.680089894015708
 30
0.0
 11
143.9104264700548
 21
85.680089894015708
 31
0.0
  0
LINE
  5
EC
  8
1
 62
     7
 10
143.9104264700548
 20
85.680089894015708
 30
0.0
 11
143.9104264700548
 21
80.680089894015708
 31
0.0
  0
LINE
  5
ED
  8
1
 62
     7
 10
143.9104264700548
 20
80.680089894015708
 30
0.0
 11
138.9104264700548
 21
80.680089894015708
 31
0.0
  0
LINE
  5
EE
  8
1
 62
     7
 10
145.81042647005481
 20
67.957958632239993
 30
0.0
 11
145.81042647005481
 21
67.212828012977923
 31
0.0
  0
LINE
  5
EF
  8
1
 62
     7
 10
142.11042647005479
 20
65.212828012977923
 30
0.0
 11
143.81042647005481
 21
65.212828012977923
 31
0.0
  0
LINE
  5
F0
  8
1
 62
     7
 10
142.11042647005479
 20
65.212828012977923
 30
0.0
 11
142.11042647005479
 21
68.712828012977923
 31
0.0
  0
LINE
  5
F1
  8
1
 62
     7
 10
140.7104264700547
 20
68.712828012977923
 30
0.0
 11
140.7104264700547
 21
65.212828012977923
 31
0.0
  0
LINE
  5
F2
  8
1
 62
     7
 10
139.01042647005471
 20
65.212828012977923
 30
0.0
 11
140.7104264700547
 21
65.212828012977923
 31
0.0
  0
LINE
  5
F3
  8
1
 62
     7
 10
137.01042647005471
 20
67.212828012977923
 30
0.0
 11
137.01042647005471
 21
67.957958632239993
 31
0.0
  0
LINE
  5
F4
  8
1
  6
DASHDOT
 62
     3
 10
145.09579319916011
 20
76.180089894015708
 30
0.0
 11
137.7250597409494
 21
76.180089894015708
 31
0.0
  0
LINE
  5
F5
  8
1
  6
DASHDOT
 62
     3
 10
141.4104264700548
 20
79.86545662312102
 30
0.0
 11
141.4104264700548
 21
72.494723164910397
 31
0.0
  0
LINE
  5
F6
  8
1
  6
DASHDOT
 62
     3
 10
24.397879488791901
 20
76.180089894015708
 30
0.0
 11
31.397879488791901
 21
76.180089894015708
 31
0.0
  0
LINE
  5
F7
  8
1
  6
DASHDOT
 62
     3
 10
-176.602120511208
 20
76.180089894015708
 30
0.0
 11
-169.602120511208
 21
76.180089894015708
 31
0.0
  0
LINE
  5
F8
  8
1
 62
     7
 10
-33.799344873476002
 20
73.180089894015708
 30
0.0
 11
-28.602120511208089
 21
73.180089894015708
 31
0.0
  0
LINE
  5
F9
  8
1
 62
     7
 10
-111.4048961489402
 20
79.180089894015694
 30
0.0
 11
-116.6021205112081
 21
79.180089894015694
 31
0.0
  0
LINE
  5
FA
  8
1
 62
     7
 10
-110.8021205112082
 20
77.380089894015697
 30
0.0
 11
-108.402120511208
 21
77.380089894015697
 31
0.0
  0
LINE
  5
FB
  8
1
 62
     7
 10
-108.402120511208
 20
74.98008989401572
 30
0.0
 11
-110.8021205112082
 21
74.98008989401572
 31
0.0
  0
LINE
  5
FC
  8
1
 62
     7
 10
-36.802120511208138
 20
77.380089894015697
 30
0.0
 11
-34.402120511208111
 21
77.380089894015697
 31
0.0
  0
LINE
  5
FD
  8
1
 62
     7
 10
-34.402120511208111
 20
74.98008989401572
 30
0.0
 11
-36.802120511208138
 21
74.98008989401572
 31
0.0
  0
LINE
  5
FE
  8
1
 62
     7
 10
95.212295394535317
 20
74.912604508018347
 30
0.0
 11
98.410426470054915
 21
74.735475161845585
 31
0.0
  0
LINE
  5
FF
  8
1
 62
     3
 10
80.587350258701633
 20
81.309616348779599
 30
0.0
 11
83.185426470054892
 21
79.809616348779542
 31
0.0
  0
LINE
  5
100
  8
1
 62
     3
 10
83.635426470054924
 20
80.58903921218554
 30
0.0
 11
81.037350258701636
 21
82.089039212185554
 31
0.0
  0
LINE
  5
101
  8
1
 62
     3
 10
84.20254695705502
 20
86.83973740325203
 30
0.0
 11
85.640352608730197
 21
84.206732483391221
 31
0.0
  0
LINE
  5
102
  8
1
 62
     3
 10
84.850451132771937
 20
83.775390787888696
 30
0.0
 11
83.412645481096817
 21
86.408395707749463
 31
0.0
  0
LINE
  5
103
  8
1
 62
     7
 10
84.455500394792821
 20
83.559719940137398
 30
0.0
 11
86.035303346709327
 21
84.422403331142533
 31
0.0
  0
LINE
  5
104
  8
1
 62
     7
 10
83.860426470054904
 20
80.978750643888574
 30
0.0
 11
82.960426470054941
 21
79.419904917076593
 31
0.0
  0
LINE
  5
105
  8
1
 62
     7
 10
99.410426470054915
 20
72.680089894015708
 30
0.0
 11
98.410426470054915
 21
72.680089894015708
 31
0.0
  0
LINE
  5
106
  8
1
 62
     7
 10
98.410426470054915
 20
72.680089894015708
 30
0.0
 11
98.410426470054915
 21
79.680089894015708
 31
0.0
  0
LINE
  5
107
  8
1
 62
     7
 10
98.410426470054915
 20
79.680089894015708
 30
0.0
 11
99.410426470054915
 21
79.680089894015708
 31
0.0
  0
LINE
  5
108
  8
1
 62
     7
 10
98.410426470054915
 20
77.624704626185803
 30
0.0
 11
95.212295394535545
 21
77.447575280013069
 31
0.0
  0
LINE
  5
109
  8
1
 62
     7
 10
-97.602120511208085
 20
194.26936534839311
 30
0.0
 11
-97.602120511208085
 21
186.26936534839311
 31
0.0
  0
LINE
  5
10A
  8
1
  6
CENTER
 62
     3
 10
-99.352120511208099
 20
182.26936534839299
 30
0.0
 11
-99.352120511208099
 21
195.26936534839311
 31
0.0
  0
LINE
  5
10B
  8
1
  6
CENTER
 62
     3
 10
-110.852120511208
 20
177.26936534839291
 30
0.0
 11
-104.3521205112081
 21
177.26936534839291
 31
0.0
  0
LINE
  5
10C
  8
1
  6
DASHDOT
 62
     3
 10
-101.228140218238
 20
187.26936534839299
 30
0.0
 11
-113.976100804178
 21
187.26936534839299
 31
0.0
  0
LINE
  5
10D
  8
1
  6
DASHDOT
 62
     3
 10
-107.602120511208
 20
180.89538505542299
 30
0.0
 11
-107.602120511208
 21
193.64334564136291
 31
0.0
  0
LINE
  5
10E
  8
1
  6
CENTER
 62
     3
 10
-115.8521205112081
 20
195.26936534839311
 30
0.0
 11
-115.8521205112081
 21
183.98892275091691
 31
0.0
  0
LINE
  5
10F
  8
1
 62
     7
 10
-120.4605976790417
 20
178.74238650912591
 30
0.0
 11
-117.8817505573297
 21
180.31443927313109
 31
0.0
  0
LINE
  5
110
  8
1
 62
     7
 10
-121.3232810700467
 20
180.32218946104209
 30
0.0
 11
-118.7444339483347
 21
181.89424222504741
 31
0.0
  0
LINE
  5
111
  8
1
 62
     7
 10
-114.0264110662839
 20
175.20894781980959
 30
0.0
 11
-111.94193553426879
 21
178.81936534839289
 31
0.0
  0
LINE
  5
112
  8
1
 62
     7
 10
-115.58525679309589
 20
176.10894781980991
 30
0.0
 11
-113.5007812610809
 21
179.7193653483931
 31
0.0
  0
LINE
  5
113
  8
1
 62
     7
 10
-106.1021205112081
 20
195.26936534839299
 30
0.0
 11
-106.1021205112081
 21
194.26936534839299
 31
0.0
  0
LINE
  5
114
  8
1
 62
     7
 10
-113.102120511208
 20
194.26936534839299
 30
0.0
 11
-113.102120511208
 21
195.26936534839299
 31
0.0
  0
LINE
  5
115
  8
1
 62
     7
 10
-113.102120511208
 20
194.26936534839299
 30
0.0
 11
-106.1021205112081
 21
194.26936534839299
 31
0.0
  0
LINE
  5
116
  8
1
 62
     7
 10
-47.602120511208099
 20
280.26936534839291
 30
0.0
 11
-47.602120511208113
 21
288.2693653483928
 31
0.0
  0
LINE
  5
117
  8
1
  6
CENTER
 62
     3
 10
-45.852120511208092
 20
292.26936534839291
 30
0.0
 11
-45.852120511208099
 21
279.26936534839291
 31
0.0
  0
LINE
  5
118
  8
1
  6
CENTER
 62
     3
 10
-34.352120511208071
 20
297.2693653483928
 30
0.0
 11
-40.852120511208099
 21
297.26936534839291
 31
0.0
  0
LINE
  5
119
  8
1
  6
CENTER
 62
     3
 10
-29.352120511208099
 20
279.26936534839291
 30
0.0
 11
-29.352120511208071
 21
292.26936534839291
 31
0.0
  0
LINE
  5
11A
  8
1
  6
DASHDOT
 62
     3
 10
-43.976100804178117
 20
287.26936534839291
 30
0.0
 11
-31.228140218238071
 21
287.26936534839291
 31
0.0
  0
LINE
  5
11B
  8
1
  6
DASHDOT
 62
     3
 10
-37.602120511208078
 20
293.64334564136288
 30
0.0
 11
-37.602120511208078
 21
280.89538505542282
 31
0.0
  0
LINE
  5
11C
  8
1
 62
     7
 10
-47.602120511208113
 20
186.26936534839311
 30
0.0
 11
-47.602120511208099
 21
194.26936534839311
 31
0.0
  0
LINE
  5
11D
  8
1
  6
CENTER
 62
     3
 10
-45.852120511208099
 20
195.26936534839311
 30
0.0
 11
-45.852120511208099
 21
182.26936534839299
 31
0.0
  0
LINE
  5
11E
  8
1
  6
CENTER
 62
     3
 10
-40.852120511208099
 20
177.26936534839291
 30
0.0
 11
-34.352120511208099
 21
177.26936534839291
 31
0.0
  0
LINE
  5
11F
  8
1
  6
DASHDOT
 62
     3
 10
-31.228140218238099
 20
187.26936534839299
 30
0.0
 11
-43.976100804178117
 21
187.26936534839299
 31
0.0
  0
LINE
  5
120
  8
1
  6
DASHDOT
 62
     3
 10
-37.602120511208092
 20
193.64334564136291
 30
0.0
 11
-37.602120511208092
 21
180.89538505542299
 31
0.0
  0
LINE
  5
121
  8
1
  6
CENTER
 62
     3
 10
-29.352120511208099
 20
183.98892275091691
 30
0.0
 11
-29.352120511208099
 21
195.26936534839311
 31
0.0
  0
LINE
  5
122
  8
1
 62
     7
 10
-27.32249046508641
 20
180.31443927313109
 30
0.0
 11
-24.443643343374511
 21
178.74238650912591
 31
0.0
  0
LINE
  5
123
  8
1
 62
     7
 10
-26.45980707408135
 20
181.89424222504741
 30
0.0
 11
-23.580959952369501
 21
180.32218946104209
 31
0.0
  0
LINE
  5
124
  8
1
 62
     7
 10
-33.262305488147298
 20
178.81936534839289
 30
0.0
 11
-31.1778299561323
 21
175.20894781980959
 31
0.0
  0
LINE
  5
125
  8
1
 62
     7
 10
-31.703459761335299
 20
179.7193653483931
 30
0.0
 11
-29.618984229320301
 21
176.10894781980991
 31
0.0
  0
LINE
  5
126
  8
1
 62
     7
 10
-39.102120511208099
 20
194.26936534839299
 30
0.0
 11
-39.102120511208099
 21
195.26936534839299
 31
0.0
  0
LINE
  5
127
  8
1
 62
     7
 10
-32.102120511208099
 20
195.26936534839299
 30
0.0
 11
-32.102120511208099
 21
194.26936534839299
 31
0.0
  0
LINE
  5
128
  8
1
 62
     7
 10
-39.102120511208099
 20
194.26936534839299
 30
0.0
 11
-32.102120511208099
 21
194.26936534839299
 31
0.0
  0
LINE
  5
129
  8
1
 62
     7
 10
-31.1778299561323
 20
175.20894781980959
 30
0.0
 11
-29.618984229320301
 21
176.10894781980991
 31
0.0
  0
LINE
  5
12A
  8
1
 62
     7
 10
-23.580959952369501
 20
180.32218946104209
 30
0.0
 11
-24.443643343374511
 21
178.74238650912591
 31
0.0
  0
LINE
  5
12B
  8
1
 62
     3
 10
-30.788118524429301
 20
175.43394781980959
 30
0.0
 11
-29.288118524429301
 21
172.83587160845639
 31
0.0
  0
LINE
  5
12C
  8
1
 62
     3
 10
-28.5086956610233
 20
173.28587160845649
 30
0.0
 11
-30.0086956610233
 21
175.88394781980961
 31
0.0
  0
LINE
  5
12D
  8
1
 62
     3
 10
-23.796630800120688
 20
179.927238723063
 30
0.0
 11
-21.163625880259989
 21
178.48943307138811
 31
0.0
  0
LINE
  5
12E
  8
1
 62
     3
 10
-21.594967575762499
 20
177.6995315954297
 30
0.0
 11
-24.22797249562322
 21
179.13733724710491
 31
0.0
  0
LINE
  5
12F
  8
1
 62
     7
 10
-29.602120511208071
 20
21.180089894015708
 30
0.0
 11
-115.6021205112081
 21
21.180089894015708
 31
0.0
  0
LINE
  5
130
  8
1
  6
CENTER
 62
     3
 10
-115.6021205112081
 20
21.180089894015708
 30
0.0
 11
-115.8521205112081
 21
21.180089894015708
 31
0.0
  0
LINE
  5
131
  8
1
 62
     7
 10
103.9104264700549
 20
21.180089894015708
 30
0.0
 11
118.9104264700549
 21
21.180089894015708
 31
0.0
  0
LINE
  5
132
  8
1
  6
CENTER
 62
     3
 10
178.9104264700548
 20
21.180089894015708
 30
0.0
 11
201.4104264700548
 21
21.180089894015708
 31
0.0
  0
LINE
  5
133
  8
1
  6
CENTER
 62
     3
 10
118.9104264700549
 20
21.180089894015708
 30
0.0
 11
163.91042647005489
 21
21.180089894015708
 31
0.0
  0
LINE
  5
134
  8
1
 62
     7
 10
163.91042647005489
 20
21.180089894015708
 30
0.0
 11
178.9104264700548
 21
21.180089894015708
 31
0.0
  0
LINE
  5
135
  8
1
  6
DASHED
 62
     3
 10
-111.6021205112081
 20
34.180089894015708
 30
0.0
 11
-111.6021205112081
 21
21.180089894015669
 31
0.0
  0
LINE
  5
136
  8
1
  6
DASHED
 62
     3
 10
-103.602120511208
 20
34.180089894015708
 30
0.0
 11
-103.602120511208
 21
21.180089894015669
 31
0.0
  0
LINE
  5
137
  8
1
  6
DASHED
 62
     7
 10
-110.8021205112081
 20
34.180089894015708
 30
0.0
 11
-110.8021205112081
 21
21.180089894015669
 31
0.0
  0
LINE
  5
138
  8
1
  6
DASHED
 62
     7
 10
-104.402120511208
 20
34.180089894015708
 30
0.0
 11
-104.402120511208
 21
21.180089894015669
 31
0.0
  0
LINE
  5
139
  8
1
  6
DASHDOT
 62
     3
 10
-107.602120511208
 20
36.780089894015717
 30
0.0
 11
-107.602120511208
 21
10.580089894015771
 31
0.0
  0
LINE
  5
13A
  8
1
 62
     7
 10
-29.602120511208071
 20
21.180089894015708
 30
0.0
 11
-29.602120511208071
 21
33.180089894015701
 31
0.0
  0
LINE
  5
13B
  8
1
  6
CENTER
 62
     3
 10
-45.852120511208057
 20
13.18008989401571
 30
0.0
 11
-29.352120511208071
 21
13.18008989401571
 31
0.0
  0
LINE
  5
13C
  8
1
  6
CENTER
 62
     3
 10
-29.352120511208071
 20
21.180089894015708
 30
0.0
 11
-29.352120511208071
 21
13.18008989401571
 31
0.0
  0
LINE
  5
13D
  8
1
  6
CENTER
 62
     3
 10
-45.852120511208057
 20
13.18008989401571
 30
0.0
 11
-45.852120511208057
 21
21.180089894015708
 31
0.0
  0
LINE
  5
13E
  8
1
  6
CENTER
 62
     3
 10
-29.352120511208071
 20
21.180089894015708
 30
0.0
 11
-29.602120511208071
 21
21.180089894015708
 31
0.0
  0
LINE
  5
13F
  8
1
  6
DASHED
 62
     3
 10
-33.602120511208057
 20
21.180089894015669
 30
0.0
 11
-33.602120511208057
 21
34.180089894015708
 31
0.0
  0
LINE
  5
140
  8
1
  6
DASHED
 62
     3
 10
-41.602120511208057
 20
21.180089894015669
 30
0.0
 11
-41.602120511208057
 21
34.180089894015708
 31
0.0
  0
LINE
  5
141
  8
1
  6
DASHED
 62
     7
 10
-34.402120511208068
 20
21.180089894015669
 30
0.0
 11
-34.402120511208068
 21
34.180089894015708
 31
0.0
  0
LINE
  5
142
  8
1
  6
DASHED
 62
     7
 10
-40.802120511208066
 20
21.180089894015669
 30
0.0
 11
-40.802120511208066
 21
34.180089894015708
 31
0.0
  0
LINE
  5
143
  8
1
  6
DASHDOT
 62
     3
 10
-37.602120511208057
 20
10.580089894015771
 30
0.0
 11
-37.602120511208057
 21
36.780089894015717
 31
0.0
  0
LINE
  5
144
  8
1
  6
DASHDOT
 62
     3
 10
91.410426470054801
 20
10.580089894015771
 30
0.0
 11
91.410426470054801
 21
23.780089894015649
 31
0.0
  0
LINE
  5
145
  8
1
  6
DASHDOT
 62
     3
 10
191.4104264700548
 20
10.580089894015771
 30
0.0
 11
191.4104264700548
 21
23.780089894015649
 31
0.0
  0
LINE
  5
146
  8
1
  6
DASHED
 62
     3
 10
107.4104264700548
 20
34.180089894015701
 30
0.0
 11
107.4104264700548
 21
21.180089894015708
 31
0.0
  0
LINE
  5
147
  8
1
  6
DASHED
 62
     3
 10
115.4104264700547
 20
34.180089894015701
 30
0.0
 11
115.4104264700547
 21
21.180089894015708
 31
0.0
  0
LINE
  5
148
  8
1
  6
DASHDOT
 62
     3
 10
111.4104264700548
 20
36.780089894015703
 30
0.0
 11
111.4104264700548
 21
18.58008989401571
 31
0.0
  0
LINE
  5
149
  8
1
  6
DASHED
 62
     7
 10
108.2104264700548
 20
34.180089894015701
 30
0.0
 11
108.2104264700548
 21
21.180089894015708
 31
0.0
  0
LINE
  5
14A
  8
1
  6
DASHED
 62
     7
 10
114.6104264700548
 20
34.180089894015701
 30
0.0
 11
114.6104264700548
 21
21.180089894015708
 31
0.0
  0
LINE
  5
14B
  8
1
  6
DASHED
 62
     3
 10
167.4104264700548
 20
34.180089894015701
 30
0.0
 11
167.4104264700548
 21
21.180089894015708
 31
0.0
  0
LINE
  5
14C
  8
1
  6
DASHED
 62
     3
 10
175.4104264700548
 20
34.180089894015701
 30
0.0
 11
175.4104264700548
 21
21.180089894015708
 31
0.0
  0
LINE
  5
14D
  8
1
  6
DASHDOT
 62
     3
 10
171.4104264700548
 20
36.780089894015703
 30
0.0
 11
171.4104264700548
 21
18.58008989401571
 31
0.0
  0
LINE
  5
14E
  8
1
  6
DASHED
 62
     7
 10
168.21042647005481
 20
34.180089894015701
 30
0.0
 11
168.21042647005481
 21
21.180089894015708
 31
0.0
  0
LINE
  5
14F
  8
1
  6
DASHED
 62
     7
 10
174.61042647005479
 20
34.180089894015701
 30
0.0
 11
174.61042647005479
 21
21.180089894015708
 31
0.0
  0
LINE
  5
150
  8
1
  6
DASHDOT
 62
     3
 10
-44.002120511208091
 20
267.26936534839291
 30
0.0
 11
-31.20212051120809
 21
267.26936534839291
 31
0.0
  0
LINE
  5
151
  8
1
  6
DASHDOT
 62
     3
 10
-37.602120511208092
 20
260.86936534839288
 30
0.0
 11
-37.602120511208092
 21
273.66936534839289
 31
0.0
  0
LINE
  5
152
  8
1
  6
DASHDOT
 62
     3
 10
-44.002120511208091
 20
207.26936534839299
 30
0.0
 11
-31.20212051120809
 21
207.26936534839299
 31
0.0
  0
LINE
  5
153
  8
1
  6
DASHDOT
 62
     3
 10
-37.602120511208092
 20
200.86936534839299
 30
0.0
 11
-37.602120511208092
 21
213.66936534839289
 31
0.0
  0
LINE
  5
154
  8
1
  6
DASHDOT
 62
     3
 10
-114.00212051120801
 20
267.26936534839291
 30
0.0
 11
-101.20212051120799
 21
267.26936534839291
 31
0.0
  0
LINE
  5
155
  8
1
  6
DASHDOT
 62
     3
 10
-107.602120511208
 20
260.86936534839288
 30
0.0
 11
-107.602120511208
 21
273.66936534839289
 31
0.0
  0
LINE
  5
156
  8
1
  6
DASHDOT
 62
     3
 10
-114.00212051120801
 20
207.26936534839299
 30
0.0
 11
-101.20212051120799
 21
207.26936534839299
 31
0.0
  0
LINE
  5
157
  8
1
  6
DASHDOT
 62
     3
 10
-107.602120511208
 20
200.86936534839299
 30
0.0
 11
-107.602120511208
 21
213.66936534839289
 31
0.0
  0
ARC
  5
158
  8
1
 62
     7
 10
184.41042647005489
 20
46.626237215716777
 30
0.0
 40
1.0
 50
180.0
 51
266.82989671893841
  0
ARC
  5
159
  8
1
 62
     7
 10
192.4104264700548
 20
44.180089894015723
 30
0.0
 40
1.0000000000000091
 50
273.17010328106147
 51
86.829896718938443
  0
ARC
  5
15A
  8
1
 62
     7
 10
184.41042647005489
 20
41.73394257231466
 30
0.0
 40
1.0000000000000011
 50
93.170103281061571
 51
180.0
  0
ARC
  5
15B
  8
1
 62
     7
 10
184.41042647005489
 20
54.626237215716777
 30
0.0
 40
1.0
 50
180.0
 51
266.82989671893841
  0
ARC
  5
15C
  8
1
 62
     7
 10
192.4104264700548
 20
52.180089894015723
 30
0.0
 40
1.0000000000000091
 50
273.17010328106147
 51
86.829896718938443
  0
ARC
  5
15D
  8
1
 62
     7
 10
184.41042647005489
 20
49.733942572314653
 30
0.0
 40
1.0000000000000011
 50
93.170103281061571
 51
180.0
  0
ARC
  5
15E
  8
1
 62
     7
 10
184.41042647005489
 20
62.626237215716777
 30
0.0
 40
1.0
 50
180.0
 51
266.82989671893841
  0
ARC
  5
15F
  8
1
 62
     7
 10
192.4104264700548
 20
60.180089894015723
 30
0.0
 40
1.0000000000000091
 50
273.17010328106147
 51
86.829896718938414
  0
ARC
  5
160
  8
1
 62
     7
 10
184.41042647005489
 20
57.733942572314653
 30
0.0
 40
1.0000000000000011
 50
93.170103281061571
 51
180.0
  0
ARC
  5
161
  8
1
 62
     7
 10
184.41042647005489
 20
70.626237215716799
 30
0.0
 40
1.0
 50
180.0
 51
266.82989671893841
  0
ARC
  5
162
  8
1
 62
     7
 10
192.4104264700548
 20
68.180089894015723
 30
0.0
 40
1.0000000000000011
 50
273.17010328106147
 51
86.829896718938443
  0
ARC
  5
163
  8
1
 62
     7
 10
184.41042647005489
 20
65.73394257231466
 30
0.0
 40
1.0000000000000011
 50
93.170103281061571
 51
180.0
  0
ARC
  5
164
  8
1
 62
     7
 10
184.41042647005489
 20
105.7339425723145
 30
0.0
 40
1.0000000000000731
 50
93.170103281061316
 51
180.0
  0
ARC
  5
165
  8
1
 62
     7
 10
192.4104264700548
 20
108.18008989401569
 30
0.0
 40
0.9999999999999737
 50
273.17010328106147
 51
86.829896718938343
  0
ARC
  5
166
  8
1
 62
     7
 10
184.41042647005489
 20
110.6262372157168
 30
0.0
 40
1.0
 50
180.0
 51
266.82989671893853
  0
ARC
  5
167
  8
1
 62
     7
 10
184.41042647005489
 20
97.73394257231466
 30
0.0
 40
1.0000000000000011
 50
93.170103281061571
 51
180.0
  0
ARC
  5
168
  8
1
 62
     7
 10
192.4104264700548
 20
100.18008989401569
 30
0.0
 40
0.9999999999999879
 50
273.17010328106147
 51
86.829896718938343
  0
ARC
  5
169
  8
1
 62
     7
 10
184.41042647005489
 20
102.6262372157167
 30
0.0
 40
1.0
 50
180.0
 51
266.82989671893853
  0
ARC
  5
16A
  8
1
 62
     7
 10
184.41042647005489
 20
89.733942572314675
 30
0.0
 40
1.0000000000000011
 50
93.170103281061571
 51
180.0
  0
ARC
  5
16B
  8
1
 62
     7
 10
192.4104264700548
 20
92.180089894015708
 30
0.0
 40
1.0000000000000011
 50
273.17010328106147
 51
86.829896718938443
  0
ARC
  5
16C
  8
1
 62
     7
 10
184.41042647005489
 20
94.626237215716756
 30
0.0
 40
1.0
 50
180.0
 51
266.82989671893841
  0
ARC
  5
16D
  8
1
 62
     7
 10
184.41042647005489
 20
81.73394257231466
 30
0.0
 40
1.0000000000000011
 50
93.170103281061571
 51
180.0
  0
ARC
  5
16E
  8
1
 62
     7
 10
192.4104264700548
 20
84.180089894015694
 30
0.0
 40
1.0000000000000011
 50
273.17010328106147
 51
86.829896718938443
  0
ARC
  5
16F
  8
1
 62
     7
 10
184.41042647005489
 20
86.626237215716756
 30
0.0
 40
1.0
 50
180.0
 51
266.82989671893841
  0
ARC
  5
170
  8
1
 62
     7
 10
184.41042647005489
 20
73.73394257231466
 30
0.0
 40
1.0000000000000011
 50
93.170103281061571
 51
180.0
  0
ARC
  5
171
  8
1
 62
     7
 10
192.4104264700548
 20
76.180089894015708
 30
0.0
 40
1.0000000000000011
 50
273.17010328106147
 51
86.829896718938443
  0
ARC
  5
172
  8
1
 62
     7
 10
184.41042647005489
 20
78.626237215716756
 30
0.0
 40
1.0
 50
180.0
 51
266.82989671893841
  0
ARC
  5
173
  8
1
 62
     7
 10
181.9104264700548
 20
32.828443349770673
 30
0.0
 40
2.9999999999999751
 50
123.3670129692315
 51
180.0
  0
ARC
  5
174
  8
1
 62
     7
 10
98.410426470054873
 20
46.626237215716777
 30
0.0
 40
0.9999999999999865
 50
273.17010328105988
 51
0.0
  0
ARC
  5
175
  8
1
 62
     7
 10
90.410426470054887
 20
44.180089894015723
 30
0.0
 40
1.0000000000000031
 50
93.170103281063177
 51
266.82989671893688
  0
ARC
  5
176
  8
1
 62
     7
 10
98.410426470054873
 20
41.73394257231466
 30
0.0
 40
1.0
 50
0.0
 51
86.829896718940091
  0
ARC
  5
177
  8
1
 62
     7
 10
98.410426470054873
 20
54.626237215716777
 30
0.0
 40
0.9999999999999865
 50
273.17010328105988
 51
0.0
  0
ARC
  5
178
  8
1
 62
     7
 10
90.410426470054887
 20
52.180089894015723
 30
0.0
 40
1.0000000000000031
 50
93.170103281063177
 51
266.82989671893688
  0
ARC
  5
179
  8
1
 62
     7
 10
98.410426470054873
 20
49.733942572314653
 30
0.0
 40
1.0
 50
0.0
 51
86.829896718940091
  0
ARC
  5
17A
  8
1
 62
     7
 10
98.410426470054873
 20
62.626237215716777
 30
0.0
 40
1.0000000000000011
 50
273.17010328105988
 51
0.0
  0
ARC
  5
17B
  8
1
 62
     7
 10
90.410426470054887
 20
60.180089894015723
 30
0.0
 40
0.9999999999999895
 50
93.170103281063234
 51
266.82989671893688
  0
ARC
  5
17C
  8
1
 62
     7
 10
98.410426470054873
 20
57.733942572314653
 30
0.0
 40
1.0
 50
0.0
 51
86.829896718940091
  0
ARC
  5
17D
  8
1
 62
     7
 10
98.410426470054873
 20
70.626237215716799
 30
0.0
 40
1.0000000000000011
 50
273.17010328105988
 51
0.0
  0
ARC
  5
17E
  8
1
 62
     7
 10
90.410426470054887
 20
68.180089894015723
 30
0.0
 40
1.0000000000000031
 50
93.170103281063177
 51
266.82989671893688
  0
ARC
  5
17F
  8
1
 62
     7
 10
98.410426470054873
 20
65.73394257231466
 30
0.0
 40
1.0
 50
0.0
 51
86.829896718940091
  0
ARC
  5
180
  8
1
 62
     7
 10
98.410426470054873
 20
105.7339425723145
 30
0.0
 40
1.0
 50
0.0
 51
86.82989671894029
  0
ARC
  5
181
  8
1
 62
     7
 10
90.410426470054887
 20
108.18008989401569
 30
0.0
 40
0.9999999999999754
 50
93.170103281063277
 51
266.82989671893682
  0
ARC
  5
182
  8
1
 62
     7
 10
98.410426470054873
 20
110.6262372157168
 30
0.0
 40
1.0000000000000711
 50
273.17010328105971
 51
0.0
  0
ARC
  5
183
  8
1
 62
     7
 10
98.410426470054873
 20
97.73394257231466
 30
0.0
 40
1.0
 50
0.0
 51
86.829896718940091
  0
ARC
  5
184
  8
1
 62
     7
 10
90.410426470054887
 20
100.18008989401569
 30
0.0
 40
0.9999999999999754
 50
93.170103281063277
 51
266.82989671893682
  0
ARC
  5
185
  8
1
 62
     7
 10
98.410426470054873
 20
102.6262372157167
 30
0.0
 40
1.0000000000000711
 50
273.17010328105971
 51
0.0
  0
ARC
  5
186
  8
1
 62
     7
 10
98.410426470054873
 20
89.733942572314675
 30
0.0
 40
1.0
 50
0.0
 51
86.829896718940091
  0
ARC
  5
187
  8
1
 62
     7
 10
90.410426470054887
 20
92.180089894015708
 30
0.0
 40
1.0000000000000031
 50
93.170103281063177
 51
266.82989671893688
  0
ARC
  5
188
  8
1
 62
     7
 10
98.410426470054873
 20
94.626237215716756
 30
0.0
 40
1.0000000000000011
 50
273.17010328105988
 51
0.0
  0
ARC
  5
189
  8
1
 62
     7
 10
98.410426470054873
 20
81.73394257231466
 30
0.0
 40
1.0
 50
0.0
 51
86.829896718940091
  0
ARC
  5
18A
  8
1
 62
     7
 10
90.410426470054887
 20
84.180089894015694
 30
0.0
 40
1.0000000000000031
 50
93.170103281063177
 51
266.82989671893688
  0
ARC
  5
18B
  8
1
 62
     7
 10
98.410426470054873
 20
86.626237215716756
 30
0.0
 40
1.0000000000000011
 50
273.17010328105988
 51
0.0
  0
ARC
  5
18C
  8
1
 62
     7
 10
161.9104264700548
 20
21.680089894015708
 30
0.0
 40
2.0000000000000839
 50
0.0
 51
90.0
  0
ARC
  5
18D
  8
1
 62
     7
 10
120.9104264700549
 20
21.680089894015708
 30
0.0
 40
2.0
 50
90.0
 51
180.0
  0
ARC
  5
18E
  8
1
 62
     7
 10
100.9104264700549
 20
32.828443349770673
 30
0.0
 40
3.0
 50
0.0
 51
56.632987030768007
  0
ARC
  5
18F
  8
1
 62
     7
 10
-49.102120511208113
 20
76.180089894015708
 30
0.0
 40
1.5
 50
270.0
 51
90.0
  0
ARC
  5
190
  8
1
 62
     7
 10
-49.102120511208113
 20
84.180089894015694
 30
0.0
 40
1.5
 50
270.0
 51
90.0
  0
ARC
  5
191
  8
1
 62
     7
 10
-49.102120511208113
 20
92.180089894015708
 30
0.0
 40
1.5
 50
270.0
 51
90.0
  0
ARC
  5
192
  8
1
 62
     7
 10
-49.102120511208113
 20
100.18008989401569
 30
0.0
 40
1.4999999999999849
 50
270.0
 51
90.0
  0
ARC
  5
193
  8
1
 62
     7
 10
-49.102120511208113
 20
108.18008989401569
 30
0.0
 40
1.5
 50
270.0
 51
90.0
  0
ARC
  5
194
  8
1
 62
     7
 10
-49.102120511208113
 20
68.180089894015723
 30
0.0
 40
1.5
 50
270.0
 51
90.0
  0
ARC
  5
195
  8
1
 62
     7
 10
-49.102120511208113
 20
60.180089894015723
 30
0.0
 40
1.5
 50
270.0
 51
90.0
  0
ARC
  5
196
  8
1
 62
     7
 10
-49.102120511208113
 20
52.180089894015723
 30
0.0
 40
1.5
 50
270.0
 51
90.0
  0
ARC
  5
197
  8
1
 62
     7
 10
-49.102120511208113
 20
44.180089894015723
 30
0.0
 40
1.5
 50
270.0
 51
90.0
  0
ARC
  5
198
  8
1
 62
     7
 10
-49.602120511208099
 20
105.68008989401559
 30
0.0
 40
1.0
 50
0.0
 51
90.0
  0
ARC
  5
199
  8
1
 62
     7
 10
-49.602120511208099
 20
102.68008989401559
 30
0.0
 40
1.0
 50
270.0
 51
0.0
  0
ARC
  5
19A
  8
1
 62
     7
 10
-49.602120511208078
 20
97.680089894015723
 30
0.0
 40
1.0
 50
0.0
 51
90.0
  0
ARC
  5
19B
  8
1
 62
     7
 10
-49.602120511208078
 20
94.680089894015708
 30
0.0
 40
1.0
 50
270.0
 51
0.0
  0
ARC
  5
19C
  8
1
  6
CENTER
 62
     3
 10
102.1104264700548
 20
13.18008989401571
 30
0.0
 40
0.6999999999999993
 50
90.0
 51
180.0
  0
ARC
  5
19D
  8
1
  6
CENTER
 62
     3
 10
180.71042647005481
 20
13.18008989401571
 30
0.0
 40
0.6999999999999887
 50
0.0
 51
90.0
  0
ARC
  5
19E
  8
1
 62
     7
 10
-98.602120511208113
 20
280.26936534839291
 30
0.0
 40
1.0
 50
270.0
 51
0.0
  0
ARC
  5
19F
  8
1
  6
CENTER
 62
     3
 10
-107.602120511208
 20
287.26936534839291
 30
0.0
 40
9.0000000000000266
 50
297.26604445073161
 51
336.4435356908981
  0
ARC
  5
1A0
  8
1
  6
CENTER
 62
     3
 10
-107.602120511208
 20
287.26936534839291
 30
0.0
 40
9.0000000000000391
 50
203.55646430910181
 51
242.73395554926839
  0
ARC
  5
1A1
  8
1
  6
CENTER
 62
     3
 10
-107.602120511208
 20
287.26936534839291
 30
0.0
 40
8.9999999999999734
 50
23.556464309100811
 51
156.4435356908991
  0
ARC
  5
1A2
  8
1
 62
     7
 10
-22.602120511208089
 20
99.415280807405736
 30
0.0
 40
1.0
 50
180.0
 51
252.64597536373839
  0
ARC
  5
1A3
  8
1
 62
     7
 10
-16.602120511208099
 20
95.444898980625695
 30
0.0
 40
1.0
 50
0.0
 51
72.645975363738543
  0
ARC
  5
1A4
  8
1
 62
     7
 10
-22.602120511208089
 20
52.94489898062568
 30
0.0
 40
1.000000000000002
 50
107.3540246362615
 51
180.0
  0
ARC
  5
1A5
  8
1
 62
     7
 10
-16.602120511208099
 20
56.915280807405722
 30
0.0
 40
0.9999999999999955
 50
287.35402463626139
 51
0.0
  0
ARC
  5
1A6
  8
1
 62
     7
 10
-116.6021205112081
 20
33.180089894015701
 30
0.0
 40
1.0
 50
0.0
 51
90.0
  0
ARC
  5
1A7
  8
1
 62
     7
 10
-96.102120511208128
 20
76.180089894015708
 30
0.0
 40
1.5
 50
90.0
 51
270.0
  0
ARC
  5
1A8
  8
1
 62
     7
 10
-96.102120511208128
 20
84.180089894015694
 30
0.0
 40
1.5
 50
90.0
 51
270.0
  0
ARC
  5
1A9
  8
1
 62
     7
 10
-96.102120511208128
 20
92.180089894015708
 30
0.0
 40
1.5
 50
90.0
 51
270.0
  0
ARC
  5
1AA
  8
1
 62
     7
 10
-96.102120511208128
 20
100.18008989401569
 30
0.0
 40
1.5
 50
90.0
 51
270.0
  0
ARC
  5
1AB
  8
1
 62
     7
 10
-96.102120511208128
 20
108.18008989401569
 30
0.0
 40
1.5
 50
90.0
 51
270.0
  0
ARC
  5
1AC
  8
1
 62
     7
 10
-96.102120511208113
 20
68.180089894015723
 30
0.0
 40
1.5
 50
90.0
 51
270.0
  0
ARC
  5
1AD
  8
1
 62
     7
 10
-96.102120511208128
 20
60.180089894015723
 30
0.0
 40
1.5
 50
90.0
 51
270.0
  0
ARC
  5
1AE
  8
1
 62
     7
 10
-96.102120511208128
 20
52.180089894015723
 30
0.0
 40
1.5
 50
90.0
 51
270.0
  0
ARC
  5
1AF
  8
1
 62
     7
 10
-96.102120511208128
 20
44.180089894015723
 30
0.0
 40
1.5
 50
90.0
 51
270.0
  0
ARC
  5
1B0
  8
1
 62
     7
 10
-95.602120511208113
 20
105.68008989401559
 30
0.0
 40
1.0
 50
90.0
 51
180.0
  0
ARC
  5
1B1
  8
1
 62
     7
 10
-95.602120511208113
 20
102.68008989401559
 30
0.0
 40
1.0
 50
180.0
 51
270.0
  0
ARC
  5
1B2
  8
1
 62
     7
 10
-95.602120511208113
 20
97.680089894015723
 30
0.0
 40
1.0
 50
90.0
 51
180.0
  0
ARC
  5
1B3
  8
1
 62
     7
 10
-95.602120511208113
 20
94.680089894015708
 30
0.0
 40
1.0
 50
180.0
 51
270.0
  0
ARC
  5
1B4
  8
1
 62
     7
 10
-122.6021205112081
 20
99.415280807405736
 30
0.0
 40
0.9999999999999825
 50
287.35402463625923
 51
0.0
  0
ARC
  5
1B5
  8
1
 62
     7
 10
-128.602120511208
 20
95.444898980625695
 30
0.0
 40
1.0000000000000031
 50
107.35402463626301
 51
180.0
  0
ARC
  5
1B6
  8
1
 62
     7
 10
-122.6021205112081
 20
52.94489898062568
 30
0.0
 40
1.0
 50
0.0
 51
72.645975363740988
  0
ARC
  5
1B7
  8
1
 62
     7
 10
-128.602120511208
 20
56.915280807405722
 30
0.0
 40
1.0
 50
180.0
 51
252.64597536373691
  0
ARC
  5
1B8
  8
1
 62
     7
 10
-22.602120511208089
 20
260.50455626178291
 30
0.0
 40
1.0
 50
180.0
 51
252.64597536373799
  0
ARC
  5
1B9
  8
1
 62
     7
 10
-16.602120511208099
 20
256.53417443500302
 30
0.0
 40
1.0
 50
0.0
 51
72.645975363737321
  0
ARC
  5
1BA
  8
1
 62
     7
 10
-22.602120511208089
 20
214.034174435003
 30
0.0
 40
0.9999999999999827
 50
107.3540246362618
 51
180.0
  0
ARC
  5
1BB
  8
1
 62
     7
 10
-16.602120511208099
 20
218.00455626178291
 30
0.0
 40
0.9999999999999548
 50
287.35402463626218
 51
0.0
  0
ARC
  5
1BC
  8
1
 62
     7
 10
-8.1021205112080974
 20
237.26936534839299
 30
0.0
 40
2.5
 50
90.0
 51
270.0
  0
ARC
  5
1BD
  8
1
 62
     7
 10
-122.6021205112081
 20
260.50455626178291
 30
0.0
 40
0.9999999999999693
 50
287.35402463625923
 51
0.0
  0
ARC
  5
1BE
  8
1
 62
     7
 10
-128.602120511208
 20
256.53417443500302
 30
0.0
 40
0.9999999999999361
 50
107.3540246362642
 51
180.0
  0
ARC
  5
1BF
  8
1
 62
     7
 10
-122.6021205112081
 20
214.034174435003
 30
0.0
 40
1.0
 50
0.0
 51
72.645975363740632
  0
ARC
  5
1C0
  8
1
 62
     7
 10
-128.602120511208
 20
218.00455626178291
 30
0.0
 40
1.0
 50
180.0
 51
252.64597536373631
  0
ARC
  5
1C1
  8
1
 62
     7
 10
-137.102120511208
 20
237.26936534839299
 30
0.0
 40
2.5
 50
270.0
 51
90.0
  0
ARC
  5
1C2
  8
1
 62
     7
 10
175.73023162344941
 20
110.49989504741021
 30
0.0
 40
2.125
 50
180.0
 51
270.0
  0
ARC
  5
1C3
  8
1
 62
     7
 10
170.73023162344941
 20
110.49989504741021
 30
0.0
 40
2.125
 50
270.0
 51
0.0
  0
ARC
  5
1C4
  8
1
 62
     7
 10
170.73023162344941
 20
105.49989504741021
 30
0.0
 40
2.125
 50
0.0
 51
90.0
  0
ARC
  5
1C5
  8
1
 62
     7
 10
175.73023162344941
 20
105.49989504741021
 30
0.0
 40
2.125
 50
90.0
 51
180.0
  0
ARC
  5
1C6
  8
1
 62
     7
 10
107.0906213166601
 20
110.49989504741021
 30
0.0
 40
2.125
 50
270.0
 51
0.0
  0
ARC
  5
1C7
  8
1
 62
     7
 10
107.0906213166601
 20
105.49989504741021
 30
0.0
 40
2.125
 50
0.0
 51
90.0
  0
ARC
  5
1C8
  8
1
 62
     7
 10
112.0906213166601
 20
105.49989504741021
 30
0.0
 40
2.125
 50
90.0
 51
180.0
  0
ARC
  5
1C9
  8
1
 62
     7
 10
112.0906213166601
 20
110.49989504741021
 30
0.0
 40
2.125
 50
180.0
 51
270.0
  0
ARC
  5
1CA
  8
1
 62
     7
 10
107.0906213166601
 20
41.860284740621132
 30
0.0
 40
2.125
 50
0.0
 51
90.0
  0
ARC
  5
1CB
  8
1
 62
     7
 10
112.0906213166601
 20
41.860284740621132
 30
0.0
 40
2.125
 50
90.0
 51
180.0
  0
ARC
  5
1CC
  8
1
 62
     7
 10
112.0906213166601
 20
46.860284740621118
 30
0.0
 40
2.125
 50
180.0
 51
270.0
  0
ARC
  5
1CD
  8
1
 62
     7
 10
107.0906213166601
 20
46.860284740621118
 30
0.0
 40
2.125
 50
270.0
 51
0.0
  0
ARC
  5
1CE
  8
1
 62
     7
 10
175.73023162344941
 20
41.860284740621083
 30
0.0
 40
2.125
 50
90.0
 51
180.0
  0
ARC
  5
1CF
  8
1
 62
     7
 10
175.73023162344941
 20
46.860284740621083
 30
0.0
 40
2.125
 50
180.0
 51
270.0
  0
ARC
  5
1D0
  8
1
 62
     7
 10
170.73023162344941
 20
46.860284740621083
 30
0.0
 40
2.125
 50
270.0
 51
0.0
  0
ARC
  5
1D1
  8
1
 62
     7
 10
170.73023162344941
 20
41.860284740621083
 30
0.0
 40
2.125
 50
0.0
 51
90.0
  0
ARC
  5
1D2
  8
1
 62
     7
 10
141.4104264700548
 20
76.180089894015708
 30
0.0
 40
7.5
 50
109.47122063449071
 51
70.528779365509308
  0
ARC
  5
1D3
  8
1
 62
     7
 10
141.4104264700548
 20
76.180089894015708
 30
0.0
 40
6.9999999999999956
 50
110.92483242763829
 51
69.075167572361664
  0
ARC
  5
1D4
  8
1
 62
     7
 10
141.4104264700548
 20
76.780089894015703
 30
0.0
 40
8.6999999999999815
 50
308.02981351104279
 51
73.300251119737382
  0
ARC
  5
1D5
  8
1
 62
     7
 10
141.4104264700548
 20
76.780089894015703
 30
0.0
 40
8.7000000000000082
 50
106.6997488802625
 51
231.9701864889573
  0
ARC
  5
1D6
  8
1
 62
     7
 10
98.410426470054915
 20
46.180089894015708
 30
0.0
 40
30.900000000000009
 50
103.86243211643389
 51
119.9999999999999
  0
ARC
  5
1D7
  8
1
 62
     7
 10
-110.8021205112082
 20
76.180089894015708
 30
0.0
 40
1.1999999999999891
 50
90.0
 51
270.0
  0
ARC
  5
1D8
  8
1
 62
     7
 10
-108.402120511208
 20
76.180089894015708
 30
0.0
 40
1.1999999999999891
 50
270.0
 51
90.0
  0
ARC
  5
1D9
  8
1
 62
     7
 10
-36.802120511208138
 20
76.180089894015708
 30
0.0
 40
1.1999999999999891
 50
90.0
 51
270.0
  0
ARC
  5
1DA
  8
1
 62
     7
 10
-34.402120511208111
 20
76.180089894015708
 30
0.0
 40
1.1999999999999891
 50
270.0
 51
90.0
  0
ARC
  5
1DB
  8
1
 62
     7
 10
90.410426470054915
 20
76.180089894015708
 30
0.0
 40
0.9999999999999788
 50
155.62369104104741
 51
204.3763089589508
  0
ARC
  5
1DC
  8
1
 62
     7
 10
98.410426470054915
 20
61.180089894015708
 30
0.0
 40
14.10000000000001
 50
90.0
 51
151.362359208546
  0
ARC
  5
1DD
  8
1
 62
     7
 10
98.410426470054915
 20
61.180089894015708
 30
0.0
 40
15.9
 50
129.32308918124909
 51
151.36235920854631
  0
ARC
  5
1DE
  8
1
 62
     7
 10
98.410426470054915
 20
91.180089894015708
 30
0.0
 40
14.09999999999998
 50
208.63764079145361
 51
270.0
  0
ARC
  5
1DF
  8
1
 62
     7
 10
98.410426470054915
 20
91.180089894015708
 30
0.0
 40
15.90000000000005
 50
208.6376407914538
 51
230.67691081875071
  0
ARC
  5
1E0
  8
1
 62
     7
 10
98.410426470054915
 20
46.180089894015708
 30
0.0
 40
29.100000000000009
 50
90.0
 51
119.9999999999999
  0
ARC
  5
1E1
  8
1
 62
     7
 10
98.410426470054915
 20
106.18008989401569
 30
0.0
 40
30.899999999999942
 50
239.99999999999989
 51
270.0
  0
ARC
  5
1E2
  8
1
 62
     7
 10
98.410426470054915
 20
106.18008989401569
 30
0.0
 40
29.09999999999998
 50
239.99999999999989
 51
270.0
  0
ARC
  5
1E3
  8
1
 62
     7
 10
-98.602120511208113
 20
194.26936534839311
 30
0.0
 40
1.0
 50
0.0
 51
90.0
  0
ARC
  5
1E4
  8
1
  6
CENTER
 62
     3
 10
-107.602120511208
 20
187.26936534839299
 30
0.0
 40
9.0000000000000266
 50
23.556464309101639
 51
62.733955549268423
  0
ARC
  5
1E5
  8
1
  6
CENTER
 62
     3
 10
-107.602120511208
 20
187.26936534839299
 30
0.0
 40
8.9999999999999911
 50
127.66988696432971
 51
156.4435356908983
  0
ARC
  5
1E6
  8
1
  6
CENTER
 62
     3
 10
-107.602120511208
 20
187.26936534839299
 30
0.0
 40
4.2499999999999707
 50
193.12614270255429
 51
213.5395377408696
  0
ARC
  5
1E7
  8
1
  6
CENTER
 62
     3
 10
-107.602120511208
 20
187.26936534839299
 30
0.0
 40
4.25
 50
0.0
 51
94.368410252805248
  0
ARC
  5
1E8
  8
1
  6
CENTER
 62
     3
 10
-107.602120511208
 20
187.26936534839299
 30
0.0
 40
4.2500000000000213
 50
121.09092774995131
 51
124.1567525433243
  0
ARC
  5
1E9
  8
1
  6
CENTER
 62
     3
 10
-107.602120511208
 20
187.26936534839299
 30
0.0
 40
4.249999999999976
 50
240.2620552380148
 51
0.0
  0
ARC
  5
1EA
  8
1
  6
CENTER
 62
     3
 10
-107.602120511208
 20
187.26936534839299
 30
0.0
 40
9.0000000000000604
 50
242.94610340701851
 51
336.44353569089913
  0
ARC
  5
1EB
  8
1
  6
CENTER
 62
     3
 10
-107.602120511208
 20
187.26936534839299
 30
0.0
 40
9.0000000000000089
 50
213.8100783085718
 51
231.44175889079119
  0
ARC
  5
1EC
  8
1
 62
     7
 10
-125.5021205112081
 20
194.26936534839299
 30
0.0
 40
14.10000000000003
 50
298.6376407914542
 51
0.0
  0
ARC
  5
1ED
  8
1
 62
     7
 10
-125.5021205112081
 20
194.26936534839299
 30
0.0
 40
15.89999999999988
 50
298.63764079145409
 51
0.0
  0
ARC
  5
1EE
  8
1
 62
     7
 10
-138.70212051120811
 20
194.26936534839299
 30
0.0
 40
29.09999999999993
 50
330.0000000000004
 51
0.0
  0
ARC
  5
1EF
  8
1
 62
     7
 10
-138.70212051120811
 20
194.26936534839299
 30
0.0
 40
30.900000000000048
 50
330.00000000000011
 51
0.0
  0
ARC
  5
1F0
  8
1
  6
CENTER
 62
     7
 10
-109.102120511211
 20
190.2693653483924
 30
0.0
 40
2.7500000000000111
 50
101.09317899238
 51
101.61680478005449
  0
ARC
  5
1F1
  8
1
 62
     7
 10
-46.602120511208113
 20
280.26936534839291
 30
0.0
 40
1.0
 50
180.0
 51
270.0
  0
ARC
  5
1F2
  8
1
  6
CENTER
 62
     3
 10
-37.602120511208078
 20
287.26936534839291
 30
0.0
 40
9.0000000000000391
 50
203.55646430910181
 51
242.73395554926819
  0
ARC
  5
1F3
  8
1
  6
CENTER
 62
     3
 10
-37.602120511208078
 20
287.26936534839291
 30
0.0
 40
9.0000000000000266
 50
297.26604445073161
 51
336.4435356908981
  0
ARC
  5
1F4
  8
1
  6
CENTER
 62
     3
 10
-37.602120511208078
 20
287.26936534839291
 30
0.0
 40
8.9999999999999662
 50
23.556464309100811
 51
156.4435356908991
  0
ARC
  5
1F5
  8
1
 62
     7
 10
-46.602120511208113
 20
194.26936534839311
 30
0.0
 40
1.0
 50
90.0
 51
180.0
  0
ARC
  5
1F6
  8
1
  6
CENTER
 62
     3
 10
-37.602120511208092
 20
187.26936534839299
 30
0.0
 40
9.0000000000000266
 50
117.2660444507316
 51
156.4435356908983
  0
ARC
  5
1F7
  8
1
  6
CENTER
 62
     3
 10
-37.602120511208092
 20
187.26936534839299
 30
0.0
 40
9.0000000000000266
 50
23.556464309101639
 51
52.330113035670081
  0
ARC
  5
1F8
  8
1
  6
CENTER
 62
     3
 10
-37.602120511208092
 20
187.26936534839299
 30
0.0
 40
4.2499999999999609
 50
326.4604622591304
 51
346.87385729744562
  0
ARC
  5
1F9
  8
1
  6
CENTER
 62
     3
 10
-37.602120511208092
 20
187.26936534839299
 30
0.0
 40
4.25
 50
85.631589747194766
 51
180.0
  0
ARC
  5
1FA
  8
1
  6
CENTER
 62
     3
 10
-37.602120511208092
 20
187.26936534839299
 30
0.0
 40
4.2500000000000782
 50
55.843247456675762
 51
58.909072250049427
  0
ARC
  5
1FB
  8
1
  6
CENTER
 62
     3
 10
-37.602120511208092
 20
187.26936534839299
 30
0.0
 40
4.25
 50
180.0
 51
299.73794476198509
  0
ARC
  5
1FC
  8
1
  6
CENTER
 62
     3
 10
-37.602120511208092
 20
187.26936534839299
 30
0.0
 40
8.9999999999999822
 50
203.5564643091009
 51
297.05389659298157
  0
ARC
  5
1FD
  8
1
  6
CENTER
 62
     3
 10
-37.602120511208092
 20
187.26936534839299
 30
0.0
 40
8.9999999999999805
 50
308.55824110920861
 51
326.18992169142803
  0
ARC
  5
1FE
  8
1
 62
     7
 10
-19.702120511208111
 20
194.26936534839299
 30
0.0
 40
14.1
 50
180.0
 51
241.362359208546
  0
ARC
  5
1FF
  8
1
 62
     7
 10
-19.702120511208111
 20
194.26936534839299
 30
0.0
 40
15.899999999999981
 50
180.0
 51
241.362359208546
  0
ARC
  5
200
  8
1
 62
     7
 10
-6.5021205112081359
 20
194.26936534839299
 30
0.0
 40
29.099999999999959
 50
180.0
 51
209.9999999999996
  0
ARC
  5
201
  8
1
 62
     7
 10
-6.5021205112081359
 20
194.26936534839299
 30
0.0
 40
30.899999999999959
 50
180.0
 51
210.0
  0
ARC
  5
202
  8
1
  6
CENTER
 62
     7
 10
-36.102120511205712
 20
190.2693653483924
 30
0.0
 40
2.750000000000135
 50
78.383195219933299
 51
78.906821007606567
  0
ARC
  5
203
  8
1
 62
     7
 10
-28.602120511208071
 20
33.180089894015701
 30
0.0
 40
1.0
 50
90.0
 51
180.0
  0
ARC
  5
204
  8
1
 62
     7
 10
176.4104264700548
 20
41.180089894015701
 30
0.0
 40
7.0
 50
270.0
 51
0.0
  0
ARC
  5
205
  8
1
 62
     7
 10
176.4104264700548
 20
111.18008989401559
 30
0.0
 40
7.0
 50
0.0
 51
90.0
  0
ARC
  5
206
  8
1
 62
     7
 10
106.4104264700549
 20
41.180089894015701
 30
0.0
 40
7.0000000000000133
 50
180.0
 51
270.0
  0
ARC
  5
207
  8
1
 62
     7
 10
106.4104264700549
 20
111.18008989401559
 30
0.0
 40
7.0
 50
90.0
 51
180.0
  0
ARC
  5
208
  8
1
 62
     7
 10
-96.602120511208085
 20
288.2693653483928
 30
0.0
 40
1.0
 50
90.0
 51
180.0
  0
ARC
  5
209
  8
1
  6
CENTER
 62
     3
 10
-110.852120511208
 20
292.26936534839291
 30
0.0
 40
5.0
 50
90.0
 51
180.0
  0
ARC
  5
20A
  8
1
  6
CENTER
 62
     3
 10
-104.3521205112081
 20
292.26936534839291
 30
0.0
 40
5.0
 50
0.0
 51
90.0
  0
ARC
  5
20B
  8
1
 62
     7
 10
-24.602120511208099
 20
117.18008989401559
 30
0.0
 40
1.0
 50
0.0
 51
90.0
  0
ARC
  5
20C
  8
1
 62
     7
 10
-120.6021205112081
 20
117.18008989401559
 30
0.0
 40
1.0
 50
90.0
 51
180.0
  0
ARC
  5
20D
  8
1
 62
     7
 10
-120.6021205112081
 20
35.180089894015708
 30
0.0
 40
1.0
 50
180.0
 51
270.0
  0
ARC
  5
20E
  8
1
 62
     7
 10
-120.6021205112081
 20
278.26936534839308
 30
0.0
 40
1.0
 50
90.0
 51
180.0
  0
ARC
  5
20F
  8
1
 62
     7
 10
148.31042647005481
 20
67.957958632239993
 30
0.0
 40
2.500000000000024
 50
128.0298135110437
 51
180.0
  0
ARC
  5
210
  8
1
 62
     7
 10
143.81042647005481
 20
67.212828012977923
 30
0.0
 40
2.0
 50
270.0
 51
0.0
  0
ARC
  5
211
  8
1
 62
     7
 10
139.01042647005471
 20
67.212828012977923
 30
0.0
 40
2.0
 50
180.0
 51
270.0
  0
ARC
  5
212
  8
1
 62
     7
 10
134.5104264700548
 20
67.957958632239993
 30
0.0
 40
2.5
 50
0.0
 51
51.970186488955861
  0
ARC
  5
213
  8
1
 62
     7
 10
-96.602120511208085
 20
186.26936534839311
 30
0.0
 40
1.0
 50
180.0
 51
270.0
  0
ARC
  5
214
  8
1
  6
CENTER
 62
     3
 10
-104.3521205112081
 20
182.26936534839299
 30
0.0
 40
5.0
 50
270.0
 51
0.0
  0
ARC
  5
215
  8
1
 62
     7
 10
-120.6021205112081
 20
196.26936534839299
 30
0.0
 40
1.0
 50
180.0
 51
270.0
  0
ARC
  5
216
  8
1
  6
CENTER
 62
     3
 10
-110.6021205112082
 20
184.2693653483949
 30
0.0
 40
5.0
 50
180.0000000000218
 51
180.4556712212179
  0
ARC
  5
217
  8
1
 62
     7
 10
-48.602120511208113
 20
288.2693653483928
 30
0.0
 40
1.0
 50
0.0
 51
90.0
  0
ARC
  5
218
  8
1
  6
CENTER
 62
     3
 10
-34.352120511208092
 20
292.26936534839291
 30
0.0
 40
5.0000000000000107
 50
0.0
 51
90.0
  0
ARC
  5
219
  8
1
  6
CENTER
 62
     3
 10
-40.852120511208078
 20
292.2693653483928
 30
0.0
 40
5.0000000000001128
 50
90.0
 51
180.0
  0
ARC
  5
21A
  8
1
 62
     7
 10
-24.602120511208099
 20
278.26936534839308
 30
0.0
 40
1.0
 50
0.0
 51
90.0
  0
ARC
  5
21B
  8
1
 62
     7
 10
-48.602120511208113
 20
186.26936534839311
 30
0.0
 40
1.0
 50
270.0
 51
0.0
  0
ARC
  5
21C
  8
1
  6
CENTER
 62
     3
 10
-40.852120511208099
 20
182.26936534839299
 30
0.0
 40
5.0
 50
180.0
 51
270.0
  0
ARC
  5
21D
  8
1
 62
     7
 10
-24.602120511208099
 20
196.26936534839299
 30
0.0
 40
1.0
 50
270.0
 51
0.0
  0
ARC
  5
21E
  8
1
  6
CENTER
 62
     3
 10
-34.602120511208
 20
184.26936534839291
 30
0.0
 40
4.9999999999998774
 50
359.54432877880367
 51
0.0
  0
ARC
  5
21F
  8
1
 62
     7
 10
-24.602120511208071
 20
35.180089894015708
 30
0.0
 40
1.0
 50
270.0
 51
0.0
  0
ARC
  5
220
  8
1
  6
CENTER
 62
     3
 10
-34.352120511208099
 20
182.26936534839299
 30
0.0
 40
4.9999999999999929
 50
311.75700798789057
 51
353.01205362234521
  0
ARC
  5
221
  8
1
  6
CENTER
 62
     3
 10
-34.352120511208099
 20
182.26936534839299
 30
0.0
 40
5.0
 50
270.0
 51
291.01136769585031
  0
ARC
  5
222
  8
1
  6
CENTER
 62
     3
 10
-110.852120511208
 20
182.26936534839299
 30
0.0
 40
4.9999999999999876
 50
186.98794637765471
 51
228.24299201210971
  0
ARC
  5
223
  8
1
  6
CENTER
 62
     3
 10
-110.852120511208
 20
182.26936534839299
 30
0.0
 40
4.9999999999999707
 50
248.98863230415
 51
270.0
  0
CIRCLE
  5
224
  8
1
  6
CENTER
 62
     3
 10
-107.602120511208
 20
287.26936534839291
 30
0.0
 40
4.25
  0
CIRCLE
  5
225
  8
1
 62
     7
 10
173.23023162344941
 20
107.99989504741021
 30
0.0
 40
5.0
  0
CIRCLE
  5
226
  8
1
 62
     7
 10
109.5906213166601
 20
107.99989504741021
 30
0.0
 40
5.0
  0
CIRCLE
  5
227
  8
1
 62
     7
 10
109.5906213166601
 20
44.360284740621118
 30
0.0
 40
5.0
  0
CIRCLE
  5
228
  8
1
 62
     7
 10
173.23023162344941
 20
44.360284740621083
 30
0.0
 40
5.0
  0
CIRCLE
  5
229
  8
1
 62
     7
 10
141.4104264700548
 20
76.180089894015708
 30
0.0
 40
20.0
  0
CIRCLE
  5
22A
  8
1
 62
     7
 10
141.4104264700548
 20
76.180089894015708
 30
0.0
 40
22.5
  0
CIRCLE
  5
22B
  8
1
 62
     7
 10
141.4104264700548
 20
76.180089894015708
 30
0.0
 40
17.25
  0
CIRCLE
  5
22C
  8
1
 62
     7
 10
141.4104264700548
 20
103.18008989401569
 30
0.0
 40
2.9000000000000061
  0
CIRCLE
  5
22D
  8
1
 62
     7
 10
114.4104264700547
 20
76.180089894015708
 30
0.0
 40
2.899999999999991
  0
CIRCLE
  5
22E
  8
1
 62
     7
 10
141.4104264700548
 20
49.180089894015723
 30
0.0
 40
2.9000000000000061
  0
CIRCLE
  5
22F
  8
1
 62
     7
 10
168.4104264700548
 20
76.18008989401568
 30
0.0
 40
2.9000000000000061
  0
CIRCLE
  5
230
  8
1
 62
     7
 10
143.67653480973729
 20
66.923613455651505
 30
0.0
 40
0.9000000000000056
  0
CIRCLE
  5
231
  8
1
 62
     7
 10
139.1443181303722
 20
66.923613455651505
 30
0.0
 40
0.8999999999999772
  0
CIRCLE
  5
232
  8
1
 62
     7
 10
-110.5021205112082
 20
76.180089894015708
 30
0.0
 40
0.8999999999999062
  0
CIRCLE
  5
233
  8
1
 62
     7
 10
-108.70212051120799
 20
76.180089894015708
 30
0.0
 40
0.8999999999999914
  0
CIRCLE
  5
234
  8
1
 62
     7
 10
-109.6021205112083
 20
76.180089894015708
 30
0.0
 40
3.500000000000298
  0
CIRCLE
  5
235
  8
1
 62
     7
 10
-36.50212051120814
 20
76.180089894015708
 30
0.0
 40
0.8999999999999772
  0
CIRCLE
  5
236
  8
1
 62
     7
 10
-34.702120511208122
 20
76.180089894015708
 30
0.0
 40
0.8999999999999914
  0
CIRCLE
  5
237
  8
1
 62
     7
 10
-35.60212051120817
 20
76.180089894015708
 30
0.0
 40
3.5000000000001199
  0
CIRCLE
  5
238
  8
1
  6
CENTER
 62
     3
 10
-37.602120511208078
 20
287.26936534839291
 30
0.0
 40
4.25
  0
CIRCLE
  5
239
  8
1
  6
DASHED
 62
     7
 10
-37.602120511208092
 20
267.26936534839291
 30
0.0
 40
3.200000000000002
  0
CIRCLE
  5
23A
  8
1
  6
DASHED
 62
     3
 10
-37.602120511208092
 20
267.26936534839291
 30
0.0
 40
4.0
  0
CIRCLE
  5
23B
  8
1
  6
DASHED
 62
     7
 10
-37.602120511208092
 20
207.26936534839299
 30
0.0
 40
3.200000000000002
  0
CIRCLE
  5
23C
  8
1
  6
DASHED
 62
     3
 10
-37.602120511208092
 20
207.26936534839299
 30
0.0
 40
4.0
  0
CIRCLE
  5
23D
  8
1
  6
DASHED
 62
     7
 10
-107.602120511208
 20
267.26936534839291
 30
0.0
 40
3.200000000000002
  0
CIRCLE
  5
23E
  8
1
  6
DASHED
 62
     3
 10
-107.602120511208
 20
267.26936534839291
 30
0.0
 40
4.0
  0
CIRCLE
  5
23F
  8
1
  6
DASHED
 62
     7
 10
-107.602120511208
 20
207.26936534839299
 30
0.0
 40
3.200000000000002
  0
CIRCLE
  5
240
  8
1
  6
DASHED
 62
     3
 10
-107.602120511208
 20
207.26936534839299
 30
0.0
 40
4.0
  0
TEXT
  5
241
  8
1
 62
     7
 10
-81.172825625617762
 20
149.6521243156719
 30
0.0
 40
5.0
  1
MP 80
 41
0.9
  7
SIMPLEX
  0
TEXT
  5
243
  8
1
 62
     3
 10
106.9104264700549
 20
26.430089894015708
 30
0.0
 40
5.0
  1
INPUT
 41
0.8732690999999999
  7
COMPLEX
  0
ENDSEC
  0
EOF
