  0
SECTION
  2
HEADER
  9
$ACADVER
  1
AC1009
  9
$INSBASE
 10
0
 20
0
  9
$EXTMIN
 10
-33.5
 20
-42.5
  9
$EXTMAX
 10
233.5
 20
79.80000000000001
  9
$LIMMIN
 10
-33.5
 20
-42.5
  9
$LIMMAX
 10
233.5
 20
79.80000000000001
  9
$VIEWCTR
 10
10
 20
10
  9
$VIEWSIZE
 40
10
  9
$SNAPMODE
 70
0
  9
$SNAPUNIT
 10
1
 20
1
  9
$SNAPBASE
 10
0
 20
0
  9
$SNAPANG
 50
0
  9
$SNAPSTYLE
 70
0
  9
$SNAPISOPAIR
 70
0
  9
$GRIDMODE
 70
0
  9
$GRIDUNIT
 10
0
 20
0
  9
$ORTHOMODE
 70
0
  9
$REGENMODE
 70
1
  9
$FILLMODE
 70
1
  9
$QTEXTMODE
 70
0
  9
$DRAGMODE
 70
2
  9
$LTSCALE
 40
1
  9
$OSMODE
 70
0
  9
$ATTMODE
 70
1
  9
$TEXTSIZE
 40
3.5
  9
$TRACEWID
 40
0.5
  9
$TEXTSTYLE
  7
STANDARD
  9
$CLAYER
  8
0
  9
$CELTYPE
  6
BYLAYER
  9
$CECOLOR
 62
256
  9
$DIMSCALE
 40
1
  9
$DIMASZ
 40
0.18
  9
$DIMEXO
 40
0.0625
  9
$DIMDLI
 40
0.38
  9
$DIMRND
 40
0
  9
$DIMDLE
 40
0
  9
$DIMEXE
 40
0.18
  9
$DIMTP
 40
0
  9
$DIMTM
 40
0
  9
$DIMTXT
 40
0.18
  9
$DIMCEN
 40
0.09
  9
$DIMTSZ
 40
0
  9
$DIMTOL
 70
0
  9
$DIMLIM
 70
0
  9
$DIMTIH
 70
1
  9
$DIMTOH
 70
1
  9
$DIMSE1
 70
0
  9
$DIMSE2
 70
0
  9
$DIMTAD
 70
0
  9
$DIMZIN
 70
0
  9
$DIMBLK
  1

  9
$DIMASO
 70
1
  9
$DIMSHO
 70
1
  9
$DIMPOST
  1

  9
$DIMAPOST
  1

  9
$DIMALT
 70
0
  9
$DIMALTD
 70
2
  9
$DIMALTF
 40
25.4
  9
$DIMLFAC
 40
1
  9
$DIMTOFL
 70
0
  9
$DIMTVP
 40
0
  9
$DIMTIX
 70
0
  9
$DIMSOXD
 70
0
  9
$DIMSAH
 70
0
  9
$DIMBLK1
  1

  9
$DIMBLK2
  1

  9
$DIMSTYLE
  2
*UNNAMED
  9
$DIMCLRD
 70
0
  9
$DIMCLRE
 70
0
  9
$DIMCLRT
 70
0
  9
$DIMTFAC
 40
1
  9
$DIMGAP
 40
0.09
  9
$LUNITS
 70
2
  9
$LUPREC
 70
4
  9
$AXISMODE
 70
0
  9
$AXISUNIT
 10
0
 20
0
  9
$SKETCHINC
 40
0.1
  9
$FILLETRAD
 40
2
  9
$AUNITS
 70
0
  9
$AUPREC
 70
0
  9
$MENU
  1
ACAD
  9
$ELEVATION
 40
0
  9
$THICKNESS
 40
0
  9
$VIEWDIR
 10
0
 20
0
 30
1
  9
$LIMCHECK
 70
0
  9
$BLIPMODE
 70
1
  9
$CHAMFERA
 40
0
  9
$CHAMFERB
 40
0
  9
$FASTZOOM
 70
1
  9
$SKPOLY
 70
0
  9
$ANGBASE
 50
0
  9
$ANGDIR
 70
0
  9
$PDMODE
 70
0
  9
$PDSIZE
 40
0
  9
$PLINEWID
 40
0
  9
$COORDS
 70
2
  0
ENDSEC
  0
SECTION
  2
TABLES
  0
TABLE
  2
DIMSTYLE
 70
0
  0
ENDTAB
  0
TABLE
  2
LTYPE
 70
9
  0
LTYPE
  2
CONTINUOUS
 70
64
  3
Solid line
 72
65
 73
0
 40
0
  0
LTYPE
  2
BORDER
 70
64
  3
__ __ . __ __ .
 72
65
 73
6
 40
12.29605263157895
 49
3.513157894736842
 49
-1.756578947368421
 49
3.513157894736842
 49
-1.756578947368421
 49
0
 49
-1.756578947368421
  0
LTYPE
  2
CENTER
 70
64
  3
____ _ ____ _
 72
65
 73
4
 40
14.05263157894737
 49
8.782894736842104
 49
-1.756578947368421
 49
1.756578947368421
 49
-1.756578947368421
  0
LTYPE
  2
DASHDOT
 70
64
  3
__ . __ . __ .
 72
65
 73
4
 40
7.026315789473684
 49
3.513157894736842
 49
-1.756578947368421
 49
0
 49
-1.756578947368421
  0
LTYPE
  2
DASHED
 70
64
  3
__ __ __ __ __
 72
65
 73
2
 40
5.269736842105263
 49
3.513157894736842
 49
-1.756578947368421
  0
LTYPE
  2
DIVIDE
 70
64
  3
__ . . __ . . 
 72
65
 73
6
 40
8.782894736842104
 49
3.513157894736842
 49
-1.756578947368421
 49
0
 49
-1.756578947368421
 49
0
 49
-1.756578947368421
  0
LTYPE
  2
DOT
 70
64
  3
..............
 72
65
 73
4
 40
3.513157894736842
 49
0
 49
-1.756578947368421
 49
0
 49
-1.756578947368421
  0
LTYPE
  2
HIDDEN
 70
64
  3
_ _ _ _ _ _ _
 72
65
 73
2
 40
2.634868421052631
 49
1.756578947368421
 49
-0.8782894736842105
  0
LTYPE
  2
PHANTOM
 70
64
  3
_____ _ _ _____ _ _ 
 72
65
 73
6
 40
17.56578947368421
 49
8.782894736842104
 49
-1.756578947368421
 49
1.756578947368421
 49
-1.756578947368421
 49
1.756578947368421
 49
-1.756578947368421
  0
ENDTAB
  0
TABLE
  2
LAYER
 70
3
  0
LAYER
  2
1
 70
0
 62
7
  6
CONTINUOUS
  0
LAYER
  2
0
 70
0
 62
7
  6
CONTINUOUS
  0
ENDTAB
  0
TABLE
  2
STYLE
 70
4
  0
STYLE
  2
STANDARD
 70
0
 40
0
 41
1
 50
0
 71
0
 42
3.5
  3
txt
  4

  0
STYLE
  2
SIMPLEX
 70
0
 40
0
 41
1
 50
0
 71
0
 42
3.5
  3
simplex
  4

  0
STYLE
  2
COMPLEX
 70
0
 40
0
 41
1
 50
0
 71
0
 42
3.5
  3
complex
  4

  0
STYLE
  2
ITALIC
 70
0
 40
0
 41
1
 50
0
 71
0
 42
3.5
  3
italic
  4

  0
ENDTAB
  0
TABLE
  2
VIEW
 70
0
  0
ENDTAB
  0
ENDSEC
  0
SECTION
  2
BLOCKS
  0
ENDSEC
  0
SECTION
  2
ENTITIES
  0
LINE
  8
1
 62
7
 10
82.40000000000001
 20
-23.00000000000009
 30
0
 11
82.80000000000004
 21
-23.00000000000009
 31
0
  0
LINE
  8
1
 62
3
 10
83.20000000000007
 20
-23.00000000000009
 30
0
 11
91.85000000000005
 21
-23.00000000000009
 31
0
  0
LINE
  8
1
 62
7
 10
1.600000000000001
 20
42.90000000000001
 30
0
 11
1.600000000000001
 21
32.86107119373926
 31
0
  0
LINE
  8
1
 62
3
 10
0.4000000000000057
 20
42.90000000000001
 30
0
 11
0.4000000000000057
 21
44.90000000000001
 31
0
  0
LINE
  8
1
 62
3
 10
0.8000000000000043
 20
44.90000000000001
 30
0
 11
0.8000000000000043
 21
42.90000000000001
 31
0
  0
LINE
  8
1
 62
3
 10
1.200000000000003
 20
42.90000000000001
 30
0
 11
1.200000000000003
 21
44.90000000000001
 31
0
  0
LINE
  8
1
 62
7
 10
201.6
 20
42.90000000000001
 30
0
 11
201.6
 21
33.46176922997348
 31
0
  0
LINE
  8
1
 62
3
 10
200.4
 20
42.90000000000001
 30
0
 11
200.4
 21
44.90000000000001
 31
0
  0
LINE
  8
1
 62
3
 10
200.8
 20
44.90000000000001
 30
0
 11
200.8
 21
42.90000000000001
 31
0
  0
LINE
  8
1
 62
3
 10
201.2
 20
42.90000000000001
 30
0
 11
201.2
 21
44.90000000000001
 31
0
  0
LINE
  8
1
 62
3
 10
-0.4000000000000057
 20
44.90000000000001
 30
0
 11
-0.4000000000000057
 21
42.90000000000001
 31
0
  0
LINE
  8
1
 62
3
 10
-0.8000000000000043
 20
42.90000000000001
 30
0
 11
-0.8000000000000043
 21
44.90000000000001
 31
0
  0
LINE
  8
1
 62
3
 10
-1.200000000000003
 20
44.90000000000001
 30
0
 11
-1.200000000000003
 21
42.90000000000001
 31
0
  0
LINE
  8
1
 62
7
 10
-1.600000000000001
 20
42.90000000000001
 30
0
 11
1.600000000000001
 21
42.90000000000001
 31
0
  0
LINE
  8
1
 62
7
 10
-7.105427357601002e-015
 20
32.9
 30
0
 11
-7.105427357601002e-015
 21
42.90000000000001
 31
0
  0
LINE
  8
1
 62
7
 10
-1.600000000000001
 20
32.86107119373926
 30
0
 11
-1.600000000000001
 21
42.90000000000001
 31
0
  0
LINE
  8
1
 62
3
 10
199.6
 20
44.90000000000001
 30
0
 11
199.6
 21
42.90000000000001
 31
0
  0
LINE
  8
1
 62
3
 10
199.2
 20
42.90000000000001
 30
0
 11
199.2
 21
44.90000000000001
 31
0
  0
LINE
  8
1
 62
3
 10
198.8
 20
44.90000000000001
 30
0
 11
198.8
 21
42.90000000000001
 31
0
  0
LINE
  8
1
 62
7
 10
198.4
 20
42.90000000000001
 30
0
 11
201.6
 21
42.90000000000001
 31
0
  0
LINE
  8
1
 62
7
 10
200
 20
33.50000000000001
 30
0
 11
200
 21
42.90000000000001
 31
0
  0
LINE
  8
1
 62
7
 10
198.4
 20
33.46176922997348
 30
0
 11
198.4
 21
42.90000000000001
 31
0
  0
LINE
  8
1
 62
3
 10
143.2000000000001
 20
7.105427357601002e-015
 30
0
 11
148.2000000000001
 21
7.105427357601002e-015
 31
0
  0
LINE
  8
1
 62
3
 10
129.2
 20
44.90000000000001
 30
0
 11
129.2
 21
42.90000000000001
 31
0
  0
LINE
  8
1
 62
3
 10
128.8
 20
42.90000000000001
 30
0
 11
128.8
 21
44.90000000000001
 31
0
  0
LINE
  8
1
 62
3
 10
128.4
 20
44.90000000000001
 30
0
 11
128.4
 21
42.90000000000001
 31
0
  0
LINE
  8
1
 62
7
 10
128
 20
42.90000000000001
 30
0
 11
129.6
 21
42.90000000000001
 31
0
  0
LINE
  8
1
 62
7
 10
125.8
 20
32.90000000000001
 30
0
 11
139.2
 21
32.90000000000001
 31
0
  0
LINE
  8
1
 62
7
 10
125.8
 20
18.10000000000001
 30
0
 11
139.2
 21
18.10000000000001
 31
0
  0
LINE
  8
1
 62
7
 10
129.6
 20
32.90000000000001
 30
0
 11
129.6
 21
42.90000000000001
 31
0
  0
LINE
  8
1
 62
7
 10
128
 20
32.90000000000001
 30
0
 11
128
 21
42.90000000000001
 31
0
  0
LINE
  8
1
 62
7
 10
139.2
 20
-32.89999999999999
 30
0
 11
125.8
 21
-32.89999999999999
 31
0
  0
LINE
  8
1
 62
7
 10
139.2
 20
32.90000000000001
 30
0
 11
139.2
 21
-32.89999999999999
 31
0
  0
LINE
  8
1
 62
7
 10
139.2
 20
-18.09999999999999
 30
0
 11
125.8
 21
-18.09999999999999
 31
0
  0
LINE
  8
1
 62
7
 10
120
 20
31.00000000000001
 30
0
 11
121.8
 21
31.00000000000001
 31
0
  0
LINE
  8
1
 62
7
 10
120
 20
-42.5
 30
0
 11
121.8
 21
-42.49999999999999
 31
0
  0
LINE
  8
1
 62
7
 10
120
 20
17.50000000000001
 30
0
 11
121.8
 21
17.50000000000001
 31
0
  0
LINE
  8
1
 62
7
 10
120
 20
-17.49999999999999
 30
0
 11
121.8
 21
-17.49999999999999
 31
0
  0
LINE
  8
1
 62
7
 10
121.8
 20
31.00000000000001
 30
0
 11
121.8
 21
-42.49999999999999
 31
0
  0
LINE
  8
1
 62
7
 10
120
 20
-42.5
 30
0
 11
120
 21
31.00000000000001
 31
0
  0
LINE
  8
1
 62
7
 10
120
 20
-35.25
 30
0
 11
121.8
 21
-35.24999999999999
 31
0
  0
LINE
  8
1
 62
7
 10
121.8
 20
-39.74999999999999
 30
0
 11
120
 21
-39.75
 31
0
  0
LINE
  8
1
 62
3
 10
117
 20
-37.50000000000001
 30
0
 11
124.8
 21
-37.49999999999998
 31
0
  0
LINE
  8
1
 62
3
 10
115
 20
7.105427357601002e-015
 30
0
 11
120
 21
7.105427357601002e-015
 31
0
  0
LINE
  8
1
 62
3
 10
69.19999999999999
 20
44.90000000000001
 30
0
 11
69.19999999999999
 21
42.90000000000001
 31
0
  0
LINE
  8
1
 62
3
 10
68.79999999999998
 20
42.90000000000001
 30
0
 11
68.79999999999998
 21
44.90000000000001
 31
0
  0
LINE
  8
1
 62
3
 10
68.39999999999999
 20
44.90000000000001
 30
0
 11
68.39999999999999
 21
42.90000000000001
 31
0
  0
LINE
  8
1
 62
7
 10
68
 20
42.90000000000001
 30
0
 11
69.59999999999999
 21
42.90000000000001
 31
0
  0
LINE
  8
1
 62
7
 10
65.79999999999998
 20
32.90000000000001
 30
0
 11
79.19999999999999
 21
32.90000000000001
 31
0
  0
LINE
  8
1
 62
7
 10
69.59999999999999
 20
32.90000000000001
 30
0
 11
69.59999999999999
 21
42.90000000000001
 31
0
  0
LINE
  8
1
 62
7
 10
68
 20
32.90000000000001
 30
0
 11
68
 21
42.90000000000001
 31
0
  0
LINE
  8
1
 62
7
 10
79.19999999999999
 20
-32.89999999999999
 30
0
 11
65.79999999999998
 21
-32.89999999999999
 31
0
  0
LINE
  8
1
 62
7
 10
79.19999999999999
 20
32.90000000000001
 30
0
 11
79.19999999999999
 21
-32.89999999999999
 31
0
  0
LINE
  8
1
 62
7
 10
59.99999999999999
 20
31.00000000000001
 30
0
 11
61.79999999999999
 21
31.00000000000001
 31
0
  0
LINE
  8
1
 62
7
 10
59.99999999999999
 20
-42.5
 30
0
 11
61.79999999999999
 21
-42.49999999999999
 31
0
  0
LINE
  8
1
 62
7
 10
61.79999999999999
 20
31.00000000000001
 30
0
 11
61.79999999999999
 21
-42.49999999999999
 31
0
  0
LINE
  8
1
 62
7
 10
59.99999999999999
 20
-42.5
 30
0
 11
59.99999999999999
 21
31.00000000000001
 31
0
  0
LINE
  8
1
 62
3
 10
56.99999999999999
 20
-37.50000000000001
 30
0
 11
64.79999999999998
 21
-37.49999999999998
 31
0
  0
LINE
  8
1
 62
3
 10
54.99999999999999
 20
7.105427357601002e-015
 30
0
 11
59.99999999999999
 21
7.105427357601002e-015
 31
0
  0
LINE
  8
1
 62
3
 10
200
 20
-18.00000000000003
 30
0
 11
199.9999999999999
 21
-27.99999999999987
 31
0
  0
LINE
  8
1
 62
3
 10
184.4115427318801
 20
9.000000000000014
 30
0
 11
175.7512886940359
 21
14.00000000000001
 31
0
  0
LINE
  8
1
 62
3
 10
224.2487113059642
 20
14.00000000000001
 30
0
 11
215.5884572681199
 21
9.000000000000014
 31
0
  0
LINE
  8
1
 62
7
 10
169
 20
12.69842509920031
 30
0
 11
169
 21
29.07318352021328
 31
0
  0
LINE
  8
1
 62
7
 10
187.3015749007997
 20
-30.99999999999999
 30
0
 11
170.9268164797867
 21
-30.99999999999999
 31
0
  0
LINE
  8
1
 62
7
 10
231
 20
-12.69842509920029
 30
0
 11
231
 21
-29.07318352021326
 31
0
  0
LINE
  8
1
 62
7
 10
212.6984250992003
 20
31.00000000000001
 30
0
 11
229.0731835202132
 21
31.00000000000001
 31
0
  0
LINE
  8
1
 62
3
 10
229.5217081145384
 20
-29.52170811453836
 30
0
 11
223.5113004744527
 21
-23.5113004744527
 31
0
  0
LINE
  8
1
 62
3
 10
170.4782918854617
 20
-29.52170811453836
 30
0
 11
176.4886995255473
 21
-23.51130047445271
 31
0
  0
LINE
  8
1
 62
3
 10
170.4782918854617
 20
29.52170811453836
 30
0
 11
176.4886995255473
 21
23.5113004744527
 31
0
  0
LINE
  8
1
 62
3
 10
229.5217081145384
 20
29.52170811453836
 30
0
 11
223.5113004744527
 21
23.51130047445271
 31
0
  0
LINE
  8
1
 62
7
 10
170.9268164797867
 20
31.00000000000001
 30
0
 11
187.3015749007997
 21
31.00000000000001
 31
0
  0
LINE
  8
1
 62
7
 10
169
 20
-29.07318352021326
 30
0
 11
169
 21
-12.69842509920029
 31
0
  0
LINE
  8
1
 62
7
 10
229.0731835202133
 20
-30.99999999999999
 30
0
 11
212.6984250992003
 21
-30.99999999999999
 31
0
  0
LINE
  8
1
 62
7
 10
231
 20
29.07318352021328
 30
0
 11
231
 21
12.69842509920031
 31
0
  0
LINE
  8
1
 62
3
 10
200
 20
-4.999999999999993
 30
0
 11
200
 21
5
 31
0
  0
LINE
  8
1
 62
3
 10
195
 20
-7.105427357601002e-015
 30
0
 11
205
 21
7.105427357601002e-015
 31
0
  0
LINE
  8
1
 62
3
 10
29.52170811453836
 20
-29.52170811453836
 30
0
 11
23.51130047445271
 21
-23.5113004744527
 31
0
  0
LINE
  8
1
 62
3
 10
-29.52170811453836
 20
-29.52170811453836
 30
0
 11
-23.5113004744527
 21
-23.51130047445271
 31
0
  0
LINE
  8
1
 62
3
 10
-29.52170811453836
 20
29.52170811453836
 30
0
 11
-23.51130047445271
 21
23.5113004744527
 31
0
  0
LINE
  8
1
 62
3
 10
29.52170811453836
 20
29.52170811453836
 30
0
 11
23.5113004744527
 21
23.51130047445271
 31
0
  0
LINE
  8
1
 62
7
 10
-29.07318352021326
 20
31.00000000000001
 30
0
 11
29.07318352021325
 21
31.00000000000001
 31
0
  0
LINE
  8
1
 62
7
 10
-31
 20
-29.07318352021326
 30
0
 11
-31
 21
29.07318352021328
 31
0
  0
LINE
  8
1
 62
7
 10
29.07318352021326
 20
-30.99999999999999
 30
0
 11
-29.07318352021326
 21
-30.99999999999999
 31
0
  0
LINE
  8
1
 62
7
 10
30.99999999999999
 20
29.07318352021328
 30
0
 11
30.99999999999999
 21
-29.07318352021326
 31
0
  0
LINE
  8
1
 62
3
 10
7.105427357601002e-015
 20
-4.999999999999993
 30
0
 11
-7.105427357601002e-015
 21
5
 31
0
  0
LINE
  8
1
 62
3
 10
-5.000000000000007
 20
-7.105427357601002e-015
 30
0
 11
4.999999999999993
 21
7.105427357601002e-015
 31
0
  0
LINE
  8
1
 62
3
 10
83.20000000000007
 20
7.105427357601002e-015
 30
0
 11
88.20000000000007
 21
7.105427357601002e-015
 31
0
  0
LINE
  8
1
 62
7
 10
144.5
 20
-19.50000000000009
 30
0
 11
144.5000000000001
 21
-21.50000000000009
 31
0
  0
LINE
  8
1
 62
7
 10
139.4
 20
33.50000000000001
 30
0
 11
139.4
 21
17.50000000000001
 31
0
  0
LINE
  8
1
 62
7
 10
142.4
 20
23
 30
0
 11
142.8
 21
23
 31
0
  0
LINE
  8
1
 62
7
 10
142.4
 20
33.5
 30
0
 11
142.4
 21
30.59999999999999
 31
0
  0
LINE
  8
1
 62
7
 10
142.8
 20
23
 30
0
 11
142.8
 21
0
 31
0
  0
LINE
  8
1
 62
7
 10
139.4
 20
32.19999999999999
 30
0
 11
140.9999999999999
 21
30.59999999999999
 31
0
  0
LINE
  8
1
 62
7
 10
140.9999999999999
 20
30.59999999999999
 30
0
 11
142.8
 21
30.59999999999999
 31
0
  0
LINE
  8
1
 62
7
 10
142.8
 20
27.40000000000001
 30
0
 11
140.9999999999999
 21
27.40000000000001
 31
0
  0
LINE
  8
1
 62
7
 10
140.9999999999999
 20
27.40000000000001
 30
0
 11
139.4
 21
25.80000000000001
 31
0
  0
LINE
  8
1
 62
7
 10
140.9999999999999
 20
30.59999999999999
 30
0
 11
140.9999999999999
 21
27.40000000000001
 31
0
  0
LINE
  8
1
 62
7
 10
139.4
 20
-17.5
 30
0
 11
139.4
 21
-33.5
 31
0
  0
LINE
  8
1
 62
7
 10
142.4
 20
32.75000000000011
 30
0
 11
142.8
 21
32.75000000000011
 31
0
  0
LINE
  8
1
 62
7
 10
142.8
 20
25.2499999999998
 30
0
 11
142.403264293406
 21
25.2499999999998
 31
0
  0
LINE
  8
1
 62
7
 10
142.8
 20
32.75000000000011
 30
0
 11
142.8
 21
25.2499999999998
 31
0
  0
LINE
  8
1
 62
7
 10
143.2000000000001
 20
7.105427357601002e-015
 30
0
 11
143.2000000000001
 21
23.06945927106671
 31
0
  0
LINE
  8
1
 62
7
 10
142.8
 20
25.2499999999998
 30
0
 11
143.2000000000001
 21
23.06945927106671
 31
0
  0
LINE
  8
1
 62
7
 10
142.8
 20
23
 30
0
 11
142.4
 21
25.26851272784711
 31
0
  0
LINE
  8
1
 62
7
 10
143.2000000000001
 20
-30.36839112614649
 30
0
 11
143.2000000000001
 21
-24.50000000000009
 31
0
  0
LINE
  8
1
 62
7
 10
143.2000000000001
 20
-18.0000000000002
 30
0
 11
143.2000000000001
 21
7.105427357601002e-015
 31
0
  0
LINE
  8
1
 62
7
 10
142.8
 20
0
 30
0
 11
142.8
 21
-17.5
 31
0
  0
LINE
  8
1
 62
7
 10
142.8
 20
-17.5
 30
0
 11
142.8
 21
-30.36839112614649
 31
0
  0
LINE
  8
1
 62
7
 10
143.2000000000001
 20
-30.36839112614649
 30
0
 11
142.8
 21
-30.36839112614649
 31
0
  0
LINE
  8
1
 62
7
 10
143.2000000000001
 20
-28.59067790537949
 30
0
 11
142.8
 21
-28.59067790537949
 31
0
  0
LINE
  8
1
 62
7
 10
144.3500000000001
 20
31.44999999999979
 30
0
 11
144.3500000000001
 21
26.54999999999981
 31
0
  0
LINE
  8
1
 62
7
 10
143.65
 20
31.84999999999991
 30
0
 11
143.9500000000001
 21
31.84999999999991
 31
0
  0
LINE
  8
1
 62
7
 10
143.9500000000001
 20
26.14999999999981
 30
0
 11
143.65
 21
26.14999999999981
 31
0
  0
LINE
  8
1
 62
7
 10
139.4
 20
17.50000000000001
 30
0
 11
139.4
 21
0
 31
0
  0
LINE
  8
1
 62
7
 10
139.4
 20
0
 30
0
 11
139.4
 21
-17.5
 31
0
  0
LINE
  8
1
 62
7
 10
143.25
 20
31.75000000000011
 30
0
 11
143.25
 21
26.25
 31
0
  0
LINE
  8
1
 62
7
 10
143.25
 20
31.75000000000011
 30
0
 11
142.8
 21
31.75000000000011
 31
0
  0
LINE
  8
1
 62
7
 10
142.8
 20
26.25
 30
0
 11
143.25
 21
26.25
 31
0
  0
LINE
  8
1
 62
7
 10
142.4
 20
27.40000000000001
 30
0
 11
142.4
 21
23
 31
0
  0
LINE
  8
1
 62
7
 10
139.4
 20
-26.25000000000009
 30
0
 11
142.4
 21
-26.25000000000009
 31
0
  0
LINE
  8
1
 62
7
 10
139.4
 20
-19.75000000000009
 30
0
 11
142.8
 21
-19.75000000000009
 31
0
  0
LINE
  8
1
 62
7
 10
142.4
 20
-25.75
 30
0
 11
142.4
 21
-33.5
 31
0
  0
LINE
  8
1
 62
7
 10
142.7999999999999
 20
-20.25
 30
0
 11
141.9500000000001
 21
-20.25000000000009
 31
0
  0
LINE
  8
1
 62
7
 10
141.9500000000001
 20
-20.25000000000009
 30
0
 11
141.9500000000001
 21
-25.75000000000009
 31
0
  0
LINE
  8
1
 62
7
 10
141.9500000000001
 20
-25.75000000000009
 30
0
 11
142.8000000000002
 21
-25.75
 31
0
  0
LINE
  8
1
 62
7
 10
142.3500000000003
 20
-25.75000000000009
 30
0
 11
142.3499999999998
 21
-20.25000000000009
 31
0
  0
LINE
  8
1
 62
7
 10
140.2000000000001
 20
-21.50000000000009
 30
0
 11
140.2000000000001
 21
-24.5
 31
0
  0
LINE
  8
1
 62
7
 10
149.75
 20
-21.50000000000009
 30
0
 11
150.3500000000001
 21
-22.10000000000011
 31
0
  0
LINE
  8
1
 62
7
 10
150.3500000000001
 20
-23.90000000000009
 30
0
 11
149.75
 21
-24.5
 31
0
  0
LINE
  8
1
 62
7
 10
149.75
 20
-21.50000000000009
 30
0
 11
149.75
 21
-24.5
 31
0
  0
LINE
  8
1
 62
3
 10
150.3500000000001
 20
-22.10000000000011
 30
0
 11
143.8892304845413
 21
-22.10000000000011
 31
0
  0
LINE
  8
1
 62
3
 10
143.8892304845413
 20
-22.10000000000011
 30
0
 11
142.8500000000001
 21
-21.50000000000009
 31
0
  0
LINE
  8
1
 62
3
 10
150.3500000000001
 20
-23.90000000000009
 30
0
 11
143.8892304845413
 21
-23.90000000000009
 31
0
  0
LINE
  8
1
 62
3
 10
143.8892304845413
 20
-23.90000000000009
 30
0
 11
142.8500000000001
 21
-24.5
 31
0
  0
LINE
  8
1
 62
3
 10
143.8892304845413
 20
-21.50000000000009
 30
0
 11
143.8892304845413
 21
-24.5
 31
0
  0
LINE
  8
1
 62
7
 10
149.75
 20
-24.5
 30
0
 11
142.8
 21
-24.5
 31
0
  0
LINE
  8
1
 62
7
 10
142.8
 20
-21.50000000000009
 30
0
 11
149.75
 21
-21.50000000000009
 31
0
  0
LINE
  8
1
 62
7
 10
143.2000000000001
 20
-21.50000000000009
 30
0
 11
143.2000000000001
 21
-18.0000000000002
 31
0
  0
LINE
  8
1
 62
3
 10
138.7000000000001
 20
-23.00000000000009
 30
0
 11
151.8500000000001
 21
-23.00000000000009
 31
0
  0
LINE
  8
1
 62
7
 10
139.4
 20
33.50000000000001
 30
0
 11
142.4
 21
33.5
 31
0
  0
LINE
  8
1
 62
7
 10
139.4
 20
17.50000000000001
 30
0
 11
142.8
 21
17.5
 31
0
  0
LINE
  8
1
 62
7
 10
142.4
 20
-33.5
 30
0
 11
139.4
 21
-33.5
 31
0
  0
LINE
  8
1
 62
7
 10
142.8
 20
-17.5
 30
0
 11
139.4
 21
-17.5
 31
0
  0
LINE
  8
1
 62
7
 10
143.2000000000001
 20
-19.50000000000009
 30
0
 11
144.5
 21
-19.50000000000009
 31
0
  0
LINE
  8
1
 62
7
 10
144.5
 20
-26.50000000000009
 30
0
 11
143.2000000000001
 21
-26.50000000000009
 31
0
  0
LINE
  8
1
 62
7
 10
150.3500000000001
 20
-22.10000000000011
 30
0
 11
150.3500000000001
 21
-23.90000000000009
 31
0
  0
LINE
  8
1
 62
7
 10
144.5000000000001
 20
-24.5
 30
0
 11
144.5
 21
-26.50000000000009
 31
0
  0
LINE
  8
1
 62
7
 10
84.50000000000003
 20
-19.50000000000009
 30
0
 11
84.50000000000003
 21
-26.50000000000009
 31
0
  0
LINE
  8
1
 62
7
 10
90.35000000000005
 20
-22.10000000000011
 30
0
 11
90.35000000000005
 21
-23.90000000000009
 31
0
  0
LINE
  8
1
 62
7
 10
84.50000000000003
 20
-26.50000000000009
 30
0
 11
83.20000000000007
 21
-26.50000000000009
 31
0
  0
LINE
  8
1
 62
7
 10
83.20000000000007
 20
-19.50000000000009
 30
0
 11
84.50000000000003
 21
-19.50000000000009
 31
0
  0
LINE
  8
1
 62
7
 10
82.40000000000001
 20
-33.5
 30
0
 11
79.40000000000001
 21
-33.5
 31
0
  0
LINE
  8
1
 62
7
 10
79.40000000000001
 20
33.50000000000011
 30
0
 11
82.40000000000001
 21
33.5
 31
0
  0
LINE
  8
1
 62
7
 10
83.20000000000007
 20
-30.36839112614649
 30
0
 11
83.20000000000007
 21
23.06945927106671
 31
0
  0
LINE
  8
1
 62
7
 10
84.50000000000004
 20
-21.50000000000009
 30
0
 11
89.75000000000003
 21
-21.50000000000009
 31
0
  0
LINE
  8
1
 62
7
 10
89.75000000000003
 20
-24.5
 30
0
 11
84.50000000000006
 21
-24.5
 31
0
  0
LINE
  8
1
 62
3
 10
90.35000000000005
 20
-23.90000000000009
 30
0
 11
84.50000000000006
 21
-23.90000000000009
 31
0
  0
LINE
  8
1
 62
3
 10
90.35000000000005
 20
-22.10000000000011
 30
0
 11
84.50000000000006
 21
-22.10000000000011
 31
0
  0
LINE
  8
1
 62
7
 10
89.75000000000003
 20
-21.50000000000009
 30
0
 11
89.75000000000003
 21
-24.5
 31
0
  0
LINE
  8
1
 62
7
 10
90.35000000000005
 20
-23.90000000000009
 30
0
 11
89.75000000000003
 21
-24.5
 31
0
  0
LINE
  8
1
 62
7
 10
89.75000000000003
 20
-21.50000000000009
 30
0
 11
90.35000000000005
 21
-22.10000000000011
 31
0
  0
LINE
  8
1
 62
7
 10
82.40000000000001
 20
33.5
 30
0
 11
82.40000000000001
 21
-33.5
 31
0
  0
LINE
  8
1
 62
7
 10
82.80000000000004
 20
26.25
 30
0
 11
83.25000000000003
 21
26.25
 31
0
  0
LINE
  8
1
 62
7
 10
83.25000000000003
 20
31.75000000000011
 30
0
 11
82.80000000000004
 21
31.75000000000011
 31
0
  0
LINE
  8
1
 62
7
 10
83.25000000000003
 20
31.75000000000011
 30
0
 11
83.25000000000003
 21
26.25
 31
0
  0
LINE
  8
1
 62
7
 10
79.40000000000001
 20
33.50000000000011
 30
0
 11
79.40000000000001
 21
-33.5
 31
0
  0
LINE
  8
1
 62
7
 10
83.95000000000007
 20
26.14999999999981
 30
0
 11
83.65000000000001
 21
26.14999999999981
 31
0
  0
LINE
  8
1
 62
7
 10
83.65000000000001
 20
31.84999999999991
 30
0
 11
83.95000000000007
 21
31.84999999999991
 31
0
  0
LINE
  8
1
 62
7
 10
84.35000000000005
 20
31.44999999999979
 30
0
 11
84.35000000000005
 21
26.54999999999981
 31
0
  0
LINE
  8
1
 62
7
 10
83.20000000000007
 20
-30.36839112614649
 30
0
 11
82.80000000000004
 21
-30.36839112614649
 31
0
  0
LINE
  8
1
 62
7
 10
82.80000000000004
 20
23
 30
0
 11
82.80000000000004
 21
-30.36839112614649
 31
0
  0
LINE
  8
1
 62
7
 10
82.80000000000004
 20
23
 30
0
 11
82.40000000000001
 21
25.26851272784711
 31
0
  0
LINE
  8
1
 62
7
 10
82.80000000000004
 20
25.2499999999998
 30
0
 11
83.20000000000007
 21
23.06945927106671
 31
0
  0
LINE
  8
1
 62
7
 10
82.80000000000004
 20
32.75000000000011
 30
0
 11
82.80000000000004
 21
25.2499999999998
 31
0
  0
LINE
  8
1
 62
7
 10
82.40000000000001
 20
32.75000000000011
 30
0
 11
82.80000000000004
 21
32.75000000000011
 31
0
  0
LINE
  8
1
 62
7
 10
82.40000000000001
 20
23
 30
0
 11
82.80000000000004
 21
23
 31
0
  0
ARC
  8
1
 62
7
 10
0
 20
0
 30
0
 40
33.50000000000002
 50
337.7246878720675
 51
22.27531212793249
  0
ARC
  8
1
 62
7
 10
0
 20
0
 30
0
 40
33.49999999999999
 50
247.7246878720675
 51
292.2753121279325
  0
ARC
  8
1
 62
7
 10
0
 20
0
 30
0
 40
33.49999999999999
 50
157.7246878720675
 51
202.2753121279325
  0
ARC
  8
1
 62
7
 10
0
 20
0
 30
0
 40
32.90000000000003
 50
340.4327839910782
 51
19.56721600892174
  0
ARC
  8
1
 62
7
 10
0
 20
0
 30
0
 40
32.89999999999999
 50
250.4327839910783
 51
289.5672160089218
  0
ARC
  8
1
 62
7
 10
0
 20
0
 30
0
 40
32.89999999999998
 50
160.4327839910783
 51
199.5672160089218
  0
ARC
  8
1
 62
7
 10
0
 20
0
 30
0
 40
32.9
 50
70.43278399107828
 51
109.5672160089218
  0
ARC
  8
1
 62
7
 10
0
 20
0
 30
0
 40
33.49999999999999
 50
92.73755630361198
 51
112.2753121279325
  0
ARC
  8
1
 62
3
 10
200
 20
7.105427357601002e-015
 30
0
 40
23.00000000000005
 50
134.9999999999999
 51
165
  0
ARC
  8
1
 62
3
 10
200
 20
7.105427357601002e-015
 30
0
 40
23.00000000000011
 50
14.99999999999995
 51
44.99999999999989
  0
ARC
  8
1
 62
3
 10
200
 20
7.105427357601002e-015
 30
0
 40
23.00000000000009
 50
255
 51
285
  0
ARC
  8
1
 62
7
 10
207.290165015027
 20
15.63380932638212
 30
0
 40
8.000000000000059
 50
327.1779981371026
 51
64.99999999999938
  0
ARC
  8
1
 62
7
 10
200
 20
7.105427357601002e-015
 30
0
 40
18.00000000000006
 50
21.12360961261703
 51
38.87639038738268
  0
ARC
  8
1
 62
7
 10
217.1843585420826
 20
-1.503436562397198
 30
0
 40
7.99999999999983
 50
354.9999999999997
 51
92.82200186289757
  0
ARC
  8
1
 62
7
 10
200
 20
7.105427357601002e-015
 30
0
 40
25.25000000000016
 50
304.9999999999999
 51
354.9999999999996
  0
ARC
  8
1
 62
7
 10
182.8156414579173
 20
-1.503436562397198
 30
0
 40
8.000000000000098
 50
87.17799813710042
 51
185.0000000000003
  0
ARC
  8
1
 62
7
 10
209.8941935270556
 20
-14.13037276398528
 30
0
 40
8.000000000000089
 50
207.1779981371017
 51
305.0000000000003
  0
ARC
  8
1
 62
7
 10
200
 20
7.105427357601002e-015
 30
0
 40
17.9999999999999
 50
141.1236096126171
 51
158.8763903873827
  0
ARC
  8
1
 62
7
 10
200
 20
7.105427357601002e-015
 30
0
 40
18.00000000000019
 50
261.1236096126174
 51
278.8763903873826
  0
ARC
  8
1
 62
7
 10
192.7098349849731
 20
15.63380932638201
 30
0
 40
7.999999999999977
 50
114.9999999999993
 51
212.8220018628969
  0
ARC
  8
1
 62
7
 10
190.1058064729446
 20
-14.13037276398508
 30
0
 40
8.000000000000082
 50
235.0000000000001
 51
332.8220018628963
  0
ARC
  8
1
 62
7
 10
200
 20
7.105427357601002e-015
 30
0
 40
25.24999999999994
 50
64.99999999999987
 51
114.9999999999996
  0
ARC
  8
1
 62
7
 10
200
 20
7.105427357601002e-015
 30
0
 40
25.24999999999984
 50
185.0000000000003
 51
235.0000000000003
  0
ARC
  8
1
 62
7
 10
200
 20
7.105427357601002e-015
 30
0
 40
32.75000000000025
 50
299.9999999999999
 51
359.9999999999999
  0
ARC
  8
1
 62
7
 10
208.875
 20
15.37195091717372
 30
0
 40
15.00000000000012
 50
7.302265453336648
 51
60.00000000000012
  0
ARC
  8
1
 62
7
 10
217.7499999999999
 20
1.4210854715202e-014
 30
0
 40
15.00000000000011
 50
359.9999999999997
 51
52.69773454666249
  0
ARC
  8
1
 62
7
 10
231.688456607753
 20
18.29533895268982
 30
0
 40
8.000000000000492
 50
187.3022654533366
 51
232.697734546663
  0
ARC
  8
1
 62
7
 10
182.25
 20
-7.105427357601002e-014
 30
0
 40
14.99999999999992
 50
127.3022654533364
 51
180
  0
ARC
  8
1
 62
7
 10
208.875
 20
-15.37195091717398
 30
0
 40
14.99999999999995
 50
247.3022654533373
 51
300.0000000000003
  0
ARC
  8
1
 62
7
 10
168.3115433922469
 20
18.29533895268993
 30
0
 40
8.000000000000778
 50
307.3022654533382
 51
352.6977345466628
  0
ARC
  8
1
 62
7
 10
200
 20
-36.59067790538008
 30
0
 40
8.00000000000062
 50
67.30226545333591
 51
112.6977345466613
  0
ARC
  8
1
 62
7
 10
191.125
 20
15.37195091717355
 30
0
 40
15.0000000000002
 50
119.9999999999996
 51
172.6977345466627
  0
ARC
  8
1
 62
7
 10
191.1250000000003
 20
-15.37195091717378
 30
0
 40
15.00000000000025
 50
239.9999999999992
 51
292.6977345466628
  0
ARC
  8
1
 62
7
 10
200
 20
7.105427357601002e-015
 30
0
 40
32.74999999999999
 50
59.99999999999999
 51
120
  0
ARC
  8
1
 62
7
 10
200
 20
7.105427357601002e-015
 30
0
 40
32.75
 50
180.0000000000001
 51
240.0000000000001
  0
ARC
  8
1
 62
3
 10
200
 20
7.105427357601002e-015
 30
0
 40
37.49999999999999
 50
307.4999999999999
 51
322.5
  0
ARC
  8
1
 62
3
 10
200
 20
7.105427357601002e-015
 30
0
 40
37.5
 50
217.5
 51
232.5
  0
ARC
  8
1
 62
3
 10
200
 20
7.105427357601002e-015
 30
0
 40
37.49999999999998
 50
127.5
 51
142.5
  0
ARC
  8
1
 62
3
 10
200
 20
7.105427357601002e-015
 30
0
 40
37.49999999999999
 50
37.50000000000001
 51
52.50000000000002
  0
ARC
  8
1
 62
7
 10
200
 20
7.105427357601002e-015
 30
0
 40
42.50000000000002
 50
133.1628971402917
 51
136.8371028597083
  0
ARC
  8
1
 62
7
 10
200
 20
7.105427357601002e-015
 30
0
 40
42.5
 50
223.1628971402917
 51
226.8371028597083
  0
ARC
  8
1
 62
7
 10
200
 20
7.105427357601002e-015
 30
0
 40
42.50000000000002
 50
313.1628971402917
 51
316.8371028597083
  0
ARC
  8
1
 62
7
 10
200
 20
7.105427357601002e-015
 30
0
 40
42.50000000000001
 50
43.16289714029167
 51
46.83710285970841
  0
ARC
  8
1
 62
3
 10
0
 20
0
 30
0
 40
37.5
 50
307.5
 51
322.5
  0
ARC
  8
1
 62
3
 10
0
 20
0
 30
0
 40
37.5
 50
217.5
 51
232.5
  0
ARC
  8
1
 62
3
 10
0
 20
0
 30
0
 40
37.5
 50
127.5
 51
142.5
  0
ARC
  8
1
 62
3
 10
0
 20
0
 30
0
 40
37.5
 50
37.50000000000002
 51
52.5
  0
ARC
  8
1
 62
7
 10
0
 20
0
 30
0
 40
42.50000000000001
 50
133.1628971402917
 51
136.8371028597083
  0
ARC
  8
1
 62
7
 10
0
 20
0
 30
0
 40
42.5
 50
223.1628971402917
 51
226.8371028597084
  0
ARC
  8
1
 62
7
 10
0
 20
0
 30
0
 40
42.49999999999999
 50
313.1628971402917
 51
316.8371028597083
  0
ARC
  8
1
 62
7
 10
0
 20
0
 30
0
 40
42.5
 50
43.16289714029168
 51
46.83710285970837
  0
ARC
  8
1
 62
7
 10
0
 20
0
 30
0
 40
33.5
 50
67.72468787206752
 51
87.26244369638802
  0
ARC
  8
1
 62
7
 10
142.7028561178863
 20
-23.15399856504089
 30
0
 40
2.999999999999622
 50
104.5338561083892
 51
146.5414994755574
  0
ARC
  8
1
 62
7
 10
142.7028561178863
 20
-22.84600143495919
 30
0
 40
2.999999999999581
 50
213.4585005244427
 51
255.4661438916113
  0
ARC
  8
1
 62
7
 10
200
 20
7.105427357601002e-015
 30
0
 40
23.00000000000004
 50
48.94804198091648
 51
131.0519580190826
  0
ARC
  8
1
 62
7
 10
200
 20
7.105427357601002e-015
 30
0
 40
23.00000000000002
 50
168.9480419809166
 51
251.0519580190825
  0
ARC
  8
1
 62
7
 10
200
 20
7.105427357601002e-015
 30
0
 40
23.00000000000004
 50
288.9480419809165
 51
11.05195801908238
  0
CIRCLE
  8
1
 62
7
 10
0
 20
0
 30
0
 40
17.49999999999999
  0
CIRCLE
  8
1
 62
7
 10
200
 20
7.105427357601002e-015
 30
0
 40
17.5
  0
CIRCLE
  8
1
 62
7
 10
180.081415712958
 20
11.50000000000001
 30
0
 40
1.50000000000002
  0
CIRCLE
  8
1
 62
3
 10
180.081415712958
 20
11.50000000000001
 30
0
 40
0.9000000000000644
  0
CIRCLE
  8
1
 62
7
 10
180.081415712958
 20
11.50000000000001
 30
0
 40
3.500000000000063
  0
CIRCLE
  8
1
 62
7
 10
219.9185842870421
 20
11.50000000000001
 30
0
 40
1.499999999999959
  0
CIRCLE
  8
1
 62
3
 10
219.9185842870421
 20
11.50000000000001
 30
0
 40
0.9000000000000294
  0
CIRCLE
  8
1
 62
7
 10
219.9185842870421
 20
11.50000000000001
 30
0
 40
3.499999999999995
  0
CIRCLE
  8
1
 62
7
 10
200
 20
-23.00000000000007
 30
0
 40
1.5
  0
CIRCLE
  8
1
 62
3
 10
200
 20
-23.00000000000007
 30
0
 40
0.900000000000091
  0
CIRCLE
  8
1
 62
7
 10
200
 20
-23.00000000000007
 30
0
 40
3.5
  0
CIRCLE
  8
1
 62
7
 10
225.1147367097489
 20
-14.50000000000007
 30
0
 40
2.849999999999981
  0
CIRCLE
  8
1
 62
7
 10
174.8852632902512
 20
-14.50000000000007
 30
0
 40
2.850000000000069
  0
CIRCLE
  8
1
 62
7
 10
200
 20
29.00000000000013
 30
0
 40
2.850000000000108
  0
CIRCLE
  8
1
 62
7
 10
200
 20
7.105427357601002e-015
 30
0
 40
33.5
  0
CIRCLE
  8
1
 62
7
 10
226.5165042944956
 20
-26.51650429449553
 30
0
 40
2.25
  0
CIRCLE
  8
1
 62
7
 10
173.4834957055045
 20
-26.51650429449553
 30
0
 40
2.25
  0
CIRCLE
  8
1
 62
7
 10
173.4834957055045
 20
26.51650429449552
 30
0
 40
2.25
  0
CIRCLE
  8
1
 62
7
 10
226.5165042944955
 20
26.51650429449553
 30
0
 40
2.25
  0
CIRCLE
  8
1
 62
7
 10
26.51650429449553
 20
-26.51650429449553
 30
0
 40
2.25
  0
CIRCLE
  8
1
 62
7
 10
-26.51650429449552
 20
-26.51650429449553
 30
0
 40
2.25
  0
CIRCLE
  8
1
 62
7
 10
-26.51650429449553
 20
26.51650429449552
 30
0
 40
2.25
  0
CIRCLE
  8
1
 62
7
 10
26.51650429449553
 20
26.51650429449553
 30
0
 40
2.25
  0
ARC
  8
1
 62
7
 10
125.8
 20
22.10000000000001
 30
0
 40
4
 50
180
 51
270
  0
ARC
  8
1
 62
7
 10
125.8
 20
28.90000000000001
 30
0
 40
4.000000000000004
 50
90
 51
180
  0
ARC
  8
1
 62
7
 10
125.8
 20
-22.09999999999999
 30
0
 40
4
 50
90
 51
180
  0
ARC
  8
1
 62
7
 10
125.8
 20
-28.89999999999999
 30
0
 40
4
 50
180
 51
270
  0
ARC
  8
1
 62
7
 10
65.79999999999998
 20
28.90000000000001
 30
0
 40
4.000000000000004
 50
90
 51
180
  0
ARC
  8
1
 62
7
 10
65.79999999999998
 20
-28.89999999999999
 30
0
 40
3.999999999999993
 50
180
 51
270
  0
ARC
  8
1
 62
7
 10
143.9500000000001
 20
31.44999999999979
 30
0
 40
0.4000000000000057
 50
0
 51
90
  0
ARC
  8
1
 62
7
 10
143.65
 20
31.44999999999979
 30
0
 40
0.4000000000001194
 50
90
 51
180
  0
ARC
  8
1
 62
7
 10
143.65
 20
26.54999999999981
 30
0
 40
0.4000000000000057
 50
180
 51
270
  0
ARC
  8
1
 62
7
 10
143.9500000000001
 20
26.54999999999981
 30
0
 40
0.3999999999999986
 50
270
 51
0
  0
ARC
  8
1
 62
7
 10
83.95000000000007
 20
26.54999999999981
 30
0
 40
0.3999999999999986
 50
270
 51
0
  0
ARC
  8
1
 62
7
 10
83.65000000000001
 20
26.54999999999981
 30
0
 40
0.3999999999999773
 50
180
 51
270
  0
ARC
  8
1
 62
7
 10
83.65000000000001
 20
31.44999999999979
 30
0
 40
0.4000000000001194
 50
90
 51
180
  0
ARC
  8
1
 62
7
 10
83.95000000000007
 20
31.44999999999979
 30
0
 40
0.3999999999999773
 50
0
 51
90
  0
TEXT
  8
1
 62
7
 10
-7.105427357601002e-015
 20
76.30000000000001
 30
0
 40
3.5
  1
VBE 0.6
 41
0.9
  7
SIMPLEX
  0
TEXT
  8
1
 62
7
 10
-7.105427357601002e-015
 20
70.00000000000001
 30
0
 40
3.5
  1
DC8201
 41
0.9
  7
SIMPLEX
  0
ENDSEC
  0
EOF
