  0
SECTION
  2
HEADER
  9
$ACADVER
  1
AC1009
  9
$INSBASE
 10
0
 20
0
  9
$EXTMIN
 10
-533.4381689526556
 20
-27.11263025876542
  9
$EXTMAX
 10
89.37241055458235
 20
269.1931416711499
  9
$LIMMIN
 10
-533.4381689526556
 20
-27.11263025876542
  9
$LIMMAX
 10
89.37241055458235
 20
269.1931416711499
  9
$VIEWCTR
 10
10
 20
10
  9
$VIEWSIZE
 40
10
  9
$SNAPMODE
 70
0
  9
$SNAPUNIT
 10
1
 20
1
  9
$SNAPBASE
 10
0
 20
0
  9
$SNAPANG
 50
0
  9
$SNAPSTYLE
 70
0
  9
$SNAPISOPAIR
 70
0
  9
$GRIDMODE
 70
0
  9
$GRIDUNIT
 10
0
 20
0
  9
$ORTHOMODE
 70
0
  9
$REGENMODE
 70
1
  9
$FILLMODE
 70
1
  9
$QTEXTMODE
 70
0
  9
$DRAGMODE
 70
2
  9
$LTSCALE
 40
1
  9
$OSMODE
 70
0
  9
$ATTMODE
 70
1
  9
$TEXTSIZE
 40
3.5
  9
$TRACEWID
 40
0.5
  9
$TEXTSTYLE
  7
STANDARD
  9
$CLAYER
  8
0
  9
$CELTYPE
  6
BYLAYER
  9
$CECOLOR
 62
256
  9
$DIMSCALE
 40
1
  9
$DIMASZ
 40
0.18
  9
$DIMEXO
 40
0.0625
  9
$DIMDLI
 40
0.38
  9
$DIMRND
 40
0
  9
$DIMDLE
 40
0
  9
$DIMEXE
 40
0.18
  9
$DIMTP
 40
0
  9
$DIMTM
 40
0
  9
$DIMTXT
 40
0.18
  9
$DIMCEN
 40
0.09
  9
$DIMTSZ
 40
0
  9
$DIMTOL
 70
0
  9
$DIMLIM
 70
0
  9
$DIMTIH
 70
1
  9
$DIMTOH
 70
1
  9
$DIMSE1
 70
0
  9
$DIMSE2
 70
0
  9
$DIMTAD
 70
0
  9
$DIMZIN
 70
0
  9
$DIMBLK
  1

  9
$DIMASO
 70
1
  9
$DIMSHO
 70
1
  9
$DIMPOST
  1

  9
$DIMAPOST
  1

  9
$DIMALT
 70
0
  9
$DIMALTD
 70
2
  9
$DIMALTF
 40
25.4
  9
$DIMLFAC
 40
1
  9
$DIMTOFL
 70
0
  9
$DIMTVP
 40
0
  9
$DIMTIX
 70
0
  9
$DIMSOXD
 70
0
  9
$DIMSAH
 70
0
  9
$DIMBLK1
  1

  9
$DIMBLK2
  1

  9
$DIMSTYLE
  2
*UNNAMED
  9
$DIMCLRD
 70
0
  9
$DIMCLRE
 70
0
  9
$DIMCLRT
 70
0
  9
$DIMTFAC
 40
1
  9
$DIMGAP
 40
0.09
  9
$LUNITS
 70
2
  9
$LUPREC
 70
4
  9
$AXISMODE
 70
0
  9
$AXISUNIT
 10
0
 20
0
  9
$SKETCHINC
 40
0.1
  9
$FILLETRAD
 40
2
  9
$AUNITS
 70
0
  9
$AUPREC
 70
0
  9
$MENU
  1
ACAD
  9
$ELEVATION
 40
0
  9
$THICKNESS
 40
0
  9
$VIEWDIR
 10
0
 20
0
 30
1
  9
$LIMCHECK
 70
0
  9
$BLIPMODE
 70
1
  9
$CHAMFERA
 40
0
  9
$CHAMFERB
 40
0
  9
$FASTZOOM
 70
1
  9
$SKPOLY
 70
0
  9
$ANGBASE
 50
0
  9
$ANGDIR
 70
0
  9
$PDMODE
 70
0
  9
$PDSIZE
 40
0
  9
$PLINEWID
 40
0
  9
$COORDS
 70
2
  0
ENDSEC
  0
SECTION
  2
TABLES
  0
TABLE
  2
DIMSTYLE
 70
0
  0
ENDTAB
  0
TABLE
  2
LTYPE
 70
9
  0
LTYPE
  2
CONTINUOUS
 70
64
  3
Solid line
 72
65
 73
0
 40
0
  0
LTYPE
  2
BORDER
 70
64
  3
__ __ . __ __ .
 72
65
 73
6
 40
28.68206616151753
 49
8.194876046147867
 49
-4.097438023073933
 49
8.194876046147867
 49
-4.097438023073933
 49
0
 49
-4.097438023073933
  0
LTYPE
  2
CENTER
 70
64
  3
____ _ ____ _
 72
65
 73
4
 40
32.77950418459147
 49
20.48719011536967
 49
-4.097438023073933
 49
4.097438023073933
 49
-4.097438023073933
  0
LTYPE
  2
DASHDOT
 70
64
  3
__ . __ . __ .
 72
65
 73
4
 40
16.38975209229573
 49
8.194876046147867
 49
-4.097438023073933
 49
0
 49
-4.097438023073933
  0
LTYPE
  2
DASHED
 70
64
  3
__ __ __ __ __
 72
65
 73
2
 40
12.2923140692218
 49
8.194876046147867
 49
-4.097438023073933
  0
LTYPE
  2
DIVIDE
 70
64
  3
__ . . __ . . 
 72
65
 73
6
 40
20.48719011536967
 49
8.194876046147867
 49
-4.097438023073933
 49
0
 49
-4.097438023073933
 49
0
 49
-4.097438023073933
  0
LTYPE
  2
DOT
 70
64
  3
..............
 72
65
 73
4
 40
8.194876046147867
 49
0
 49
-4.097438023073933
 49
0
 49
-4.097438023073933
  0
LTYPE
  2
HIDDEN
 70
64
  3
_ _ _ _ _ _ _
 72
65
 73
2
 40
6.1461570346109
 49
4.097438023073933
 49
-2.048719011536967
  0
LTYPE
  2
PHANTOM
 70
64
  3
_____ _ _ _____ _ _ 
 72
65
 73
6
 40
40.97438023073934
 49
20.48719011536967
 49
-4.097438023073933
 49
4.097438023073933
 49
-4.097438023073933
 49
4.097438023073933
 49
-4.097438023073933
  0
ENDTAB
  0
TABLE
  2
LAYER
 70
3
  0
LAYER
  2
1
 70
0
 62
7
  6
CONTINUOUS
  0
LAYER
  2
0
 70
0
 62
7
  6
CONTINUOUS
  0
ENDTAB
  0
TABLE
  2
STYLE
 70
4
  0
STYLE
  2
STANDARD
 70
0
 40
0
 41
1
 50
0
 71
0
 42
3.5
  3
txt
  4

  0
STYLE
  2
SIMPLEX
 70
0
 40
0
 41
1
 50
0
 71
0
 42
3.5
  3
simplex
  4

  0
STYLE
  2
COMPLEX
 70
0
 40
0
 41
1
 50
0
 71
0
 42
3.5
  3
complex
  4

  0
STYLE
  2
ITALIC
 70
0
 40
0
 41
1
 50
0
 71
0
 42
3.5
  3
italic
  4

  0
ENDTAB
  0
TABLE
  2
VIEW
 70
0
  0
ENDTAB
  0
ENDSEC
  0
SECTION
  2
BLOCKS
  0
ENDSEC
  0
SECTION
  2
ENTITIES
  0
LINE
  8
1
 62
7
 10
-264.056298946201
 20
0.1970517861449253
 30
0
 11
-262.856298946201
 21
0.1970517861449253
 31
0
  0
LINE
  8
1
 62
7
 10
-170.3309388771444
 20
222.2220320306391
 30
0
 11
-170.330472792215
 21
222.2648638759288
 31
0
  0
LINE
  8
1
 62
7
 10
-170.16895816352
 20
222.2648638759288
 30
0
 11
-170.16895816352
 21
218.3873697412345
 31
0
  0
LINE
  8
1
 62
7
 10
-170.007443534826
 20
218.3873697412345
 30
0
 11
-170.007443534826
 21
222.2648638759288
 31
0
  0
LINE
  8
1
 62
7
 10
-169.876212899012
 20
222.2648638759288
 30
0
 11
-169.876212899012
 21
218.3873697412345
 31
0
  0
LINE
  8
1
 62
7
 10
-169.336148359314
 20
218.3873697412345
 30
0
 11
-169.331101027167
 21
222.2648638759288
 31
0
  0
LINE
  8
1
 62
7
 10
-169.477473659422
 20
222.2648638759288
 30
0
 11
-169.477473659422
 21
218.3873697412345
 31
0
  0
LINE
  8
1
 62
7
 10
-169.628893623823
 20
218.3873697412345
 30
0
 11
-169.63394095597
 21
222.2648638759288
 31
0
  0
LINE
  8
1
 62
7
 10
-169.7656776242272
 20
222.2648638759288
 30
0
 11
-169.7656776242272
 21
218.3873697412345
 31
0
  0
LINE
  8
1
 62
7
 10
6.247410554582416
 20
218.3873697412345
 30
0
 11
6.247410554582416
 21
221.4768569454969
 31
0
  0
LINE
  8
1
 62
7
 10
5.934910554582416
 20
221.4768569454969
 30
0
 11
5.934910554582416
 21
218.3873697412345
 31
0
  0
LINE
  8
1
 62
7
 10
5.622410554582416
 20
218.3873697412345
 30
0
 11
5.622410554582416
 21
221.4768569454969
 31
0
  0
LINE
  8
1
 62
7
 10
5.309910554582416
 20
221.4768569454969
 30
0
 11
5.309910554582416
 21
218.3873697412345
 31
0
  0
LINE
  8
1
 62
7
 10
4.997410554582416
 20
218.3873697412345
 30
0
 11
4.997410554582416
 21
221.4768569454969
 31
0
  0
LINE
  8
1
 62
7
 10
3.747410554582416
 20
218.3873697412345
 30
0
 11
3.747410554582416
 21
221.4768569454969
 31
0
  0
LINE
  8
1
 62
7
 10
3.434910554582416
 20
221.4768569454969
 30
0
 11
3.434910554582416
 21
218.3873697412345
 31
0
  0
LINE
  8
1
 62
7
 10
3.122410554582416
 20
218.3873697412345
 30
0
 11
3.122410554582416
 21
221.4768569454969
 31
0
  0
LINE
  8
1
 62
7
 10
2.809910554582416
 20
221.4768569454969
 30
0
 11
2.809910554582416
 21
218.3873697412345
 31
0
  0
LINE
  8
1
 62
7
 10
2.497410554582416
 20
218.3873697412345
 30
0
 11
2.497410554582416
 21
221.4768569454969
 31
0
  0
LINE
  8
1
 62
7
 10
1.872410554582416
 20
218.3873697412345
 30
0
 11
6.872410554582416
 21
218.3873697412345
 31
0
  0
LINE
  8
1
 62
7
 10
-449.5631689526556
 20
218.3873697412345
 30
0
 11
-449.5631689526556
 21
221.4768569454969
 31
0
  0
LINE
  8
1
 62
7
 10
-449.8756689526556
 20
221.4768569454969
 30
0
 11
-449.8756689526556
 21
218.3873697412345
 31
0
  0
LINE
  8
1
 62
7
 10
-450.1881689526556
 20
218.3873697412345
 30
0
 11
-450.1881689526556
 21
221.4768569454969
 31
0
  0
LINE
  8
1
 62
7
 10
-450.5006689526556
 20
221.4768569454969
 30
0
 11
-450.5006689526556
 21
218.3873697412345
 31
0
  0
LINE
  8
1
 62
7
 10
-450.8131689526556
 20
218.3873697412345
 30
0
 11
-450.8131689526556
 21
221.4768569454969
 31
0
  0
LINE
  8
1
 62
7
 10
-447.0631689526556
 20
218.3873697412345
 30
0
 11
-447.0631689526556
 21
221.4768569454969
 31
0
  0
LINE
  8
1
 62
7
 10
-447.3756689526556
 20
221.4768569454969
 30
0
 11
-447.3756689526556
 21
218.3873697412345
 31
0
  0
LINE
  8
1
 62
7
 10
-447.6881689526556
 20
218.3873697412345
 30
0
 11
-447.6881689526556
 21
221.4768569454969
 31
0
  0
LINE
  8
1
 62
7
 10
-448.0006689526556
 20
221.4768569454969
 30
0
 11
-448.0006689526556
 21
218.3873697412345
 31
0
  0
LINE
  8
1
 62
7
 10
-448.3131689526556
 20
218.3873697412345
 30
0
 11
-448.3131689526556
 21
221.4768569454969
 31
0
  0
LINE
  8
1
 62
7
 10
-378.6459218694956
 20
-0.1126302587654209
 30
0
 11
-519.2304160358156
 21
-0.1126302587654209
 31
0
  0
LINE
  8
1
 62
7
 10
-378.6459218694956
 20
155.8873697412345
 30
0
 11
-519.2304160358156
 21
155.8873697412345
 31
0
  0
LINE
  8
1
 62
7
 10
-526.9381689526556
 20
7.595122658074729
 30
0
 11
-526.9381689526556
 21
148.1796168243945
 31
0
  0
LINE
  8
1
 62
7
 10
-370.9381689526556
 20
148.1796168243945
 30
0
 11
-370.9381689526556
 21
7.595122658074729
 31
0
  0
LINE
  8
1
 62
7
 10
-182.089975815225
 20
37.88736974123458
 30
0
 11
-179.3899758152249
 21
37.88736974123458
 31
0
  0
LINE
  8
1
 62
7
 10
-182.089975815225
 20
117.8873697412346
 30
0
 11
-179.3899758152249
 21
117.8873697412346
 31
0
  0
LINE
  8
1
 62
7
 10
-179.3899758152249
 20
-27.11263025876542
 30
0
 11
-179.3899758152249
 21
77.88736974123458
 31
0
  0
LINE
  8
1
 62
7
 10
-182.089975815225
 20
77.88736974123458
 30
0
 11
-182.089975815225
 21
-27.11263025876542
 31
0
  0
LINE
  8
1
 62
7
 10
-148.289975815225
 20
24.88736974123458
 30
0
 11
-148.289975815225
 21
10.38736974123458
 31
0
  0
LINE
  8
1
 62
7
 10
-147.289975815225
 20
11.30312427968192
 30
0
 11
-148.289975815225
 21
11.30312427968192
 31
0
  0
LINE
  8
1
 62
7
 10
-148.289975815225
 20
24.47161520278712
 30
0
 11
-147.289975815225
 21
24.47161520278712
 31
0
  0
LINE
  8
1
 62
7
 10
-152.589975815225
 20
21.88736974123458
 30
0
 11
-152.589975815225
 21
13.88736974123458
 31
0
  0
LINE
  8
1
 62
7
 10
-149.089975815225
 20
10.88736974123458
 30
0
 11
-148.289975815225
 21
10.88736974123458
 31
0
  0
LINE
  8
1
 62
7
 10
-149.089975815225
 20
24.88736974123458
 30
0
 11
-149.089975815225
 21
10.88736974123458
 31
0
  0
LINE
  8
1
 62
7
 10
-148.289975815225
 20
24.88736974123458
 30
0
 11
-149.089975815225
 21
24.88736974123458
 31
0
  0
LINE
  8
1
 62
7
 10
-170.9656776242272
 20
218.3873697412345
 30
0
 11
-170.3548639378222
 21
218.3873697412345
 31
0
  0
LINE
  8
1
 62
7
 10
-169.1533474792428
 20
218.3873697412345
 30
0
 11
-168.5656776242272
 21
218.3873697412345
 31
0
  0
LINE
  8
1
 62
7
 10
-170.3548639378222
 20
218.3873697412345
 30
0
 11
-169.1533474792428
 21
218.3873697412345
 31
0
  0
LINE
  8
1
 62
7
 10
-169.1944008428322
 20
222.2648638759288
 30
0
 11
-169.1944008428322
 21
218.3873697412345
 31
0
  0
LINE
  8
1
 62
7
 10
-170.3309388771444
 20
222.2220320306391
 30
0
 11
-170.3309388771444
 21
218.3873697412345
 31
0
  0
LINE
  8
1
 62
7
 10
-179.3899758152249
 20
144.4873697412346
 30
0
 11
-179.3899758152249
 21
77.88736974123458
 31
0
  0
LINE
  8
1
 62
7
 10
-182.089975815225
 20
-12.86263025876542
 30
0
 11
-179.3899758152249
 21
-12.86263025876542
 31
0
  0
LINE
  8
1
 62
7
 10
-182.089975815225
 20
-21.36263025876542
 30
0
 11
-179.3899758152249
 21
-21.36263025876542
 31
0
  0
LINE
  8
1
 62
7
 10
-182.089975815225
 20
-27.11263025876542
 30
0
 11
-179.3899758152249
 21
-27.11263025876542
 31
0
  0
LINE
  8
1
 62
7
 10
-182.089975815225
 20
155.8873697412345
 30
0
 11
-179.3899758152249
 21
155.8873697412345
 31
0
  0
LINE
  8
1
 62
7
 10
-179.3899758152249
 20
155.8873697412345
 30
0
 11
-179.3899758152249
 21
149.2873697412346
 31
0
  0
LINE
  8
1
 62
7
 10
-182.089975815225
 20
155.8873697412345
 30
0
 11
-182.089975815225
 21
77.88736974123458
 31
0
  0
LINE
  8
1
 62
7
 10
-154.989975815225
 20
162.3873697412345
 30
0
 11
-154.989975815225
 21
77.88736974123458
 31
0
  0
LINE
  8
1
 62
7
 10
-154.989975815225
 20
119.8873697412346
 30
0
 11
-173.089975815225
 21
119.8873697412346
 31
0
  0
LINE
  8
1
 62
7
 10
-154.989975815225
 20
162.3873697412345
 30
0
 11
-173.089975815225
 21
162.3873697412345
 31
0
  0
LINE
  8
1
 62
7
 10
-179.3899758152249
 20
159.317886955483
 30
0
 11
-179.3899758152249
 21
77.88736974123458
 31
0
  0
LINE
  8
1
 62
7
 10
-173.089975815225
 20
-6.612630258765421
 30
0
 11
-154.989975815225
 21
-6.612630258765421
 31
0
  0
LINE
  8
1
 62
7
 10
-173.089975815225
 20
35.88736974123458
 30
0
 11
-154.989975815225
 21
35.88736974123458
 31
0
  0
LINE
  8
1
 62
7
 10
-154.989975815225
 20
77.88736974123458
 30
0
 11
-154.989975815225
 21
-6.612630258765421
 31
0
  0
LINE
  8
1
 62
7
 10
-65.91983652857761
 20
155.8873697412348
 30
0
 11
-29.40628095352659
 21
155.8873697412348
 31
0
  0
LINE
  8
1
 62
7
 10
38.15110206269142
 20
155.8873697412348
 30
0
 11
74.66465763774232
 21
155.8873697412348
 31
0
  0
LINE
  8
1
 62
7
 10
82.37241055458242
 20
148.1796168243945
 30
0
 11
82.37241055458242
 21
111.6660612493438
 31
0
  0
LINE
  8
1
 62
7
 10
82.37241055458242
 20
44.10867823312549
 30
0
 11
82.37241055458242
 21
7.595122658074729
 31
0
  0
LINE
  8
1
 62
7
 10
38.15110206269154
 20
-0.1126302587654209
 30
0
 11
74.66465763774232
 21
-0.1126302587654209
 31
0
  0
LINE
  8
1
 62
7
 10
-65.91983652857761
 20
-0.1126302587654209
 30
0
 11
-29.40628095352659
 21
-0.1126302587654209
 31
0
  0
LINE
  8
1
 62
7
 10
-73.62758944541758
 20
44.10867823312549
 30
0
 11
-73.62758944541758
 21
7.595122658074729
 31
0
  0
LINE
  8
1
 62
7
 10
-73.62758944541758
 20
148.1796168243945
 30
0
 11
-73.62758944541758
 21
111.6660612493438
 31
0
  0
LINE
  8
1
 62
7
 10
-451.4381689526556
 20
218.3873697412345
 30
0
 11
-446.4381689526556
 21
218.3873697412345
 31
0
  0
LINE
  8
1
 62
7
 10
-154.689975815225
 20
162.8873697412345
 30
0
 11
-154.689975815225
 21
77.88736974123458
 31
0
  0
LINE
  8
1
 62
7
 10
-154.689975815225
 20
119.3873697412346
 30
0
 11
-147.289975815225
 21
119.3873697412346
 31
0
  0
LINE
  8
1
 62
7
 10
-154.689975815225
 20
162.8873697412345
 30
0
 11
-148.289975815225
 21
162.8873697412345
 31
0
  0
LINE
  8
1
 62
7
 10
-148.289975815225
 20
162.8873697412345
 30
0
 11
-148.289975815225
 21
157.3873697412345
 31
0
  0
LINE
  8
1
 62
7
 10
-148.289975815225
 20
137.8873697412346
 30
0
 11
-147.289975815225
 21
137.8873697412346
 31
0
  0
LINE
  8
1
 62
7
 10
-147.289975815225
 20
137.8873697412346
 30
0
 11
-147.289975815225
 21
77.88736974123458
 31
0
  0
LINE
  8
1
 62
7
 10
-148.289975815225
 20
161.8873697412345
 30
0
 11
-147.089975815225
 21
161.8873697412345
 31
0
  0
LINE
  8
1
 62
7
 10
-147.089975815225
 20
161.8873697412345
 30
0
 11
-147.089975815225
 21
157.3873697412345
 31
0
  0
LINE
  8
1
 62
7
 10
-147.089975815225
 20
149.3873697412345
 30
0
 11
-147.089975815225
 21
141.7774035459083
 31
0
  0
LINE
  8
1
 62
7
 10
-147.089975815225
 20
141.7774035459083
 30
0
 11
-146.089975815225
 21
138.0453527383395
 31
0
  0
LINE
  8
1
 62
7
 10
-146.089975815225
 20
138.0453527383395
 30
0
 11
-146.089975815225
 21
77.88736974123458
 31
0
  0
LINE
  8
1
 62
7
 10
-148.289975815225
 20
141.6194205488035
 30
0
 11
-147.289975815225
 21
137.8873697412346
 31
0
  0
LINE
  8
1
 62
7
 10
-154.689975815225
 20
161.3873697412345
 30
0
 11
-150.689975815225
 21
157.3873697412345
 31
0
  0
LINE
  8
1
 62
7
 10
-150.689975815225
 20
157.3873697412345
 30
0
 11
-150.689975815225
 21
149.3873697412345
 31
0
  0
LINE
  8
1
 62
7
 10
-150.689975815225
 20
149.3873697412345
 30
0
 11
-154.689975815225
 21
145.3873697412345
 31
0
  0
LINE
  8
1
 62
7
 10
-150.689975815225
 20
149.3873697412345
 30
0
 11
-147.089975815225
 21
149.3873697412345
 31
0
  0
LINE
  8
1
 62
7
 10
-150.689975815225
 20
157.3873697412345
 30
0
 11
-147.089975815225
 21
157.3873697412345
 31
0
  0
LINE
  8
1
 62
7
 10
-147.089975815225
 20
158.5101547769879
 30
0
 11
-147.089975815225
 21
147.8460479068485
 31
0
  0
LINE
  8
1
 62
7
 10
-148.289975815225
 20
149.3873697412345
 30
0
 11
-148.289975815225
 21
137.8873697412346
 31
0
  0
LINE
  8
1
 62
7
 10
-147.089975815225
 20
160.3873697412345
 30
0
 11
-143.789975815225
 21
160.3873697412345
 31
0
  0
LINE
  8
1
 62
7
 10
-143.289975815225
 20
146.8873697412345
 30
0
 11
-143.289975815225
 21
159.8873697412345
 31
0
  0
LINE
  8
1
 62
7
 10
-147.089975815225
 20
146.3873697412345
 30
0
 11
-143.789975815225
 21
146.3873697412345
 31
0
  0
LINE
  8
1
 62
7
 10
-146.089975815225
 20
160.3873697412345
 30
0
 11
-146.089975815225
 21
146.3873697412345
 31
0
  0
LINE
  8
1
 62
7
 10
-143.789975815225
 20
146.3873697412345
 30
0
 11
-143.289975815225
 21
146.8873697412345
 31
0
  0
LINE
  8
1
 62
7
 10
-143.289975815225
 20
159.8873697412345
 30
0
 11
-143.789975815225
 21
160.3873697412345
 31
0
  0
LINE
  8
1
 62
7
 10
-148.289975815225
 20
144.8873697412345
 30
0
 11
-147.089975815225
 21
144.8873697412345
 31
0
  0
LINE
  8
1
 62
7
 10
-146.089975815225
 20
77.88736974123458
 30
0
 11
-146.089975815225
 21
21.88736974123458
 31
0
  0
LINE
  8
1
 62
7
 10
-147.289975815225
 20
77.88736974123458
 30
0
 11
-147.289975815225
 21
-6.112630258765421
 31
0
  0
LINE
  8
1
 62
7
 10
-148.289975815225
 20
-1.612630258765421
 30
0
 11
-148.289975815225
 21
-7.112630258765421
 31
0
  0
LINE
  8
1
 62
7
 10
-148.289975815225
 20
-7.112630258765421
 30
0
 11
-154.689975815225
 21
-7.112630258765421
 31
0
  0
LINE
  8
1
 62
7
 10
-147.289975815225
 20
36.38736974123458
 30
0
 11
-154.689975815225
 21
36.38736974123458
 31
0
  0
LINE
  8
1
 62
7
 10
-147.289975815225
 20
-6.112630258765421
 30
0
 11
-146.089975815225
 21
-6.112630258765421
 31
0
  0
LINE
  8
1
 62
7
 10
-129.539975815225
 20
13.88736974123458
 30
0
 11
-142.089975815225
 21
13.88736974123458
 31
0
  0
LINE
  8
1
 62
7
 10
-129.539975815225
 20
13.88736974123458
 30
0
 11
-128.289975815225
 21
14.68736974123453
 31
0
  0
LINE
  8
1
 62
7
 10
-128.289975815225
 20
14.68736974123453
 30
0
 11
-128.289975815225
 21
21.08736974123451
 31
0
  0
LINE
  8
1
 62
7
 10
-128.289975815225
 20
21.08736974123451
 30
0
 11
-129.539975815225
 21
21.88736974123458
 31
0
  0
LINE
  8
1
 62
7
 10
-129.539975815225
 20
21.88736974123458
 30
0
 11
-142.089975815225
 21
21.88736974123458
 31
0
  0
LINE
  8
1
 62
7
 10
-129.539975815225
 20
13.88736974123458
 30
0
 11
-129.539975815225
 21
21.88736974123458
 31
0
  0
LINE
  8
1
 62
7
 10
-146.089975815225
 20
25.88736974123458
 30
0
 11
-142.089975815225
 21
25.88736974123458
 31
0
  0
LINE
  8
1
 62
7
 10
-146.089975815225
 20
25.88736974123458
 30
0
 11
-146.089975815225
 21
21.88736974123458
 31
0
  0
LINE
  8
1
 62
7
 10
-142.089975815225
 20
25.88736974123458
 30
0
 11
-142.089975815225
 21
21.88736974123458
 31
0
  0
LINE
  8
1
 62
7
 10
-142.089975815225
 20
21.88736974123458
 30
0
 11
-147.289975815225
 21
21.88736974123458
 31
0
  0
LINE
  8
1
 62
7
 10
-142.089975815225
 20
13.88736974123458
 30
0
 11
-142.089975815225
 21
9.887369741234579
 31
0
  0
LINE
  8
1
 62
7
 10
-142.089975815225
 20
13.88736974123458
 30
0
 11
-147.289975815225
 21
13.88736974123458
 31
0
  0
LINE
  8
1
 62
7
 10
-146.089975815225
 20
9.887369741234579
 30
0
 11
-142.089975815225
 21
9.887369741234579
 31
0
  0
LINE
  8
1
 62
7
 10
-154.689975815225
 20
-7.112630258765421
 30
0
 11
-154.689975815225
 21
10.38736974123458
 31
0
  0
LINE
  8
1
 62
7
 10
-154.689975815225
 20
10.38736974123458
 30
0
 11
-148.289975815225
 21
10.38736974123458
 31
0
  0
LINE
  8
1
 62
7
 10
-154.689975815225
 20
10.38736974123458
 30
0
 11
-154.689975815225
 21
17.88736974123458
 31
0
  0
LINE
  8
1
 62
7
 10
-148.289975815225
 20
10.38736974123458
 30
0
 11
-148.289975815225
 21
-2.887022245568687
 31
0
  0
LINE
  8
1
 62
7
 10
-154.689975815225
 20
25.38736974123458
 30
0
 11
-147.289975815225
 21
25.38736974123458
 31
0
  0
LINE
  8
1
 62
7
 10
-154.689975815225
 20
25.38736974123458
 30
0
 11
-154.689975815225
 21
77.88736974123458
 31
0
  0
LINE
  8
1
 62
3
 10
-128.289975815225
 20
21.08736974123451
 30
0
 11
-146.4043351691698
 21
21.08736974123451
 31
0
  0
LINE
  8
1
 62
3
 10
-128.289975815225
 20
14.68736974123453
 30
0
 11
-146.4043351691698
 21
14.68736974123453
 31
0
  0
LINE
  8
1
 62
7
 10
-154.689975815225
 20
17.88736974123458
 30
0
 11
-154.689975815225
 21
25.38736974123458
 31
0
  0
LINE
  8
1
 62
7
 10
-147.289975815225
 20
4.557553171833888
 30
0
 11
-146.089975815225
 21
4.557553171833888
 31
0
  0
LINE
  8
1
 62
7
 10
-146.089975815225
 20
13.88736974123458
 30
0
 11
-146.089975815225
 21
-6.112630258765421
 31
0
  0
LINE
  8
1
 62
7
 10
-147.289975815225
 20
28.38736974123458
 30
0
 11
-146.089975815225
 21
28.38736974123458
 31
0
  0
LINE
  8
1
 62
7
 10
-146.089975815225
 20
28.38736974123458
 30
0
 11
-146.089975815225
 21
25.88736974123458
 31
0
  0
LINE
  8
1
 62
3
 10
-146.4043351691698
 20
21.08736974123451
 30
0
 11
-147.289975815225
 21
21.5986946066397
 31
0
  0
LINE
  8
1
 62
3
 10
-146.4043351691698
 20
14.68736974123453
 30
0
 11
-147.289975815225
 21
14.17604487582958
 31
0
  0
LINE
  8
1
 62
3
 10
-146.4043351691698
 20
21.88736974123458
 30
0
 11
-146.4043351691698
 21
13.88736974123458
 31
0
  0
LINE
  8
1
 62
7
 10
-378.6459218694956
 20
-0.1126302587654209
 30
0
 11
-370.9381689526556
 21
7.595122658074729
 31
0
  0
LINE
  8
1
 62
7
 10
45.72455681085313
 20
81.38736974123469
 30
0
 11
68.37241055458242
 21
81.38736974123469
 31
0
  0
LINE
  8
1
 62
7
 10
45.72455681085313
 20
74.38736974123469
 30
0
 11
68.37241055458242
 21
74.38736974123469
 31
0
  0
LINE
  8
1
 62
7
 10
-19.33475148679838
 20
111.9493789001748
 30
0
 11
-30.658678358663
 21
131.5629955834387
 31
0
  0
LINE
  8
1
 62
7
 10
-13.27257366030739
 20
115.4493789001748
 30
0
 11
-24.596500532172
 21
135.0629955834387
 31
0
  0
LINE
  8
1
 62
7
 10
-19.33475148679838
 20
43.82536058229471
 30
0
 11
-30.65867835866317
 21
24.21174389903058
 31
0
  0
LINE
  8
1
 62
7
 10
-13.27257366030739
 20
40.32536058229471
 30
0
 11
-24.596500532172
 21
20.71174389903058
 31
0
  0
LINE
  8
1
 62
7
 10
-80.555500052002
 20
81.38736974123469
 30
0
 11
-79.46167691884358
 21
81.38736974123469
 31
0
  0
LINE
  8
1
 62
7
 10
-80.555500052002
 20
74.38736974123469
 30
0
 11
-79.55464110339017
 21
74.38736974123469
 31
0
  0
LINE
  8
1
 62
7
 10
-61.16658482634017
 20
81.38736974123469
 30
0
 11
-59.62758944541758
 21
81.38736974123469
 31
0
  0
LINE
  8
1
 62
7
 10
-62.45230296193017
 20
74.38736974123469
 30
0
 11
-59.62758944541758
 21
74.38736974123469
 31
0
  0
LINE
  8
1
 62
7
 10
43.80527694462913
 20
2.58764166559854
 30
0
 11
43.25836537804992
 21
3.534920286160968
 31
0
  0
LINE
  8
1
 62
7
 10
49.86745477112024
 20
6.08764166559854
 30
0
 11
49.36702529681423
 21
6.954410940701564
 31
0
  0
LINE
  8
1
 62
7
 10
40.81585622608424
 20
21.76547023531737
 30
0
 11
39.40349946782791
 21
24.21174389903058
 31
0
  0
LINE
  8
1
 62
7
 10
34.11081933179821
 20
19.3789348028447
 30
0
 11
33.34132164133692
 21
20.71174389903058
 31
0
  0
LINE
  8
1
 62
7
 10
43.80527694462913
 20
153.1870978168707
 30
0
 11
43.30484747032321
 21
152.3203285417678
 31
0
  0
LINE
  8
1
 62
7
 10
49.86745477112024
 20
149.6870978168706
 30
0
 11
49.32054320454103
 21
148.7398191963084
 31
0
  0
LINE
  8
1
 62
7
 10
34.75367839959321
 20
137.5092692471519
 30
0
 11
33.34132164133692
 21
135.0629955834387
 31
0
  0
LINE
  8
1
 62
7
 10
40.17299715828932
 20
132.8958046796246
 30
0
 11
39.40349946782803
 21
131.5629955834387
 31
0
  0
LINE
  8
1
 62
7
 10
-154.689975815225
 20
81.38736974123469
 30
0
 11
-147.289975815225
 21
81.38736974123469
 31
0
  0
LINE
  8
1
 62
7
 10
-154.689975815225
 20
74.38736974123469
 30
0
 11
-147.289975815225
 21
74.38736974123469
 31
0
  0
LINE
  8
1
 62
3
 10
-0.6275894454175841
 20
77.88736974123469
 30
0
 11
9.372410554582416
 21
77.88736974123469
 31
0
  0
LINE
  8
1
 62
3
 10
4.372410554582416
 20
82.88736974123469
 30
0
 11
4.372410554582416
 21
72.88736974123469
 31
0
  0
LINE
  8
1
 62
3
 10
-453.9381689526556
 20
77.88736974123458
 30
0
 11
-443.9381689526556
 21
77.88736974123458
 31
0
  0
LINE
  8
1
 62
3
 10
-448.9381689526556
 20
82.88736974123458
 30
0
 11
-448.9381689526556
 21
72.88736974123458
 31
0
  0
LINE
  8
1
 62
3
  6
DASHDOT
 10
-185.089975815225
 20
-17.11263025876542
 30
0
 11
-176.3899758152249
 21
-17.11263025876542
 31
0
  0
LINE
  8
1
 62
7
 10
-287.0972620081204
 20
222.2220320306391
 30
0
 11
-287.096795923191
 21
222.2648638759288
 31
0
  0
LINE
  8
1
 62
7
 10
-286.935281294496
 20
222.2648638759288
 30
0
 11
-286.935281294496
 21
218.3873697412345
 31
0
  0
LINE
  8
1
 62
7
 10
-286.773766665802
 20
218.3873697412345
 30
0
 11
-286.773766665802
 21
222.2648638759288
 31
0
  0
LINE
  8
1
 62
7
 10
-286.642536029988
 20
222.2648638759288
 30
0
 11
-286.642536029988
 21
218.3873697412345
 31
0
  0
LINE
  8
1
 62
7
 10
-286.10247149029
 20
218.3873697412345
 30
0
 11
-286.097424158143
 21
222.2648638759288
 31
0
  0
LINE
  8
1
 62
7
 10
-286.243796790398
 20
222.2648638759288
 30
0
 11
-286.243796790398
 21
218.3873697412345
 31
0
  0
LINE
  8
1
 62
7
 10
-286.395216754799
 20
218.3873697412345
 30
0
 11
-286.400264086946
 21
222.2648638759288
 31
0
  0
LINE
  8
1
 62
7
 10
-286.5320007552032
 20
222.2648638759288
 30
0
 11
-286.5320007552032
 21
218.3873697412345
 31
0
  0
LINE
  8
1
 62
7
 10
-298.856298946201
 20
77.88736974123458
 30
0
 11
-298.856298946201
 21
-0.1126302587654209
 31
0
  0
LINE
  8
1
 62
7
 10
-265.056298946201
 20
24.88736974123458
 30
0
 11
-265.056298946201
 21
10.38736974123458
 31
0
  0
LINE
  8
1
 62
7
 10
-287.7320007552032
 20
218.3873697412345
 30
0
 11
-287.1211870687982
 21
218.3873697412345
 31
0
  0
LINE
  8
1
 62
7
 10
-285.9196706102188
 20
218.3873697412345
 30
0
 11
-285.3320007552032
 21
218.3873697412345
 31
0
  0
LINE
  8
1
 62
7
 10
-287.1211870687982
 20
218.3873697412345
 30
0
 11
-285.9196706102188
 21
218.3873697412345
 31
0
  0
LINE
  8
1
 62
7
 10
-285.9607239738082
 20
222.2648638759288
 30
0
 11
-285.9607239738082
 21
218.3873697412345
 31
0
  0
LINE
  8
1
 62
7
 10
-287.0972620081204
 20
222.2220320306391
 30
0
 11
-287.0972620081204
 21
218.3873697412345
 31
0
  0
LINE
  8
1
 62
7
 10
-296.1562989462012
 20
144.4873697412346
 30
0
 11
-296.1562989462012
 21
77.88736974123458
 31
0
  0
LINE
  8
1
 62
7
 10
-298.856298946201
 20
155.8873697412345
 30
0
 11
-296.1562989462012
 21
155.8873697412345
 31
0
  0
LINE
  8
1
 62
7
 10
-296.1562989462012
 20
155.8873697412345
 30
0
 11
-296.1562989462012
 21
149.2873697412346
 31
0
  0
LINE
  8
1
 62
7
 10
-298.856298946201
 20
155.8873697412345
 30
0
 11
-298.856298946201
 21
77.88736974123458
 31
0
  0
LINE
  8
1
 62
7
 10
-271.756298946201
 20
162.3873697412345
 30
0
 11
-271.756298946201
 21
77.88736974123458
 31
0
  0
LINE
  8
1
 62
7
 10
-271.756298946201
 20
162.3873697412345
 30
0
 11
-289.856298946201
 21
162.3873697412345
 31
0
  0
LINE
  8
1
 62
7
 10
-296.1562989462012
 20
159.317886955483
 30
0
 11
-296.1562989462012
 21
77.88736974123458
 31
0
  0
LINE
  8
1
 62
7
 10
-289.856298946201
 20
-6.612630258765421
 30
0
 11
-271.756298946201
 21
-6.612630258765421
 31
0
  0
LINE
  8
1
 62
7
 10
-271.756298946201
 20
77.88736974123458
 30
0
 11
-271.756298946201
 21
-6.612630258765421
 31
0
  0
LINE
  8
1
 62
7
 10
-271.456298946201
 20
162.8873697412345
 30
0
 11
-271.456298946201
 21
77.88736974123458
 31
0
  0
LINE
  8
1
 62
7
 10
-271.456298946201
 20
162.8873697412345
 30
0
 11
-265.056298946201
 21
162.8873697412345
 31
0
  0
LINE
  8
1
 62
7
 10
-265.056298946201
 20
162.8873697412345
 30
0
 11
-265.056298946201
 21
157.3873697412345
 31
0
  0
LINE
  8
1
 62
7
 10
-265.056298946201
 20
137.8873697412346
 30
0
 11
-264.056298946201
 21
137.8873697412346
 31
0
  0
LINE
  8
1
 62
7
 10
-264.056298946201
 20
137.8873697412346
 30
0
 11
-264.056298946201
 21
77.88736974123458
 31
0
  0
LINE
  8
1
 62
7
 10
-265.056298946201
 20
161.8873697412345
 30
0
 11
-263.856298946201
 21
161.8873697412345
 31
0
  0
LINE
  8
1
 62
7
 10
-263.856298946201
 20
161.8873697412345
 30
0
 11
-263.856298946201
 21
157.3873697412345
 31
0
  0
LINE
  8
1
 62
7
 10
-263.856298946201
 20
149.3873697412345
 30
0
 11
-263.856298946201
 21
141.7774035459083
 31
0
  0
LINE
  8
1
 62
7
 10
-263.856298946201
 20
141.7774035459083
 30
0
 11
-262.856298946201
 21
138.0453527383395
 31
0
  0
LINE
  8
1
 62
7
 10
-262.856298946201
 20
138.0453527383395
 30
0
 11
-262.856298946201
 21
77.88736974123458
 31
0
  0
LINE
  8
1
 62
7
 10
-265.056298946201
 20
141.6194205488035
 30
0
 11
-264.056298946201
 21
137.8873697412346
 31
0
  0
LINE
  8
1
 62
7
 10
-263.856298946201
 20
158.5101547769879
 30
0
 11
-263.856298946201
 21
147.8460479068485
 31
0
  0
LINE
  8
1
 62
7
 10
-265.056298946201
 20
149.3873697412345
 30
0
 11
-265.056298946201
 21
137.8873697412346
 31
0
  0
LINE
  8
1
 62
7
 10
-263.856298946201
 20
160.3873697412345
 30
0
 11
-260.556298946201
 21
160.3873697412345
 31
0
  0
LINE
  8
1
 62
7
 10
-260.056298946201
 20
146.8873697412345
 30
0
 11
-260.056298946201
 21
159.8873697412345
 31
0
  0
LINE
  8
1
 62
7
 10
-263.856298946201
 20
146.3873697412345
 30
0
 11
-260.556298946201
 21
146.3873697412345
 31
0
  0
LINE
  8
1
 62
7
 10
-262.856298946201
 20
160.3873697412345
 30
0
 11
-262.856298946201
 21
146.3873697412345
 31
0
  0
LINE
  8
1
 62
7
 10
-260.556298946201
 20
146.3873697412345
 30
0
 11
-260.056298946201
 21
146.8873697412345
 31
0
  0
LINE
  8
1
 62
7
 10
-260.056298946201
 20
159.8873697412345
 30
0
 11
-260.556298946201
 21
160.3873697412345
 31
0
  0
LINE
  8
1
 62
7
 10
-262.856298946201
 20
77.88736974123458
 30
0
 11
-262.856298946201
 21
21.88736974123458
 31
0
  0
LINE
  8
1
 62
7
 10
-264.056298946201
 20
77.88736974123458
 30
0
 11
-264.056298946201
 21
0.1970517861449253
 31
0
  0
LINE
  8
1
 62
7
 10
-265.056298946201
 20
-1.612630258765421
 30
0
 11
-265.056298946201
 21
-7.112630258765421
 31
0
  0
LINE
  8
1
 62
7
 10
-265.056298946201
 20
-7.112630258765421
 30
0
 11
-271.456298946201
 21
-7.112630258765421
 31
0
  0
LINE
  8
1
 62
7
 10
-246.306298946201
 20
13.88736974123458
 30
0
 11
-258.856298946201
 21
13.88736974123458
 31
0
  0
LINE
  8
1
 62
7
 10
-246.306298946201
 20
13.88736974123458
 30
0
 11
-245.056298946201
 21
14.68736974123453
 31
0
  0
LINE
  8
1
 62
7
 10
-245.056298946201
 20
14.68736974123453
 30
0
 11
-245.056298946201
 21
21.08736974123451
 31
0
  0
LINE
  8
1
 62
7
 10
-245.056298946201
 20
21.08736974123451
 30
0
 11
-246.306298946201
 21
21.88736974123458
 31
0
  0
LINE
  8
1
 62
7
 10
-246.306298946201
 20
21.88736974123458
 30
0
 11
-258.856298946201
 21
21.88736974123458
 31
0
  0
LINE
  8
1
 62
7
 10
-246.306298946201
 20
13.88736974123458
 30
0
 11
-246.306298946201
 21
21.88736974123458
 31
0
  0
LINE
  8
1
 62
7
 10
-262.856298946201
 20
25.88736974123458
 30
0
 11
-258.856298946201
 21
25.88736974123458
 31
0
  0
LINE
  8
1
 62
7
 10
-258.856298946201
 20
25.88736974123458
 30
0
 11
-258.856298946201
 21
21.88736974123458
 31
0
  0
LINE
  8
1
 62
7
 10
-258.856298946201
 20
13.88736974123458
 30
0
 11
-258.856298946201
 21
9.887369741234579
 31
0
  0
LINE
  8
1
 62
7
 10
-262.856298946201
 20
9.887369741234579
 30
0
 11
-258.856298946201
 21
9.887369741234579
 31
0
  0
LINE
  8
1
 62
7
 10
-271.456298946201
 20
-7.112630258765421
 30
0
 11
-271.456298946201
 21
10.38736974123458
 31
0
  0
LINE
  8
1
 62
7
 10
-271.456298946201
 20
10.38736974123458
 30
0
 11
-271.456298946201
 21
17.88736974123458
 31
0
  0
LINE
  8
1
 62
7
 10
-265.056298946201
 20
10.38736974123458
 30
0
 11
-265.056298946201
 21
-2.887022245568687
 31
0
  0
LINE
  8
1
 62
7
 10
-271.456298946201
 20
25.38736974123458
 30
0
 11
-271.456298946201
 21
77.88736974123458
 31
0
  0
LINE
  8
1
 62
3
 10
-245.056298946201
 20
21.08736974123451
 30
0
 11
-258.856298946201
 21
21.08736974123451
 31
0
  0
LINE
  8
1
 62
3
 10
-245.056298946201
 20
14.68736974123453
 30
0
 11
-258.856298946201
 21
14.68736974123453
 31
0
  0
LINE
  8
1
 62
7
 10
-271.456298946201
 20
17.88736974123458
 30
0
 11
-271.456298946201
 21
25.38736974123458
 31
0
  0
LINE
  8
1
 62
7
 10
-262.856298946201
 20
28.38736974123458
 30
0
 11
-262.856298946201
 21
25.88736974123458
 31
0
  0
LINE
  8
1
 62
7
 10
-296.1562989462012
 20
-0.1126302587654209
 30
0
 11
-296.1562989462012
 21
77.88736974123458
 31
0
  0
LINE
  8
1
 62
7
 10
-298.856298946201
 20
-0.1126302587654209
 30
0
 11
-296.1562989462012
 21
-0.1126302587654209
 31
0
  0
LINE
  8
1
 62
7
 10
-296.1562989462012
 20
-0.1126302587654209
 30
0
 11
-296.1562989462012
 21
-3.543147473013846
 31
0
  0
LINE
  8
1
 62
7
 10
-258.856298946201
 20
21.88736974123458
 30
0
 11
-258.856298946201
 21
13.88736974123458
 31
0
  0
LINE
  8
1
 62
7
 10
-265.056298946201
 20
137.8873697412346
 30
0
 11
-265.056298946201
 21
24.88736974123458
 31
0
  0
LINE
  8
1
 62
7
 10
-262.856298946201
 20
21.88736974123458
 30
0
 11
-262.856298946201
 21
9.887369741234579
 31
0
  0
LINE
  8
1
 62
7
 10
-262.856298946201
 20
9.887369741234579
 30
0
 11
-262.856298946201
 21
0.1970517861449253
 31
0
  0
LINE
  8
1
 62
7
 10
-265.056298946201
 20
157.3873697412345
 30
0
 11
-265.056298946201
 21
149.3873697412345
 31
0
  0
LINE
  8
1
 62
7
 10
-264.056298946201
 20
11.30312427968192
 30
0
 11
-265.056298946201
 21
11.30312427968192
 31
0
  0
LINE
  8
1
 62
7
 10
-265.056298946201
 20
18.420703074568
 30
0
 11
-264.056298946201
 21
18.420703074568
 31
0
  0
LINE
  8
1
 62
7
 10
-448.9381689526556
 20
218.3873697412345
 30
0
 11
-448.9381689526556
 21
162.3873697412345
 31
0
  0
LINE
  8
1
 62
7
 10
-446.4381689526556
 20
218.3873697412345
 30
0
 11
-446.4381689526556
 21
162.3503793963494
 31
0
  0
LINE
  8
1
 62
7
 10
-451.4381689526556
 20
218.3873697412345
 30
0
 11
-451.4381689526556
 21
162.3503793963494
 31
0
  0
LINE
  8
1
 62
7
 10
-170.9656776242272
 20
218.3873697412345
 30
0
 11
-170.9656776242272
 21
162.3873697412345
 31
0
  0
LINE
  8
1
 62
7
 10
-168.5656776242272
 20
218.3873697412345
 30
0
 11
-168.5656776242272
 21
162.3873697412345
 31
0
  0
LINE
  8
1
 62
7
 10
-287.7320007552032
 20
218.3873697412345
 30
0
 11
-287.7320007552032
 21
162.3873697412345
 31
0
  0
LINE
  8
1
 62
7
 10
-285.3320007552032
 20
218.3873697412345
 30
0
 11
-285.3320007552032
 21
162.3873697412345
 31
0
  0
LINE
  8
1
 62
7
 10
4.372410554582416
 20
218.3873697412345
 30
0
 11
4.372410554582416
 21
162.8873697412348
 31
0
  0
LINE
  8
1
 62
7
 10
6.872410554582416
 20
218.3873697412345
 30
0
 11
6.872410554582416
 21
162.8505970810667
 31
0
  0
LINE
  8
1
 62
7
 10
1.872410554582416
 20
218.3873697412345
 30
0
 11
1.872410554582416
 21
162.8505970810667
 31
0
  0
LINE
  8
1
 62
7
 10
-265.056298946201
 20
144.8873697412345
 30
0
 11
-263.856298946201
 21
144.8873697412345
 31
0
  0
LINE
  8
1
 62
3
  6
DASHDOT
 10
48.31479519635391
 20
103.2575173429956
 30
0
 11
64.89077900709572
 21
112.8276660582102
 31
0
  0
LINE
  8
1
 62
3
  6
DASHDOT
 10
4.372410554582416
 20
27.22412100521274
 30
0
 11
4.372410554582416
 21
8.335451086966714
 31
0
  0
LINE
  8
1
 62
3
  6
DASHDOT
 10
-56.7350088489186
 20
113.1677547833293
 30
0
 11
-39.67456103661601
 21
103.317900646401
 31
0
  0
LINE
  8
1
 62
3
 10
-306.856298946201
 20
77.88736974123458
 30
0
 11
-301.856298946201
 21
77.88736974123458
 31
0
  0
LINE
  8
1
 62
3
 10
-259.856298946201
 20
77.88736974123458
 30
0
 11
-254.856298946201
 21
77.88736974123458
 31
0
  0
LINE
  8
1
 62
3
 10
-190.089975815225
 20
77.88736974123458
 30
0
 11
-185.089975815225
 21
77.88736974123458
 31
0
  0
LINE
  8
1
 62
3
 10
-143.089975815225
 20
77.88736974123458
 30
0
 11
-138.089975815225
 21
77.88736974123458
 31
0
  0
LINE
  8
1
 62
3
  6
DASHDOT
 10
-153.6471454441958
 20
17.88736974123458
 30
0
 11
-126.652450170344
 21
17.88736974123458
 31
0
  0
LINE
  8
1
 62
3
  6
DASHDOT
 10
-243.0465379838476
 20
17.88736974123458
 30
0
 11
-266.504471449722
 21
17.88736974123458
 31
0
  0
LINE
  8
1
 62
3
  6
DASHDOT
 10
67.01181909583673
 20
140.5267782824889
 30
0
 11
76.44451799254273
 21
149.959477179195
 31
0
  0
LINE
  8
1
 62
3
  6
DASHDOT
 10
-67.46139173893579
 20
149.721172034753
 30
0
 11
-57.92388507671137
 21
140.1836653725284
 31
0
  0
LINE
  8
1
 62
3
  6
DASHDOT
 10
-68.08539065808998
 20
5.429568528562527
 30
0
 11
-57.919037402752
 21
15.59592178390051
 31
0
  0
LINE
  8
1
 62
3
  6
DASHDOT
 10
66.90216365635862
 20
15.35761663945857
 30
0
 11
76.64928584962073
 21
5.610494446196299
 31
0
  0
LINE
  8
1
 62
3
  6
DASHDOT
 10
-386.2987604114011
 20
140.5267782824889
 30
0
 11
-376.8660615146955
 21
149.959477179195
 31
0
  0
LINE
  8
1
 62
3
  6
DASHDOT
 10
-520.7719712461737
 20
149.7211720347527
 30
0
 11
-511.2344645839494
 21
140.1836653725284
 31
0
  0
LINE
  8
1
 62
3
  6
DASHDOT
 10
-521.395970165328
 20
5.429568528562299
 30
0
 11
-511.2296169099898
 21
15.59592178390051
 31
0
  0
LINE
  8
1
 62
3
 10
-301.856298946201
 20
145.0625139539567
 30
0
 11
-293.1562989462012
 21
145.0625139539567
 31
0
  0
LINE
  8
1
 62
3
 10
-301.856298946201
 20
10.71222552851259
 30
0
 11
-293.1562989462012
 21
10.71222552851259
 31
0
  0
ARC
  8
1
 62
7
 10
-173.089975815225
 20
127.8873697412346
 30
0
 40
7.999999999999906
 50
218.0475074536202
 51
270
  0
ARC
  8
1
 62
7
 10
-173.089975815225
 20
154.3873697412345
 30
0
 40
8
 50
90
 51
141.9524925463792
  0
ARC
  8
1
 62
7
 10
-173.089975815225
 20
1.387369741234579
 30
0
 40
7.99999999999992
 50
218.0475074536203
 51
270
  0
ARC
  8
1
 62
7
 10
-173.089975815225
 20
27.88736974123458
 30
0
 40
8
 50
90
 51
141.9524925463803
  0
ARC
  8
1
 62
7
 10
-146.1952444546652
 20
17.80622299522099
 30
0
 40
7.500000000000459
 50
211.5010215831528
 51
247.2963891268381
  0
ARC
  8
1
 62
7
 10
-146.1952444546652
 20
17.96851648724839
 30
0
 40
7.500000000000245
 50
112.7036108731626
 51
148.4989784168487
  0
ARC
  8
1
 62
7
 10
-448.9381689526556
 20
77.88736974123458
 30
0
 40
105
 50
42.02462757937724
 51
47.97537242062272
  0
ARC
  8
1
 62
7
 10
-448.9381689526556
 20
77.88736974123458
 30
0
 40
105
 50
132.0246275793773
 51
137.9753724206228
  0
ARC
  8
1
 62
7
 10
-448.9381689526556
 20
77.88736974123458
 30
0
 40
105
 50
222.0246275793772
 51
227.9753724206227
  0
ARC
  8
1
 62
7
 10
4.372410554582416
 20
77.88736974123469
 30
0
 40
105.0000000000001
 50
312.0246275793772
 51
317.9753724206228
  0
ARC
  8
1
 62
7
 10
4.372410554582416
 20
77.88736974123469
 30
0
 40
105
 50
222.0246275793773
 51
227.9753724206227
  0
ARC
  8
1
 62
7
 10
4.372410554584022
 20
77.8873697412363
 30
0
 40
105.0000000000001
 50
132.0246275793785
 51
137.975372420624
  0
ARC
  8
1
 62
7
 10
4.372410554581336
 20
77.88736974123577
 30
0
 40
105
 50
42.02462757937635
 51
47.97537242062198
  0
ARC
  8
1
 62
7
 10
92.70700174059522
 20
128.8873697412347
 30
0
 40
28.67018343059941
 50
210.0000000000002
 51
232.6998381686424
  0
ARC
  8
1
 62
7
 10
51.37241055458242
 20
77.88736974123458
 30
0
 40
37.00000000000015
 50
0
 51
49.64006324378073
  0
ARC
  8
1
 62
7
 10
49.20117196871104
 20
73.9653613175899
 30
0
 40
21.99999999999992
 50
355.0000000000001
 51
86.70031372287103
  0
ARC
  8
1
 62
7
 10
4.372410554582416
 20
77.88736974123469
 30
0
 40
84.00000000000011
 50
329.9999999999996
 51
0
  0
ARC
  8
1
 62
7
 10
4.372410554582416
 20
77.88736974123469
 30
0
 40
66.99999999999997
 50
329.9999999999998
 51
354.9999999999999
  0
ARC
  8
1
 62
7
 10
4.372410554582416
 20
77.88736974123469
 30
0
 40
49.49999999999992
 50
21.37528431144549
 51
30.00000000000006
  0
ARC
  8
1
 62
7
 10
4.372410554582416
 20
77.88736974123469
 30
0
 40
49.49999999999994
 50
30.00000000000006
 51
38.62471568855447
  0
ARC
  8
1
 62
7
 10
4.372410554582416
 20
77.88736974123469
 30
0
 40
66.99999999999984
 50
65.00000000000001
 51
90
  0
ARC
  8
1
 62
7
 10
4.372410554582416
 20
77.88736974123469
 30
0
 40
83.99999999999999
 50
59.99999999999999
 51
90
  0
ARC
  8
1
 62
7
 10
23.3902323329138
 20
118.6712201578839
 30
0
 40
21.99999999999989
 50
333.2996862771295
 51
64.99999999999987
  0
ARC
  8
1
 62
7
 10
27.87241055458242
 20
118.5905637191033
 30
0
 40
37.00000000000003
 50
10.35993675621951
 51
59.99999999999997
  0
ARC
  8
1
 62
7
 10
92.70700174059522
 20
128.8873697412347
 30
0
 40
28.67018343059941
 50
187.3001618313574
 51
210.0000000000002
  0
ARC
  8
1
 62
7
 10
4.372410554582217
 20
-24.11263025876542
 30
0
 40
28.67018343059947
 50
90
 51
112.6998381686424
  0
ARC
  8
1
 62
7
 10
-19.12758944541758
 20
37.18417576336617
 30
0
 40
37.00000000000011
 50
239.9999999999992
 51
289.6400632437802
  0
ARC
  8
1
 62
7
 10
-21.4385290812146
 20
41.02552774822993
 30
0
 40
22.00000000000015
 50
234.9999999999993
 51
326.700313722871
  0
ARC
  8
1
 62
7
 10
4.372410554582416
 20
77.88736974123469
 30
0
 40
84.00000000000003
 50
210
 51
239.9999999999996
  0
ARC
  8
1
 62
7
 10
4.372410554582416
 20
77.88736974123469
 30
0
 40
67.00000000000028
 50
210
 51
234.9999999999999
  0
ARC
  8
1
 62
7
 10
4.372410554582416
 20
77.88736974123469
 30
0
 40
49.50000000000011
 50
261.375284311446
 51
270
  0
ARC
  8
1
 62
7
 10
4.372410554582416
 20
77.88736974123469
 30
0
 40
49.50000000000013
 50
270
 51
278.6247156885544
  0
ARC
  8
1
 62
7
 10
4.372410554582416
 20
77.88736974123469
 30
0
 40
67
 50
304.9999999999998
 51
329.9999999999998
  0
ARC
  8
1
 62
7
 10
4.372410554582416
 20
77.88736974123469
 30
0
 40
84.0000000000001
 50
299.9999999999997
 51
329.9999999999996
  0
ARC
  8
1
 62
7
 10
30.18335019037951
 20
41.02552774822993
 30
0
 40
21.99999999999988
 50
213.299686277129
 51
304.9999999999994
  0
ARC
  8
1
 62
7
 10
27.87241055458242
 20
37.18417576336617
 30
0
 40
37.00000000000018
 50
250.3599367562194
 51
299.9999999999993
  0
ARC
  8
1
 62
7
 10
4.372410554582217
 20
-24.11263025876542
 30
0
 40
28.67018343059947
 50
67.30016183135726
 51
90
  0
ARC
  8
1
 62
7
 10
-83.96218063143039
 20
128.8873697412347
 30
0
 40
28.67018343059939
 50
307.3001618313576
 51
329.9999999999998
  0
ARC
  8
1
 62
7
 10
-42.62758944541758
 20
77.88736974123469
 30
0
 40
37.00000000000003
 50
130.3599367562194
 51
180
  0
ARC
  8
1
 62
7
 10
-40.45635085954621
 20
73.9653613175899
 30
0
 40
22.00000000000017
 50
93.29968627712897
 51
184.999999999999
  0
ARC
  8
1
 62
7
 10
4.372410554582416
 20
77.88736974123469
 30
0
 40
84.00000000000003
 50
180
 51
210
  0
ARC
  8
1
 62
7
 10
4.372410554582416
 20
77.88736974123469
 30
0
 40
67.00000000000027
 50
184.9999999999998
 51
210
  0
ARC
  8
1
 62
7
 10
4.372410554582416
 20
77.88736974123469
 30
0
 40
49.50000000000006
 50
150
 51
158.6247156885543
  0
ARC
  8
1
 62
7
 10
4.372410554582416
 20
77.88736974123469
 30
0
 40
49.50000000000014
 50
141.3752843114457
 51
150
  0
ARC
  8
1
 62
7
 10
4.372410554582416
 20
77.88736974123469
 30
0
 40
66.9999999999998
 50
90
 51
115
  0
ARC
  8
1
 62
7
 10
4.372410554582416
 20
77.88736974123469
 30
0
 40
84
 50
90
 51
119.9999999999998
  0
ARC
  8
1
 62
7
 10
-14.64541122374899
 20
118.6712201578839
 30
0
 40
22.00000000000002
 50
115
 51
206.7003137228703
  0
ARC
  8
1
 62
7
 10
-19.12758944541758
 20
118.5905637191033
 30
0
 40
37.00000000000006
 50
119.9999999999996
 51
169.6400632437807
  0
ARC
  8
1
 62
7
 10
-83.96218063143039
 20
128.8873697412347
 30
0
 40
28.67018343059937
 50
329.9999999999998
 51
352.6998381686424
  0
ARC
  8
1
 62
7
 10
-448.9381689526556
 20
77.88736974123458
 30
0
 40
84.5
 50
157.3801350519596
 51
180
  0
ARC
  8
1
 62
7
 10
-448.9381689526556
 20
77.88736974123458
 30
0
 40
84.5
 50
180
 51
202.6198649480404
  0
ARC
  8
1
 62
7
 10
-448.9381689526556
 20
77.88736974123458
 30
0
 40
84.49999999999997
 50
247.3801350519597
 51
292.6198649480405
  0
ARC
  8
1
 62
7
 10
-448.9381689526556
 20
77.88736974123458
 30
0
 40
84.50000000000001
 50
337.3801350519596
 51
22.61986494804044
  0
ARC
  8
1
 62
7
 10
-448.9381689526556
 20
77.88736974123458
 30
0
 40
84.49999999999992
 50
67.38013505195956
 51
112.6198649480404
  0
ARC
  8
1
 62
7
 10
4.372410554582416
 20
77.88736974123469
 30
0
 40
59.99999999999992
 50
123.3441522044558
 51
132.817301884587
  0
ARC
  8
1
 62
7
 10
4.372410554582416
 20
77.88736974123469
 30
0
 40
59.99999999999999
 50
243.3441522044557
 51
252.8173018845869
  0
ARC
  8
1
 62
7
 10
4.372410554582416
 20
77.88736974123469
 30
0
 40
59.99999999999999
 50
3.344152204455658
 51
12.81730188458685
  0
ARC
  8
1
 62
7
 10
68.37241055458242
 20
77.88736974123469
 30
0
 40
3.499999999999841
 50
61.13267403148389
 51
90
  0
ARC
  8
1
 62
7
 10
-27.62758944541758
 20
133.3129955834387
 30
0
 40
3.499999999999943
 50
181.132674031484
 51
210.000000000001
  0
ARC
  8
1
 62
7
 10
-27.62758944541758
 20
22.46174389903058
 30
0
 40
3.499999999999931
 50
301.1326740314886
 51
330.0000000000003
  0
ARC
  8
1
 62
7
 10
-27.62758944541758
 20
133.3129955834387
 30
0
 40
3.500000000000038
 50
29.99999999999964
 51
81.99113722979929
  0
ARC
  8
1
 62
7
 10
-27.62758944541758
 20
22.46174389903058
 30
0
 40
3.500000000000048
 50
150.0000000000004
 51
201.9911372297987
  0
ARC
  8
1
 62
7
 10
68.37241055458242
 20
77.88736974123469
 30
0
 40
3.5
 50
270
 51
321.9911372297977
  0
ARC
  8
1
 62
7
 10
-59.62758944541758
 20
77.88736974123469
 30
0
 40
3.5
 50
0
 51
90
  0
ARC
  8
1
 62
7
 10
-59.62758944541758
 20
77.88736974123469
 30
0
 40
3.5
 50
270
 51
0
  0
ARC
  8
1
 62
7
 10
4.372410554582416
 20
77.88736974123469
 30
0
 40
85
 50
62.35990517113941
 51
177.6400948288606
  0
ARC
  8
1
 62
7
 10
36.37241055458242
 20
22.46174389903058
 30
0
 40
3.499999999999961
 50
30.00000000000037
 51
120.0000000000001
  0
ARC
  8
1
 62
7
 10
36.37241055458242
 20
22.46174389903058
 30
0
 40
3.499999999999963
 50
120.0000000000001
 51
210.0000000000002
  0
ARC
  8
1
 62
7
 10
36.37241055458253
 20
133.3129955834387
 30
0
 40
3.500000000000038
 50
239.9999999999977
 51
329.9999999999997
  0
ARC
  8
1
 62
7
 10
36.37241055458253
 20
133.3129955834387
 30
0
 40
3.500000000000066
 50
150.0000000000006
 51
239.9999999999977
  0
ARC
  8
1
 62
7
 10
4.372410554582416
 20
77.88736974123469
 30
0
 40
84.99999999999997
 50
182.3599051711394
 51
297.6400948288606
  0
ARC
  8
1
 62
7
 10
4.372410554582416
 20
77.88736974123469
 30
0
 40
85.00000000000016
 50
302.3599051711394
 51
57.64009482886051
  0
ARC
  8
1
 62
7
 10
4.372410554582416
 20
77.88736974123469
 30
0
 40
84.49999999999994
 50
57.62612292080629
 51
62.3738770791937
  0
ARC
  8
1
 62
7
 10
4.372410554582416
 20
77.88736974123469
 30
0
 40
84.50000000000013
 50
177.6261229208063
 51
182.3738770791937
  0
ARC
  8
1
 62
7
 10
4.372410554582416
 20
77.88736974123469
 30
0
 40
84.50000000000016
 50
297.6261229208063
 51
302.3738770791936
  0
ARC
  8
1
 62
7
 10
4.372410554582416
 20
77.88736974123469
 30
0
 40
41.50000000000002
 50
244.837920961076
 51
355.162079038924
  0
ARC
  8
1
 62
7
 10
4.372410554582416
 20
77.88736974123469
 30
0
 40
41.50000000000004
 50
4.837920961075963
 51
115.162079038924
  0
ARC
  8
1
 62
7
 10
4.372410554582416
 20
77.88736974123469
 30
0
 40
41.50000000000008
 50
124.8379209610758
 51
235.1620790389241
  0
ARC
  8
1
 62
7
 10
4.372410554582416
 20
77.88736974123469
 30
0
 40
59.99999999999989
 50
287.1826981154131
 51
356.6558477955443
  0
ARC
  8
1
 62
7
 10
4.372410554582416
 20
77.88736974123469
 30
0
 40
60.00000000000004
 50
47.18269811541303
 51
116.6558477955444
  0
ARC
  8
1
 62
7
 10
4.372410554582416
 20
77.88736974123469
 30
0
 40
59.99999999999987
 50
167.1826981154131
 51
236.6558477955442
  0
ARC
  8
1
 62
7
 10
4.372410554582416
 20
77.88736974123469
 30
0
 40
42.00000000000003
 50
235.2198081528008
 51
244.7801918471993
  0
ARC
  8
1
 62
7
 10
4.372410554582416
 20
77.88736974123469
 30
0
 40
42.00000000000005
 50
355.2198081528009
 51
0
  0
ARC
  8
1
 62
7
 10
4.372410554582416
 20
77.88736974123469
 30
0
 40
42.00000000000006
 50
0
 51
4.780191847199152
  0
ARC
  8
1
 62
7
 10
4.372410554582416
 20
77.88736974123469
 30
0
 40
42.00000000000019
 50
115.2198081528009
 51
124.7801918471991
  0
ARC
  8
1
 62
7
 10
-448.9381689526556
 20
77.88736974123458
 30
0
 40
81.43051721424837
 50
343.3098431474638
 51
0
  0
ARC
  8
1
 62
7
 10
-448.9381689526556
 20
77.88736974123458
 30
0
 40
81.43051721424837
 50
0
 51
16.69015685253635
  0
ARC
  8
1
 62
7
 10
-448.9381689526556
 20
77.88736974123458
 30
0
 40
81.43051721424844
 50
253.3098431474636
 51
286.6901568525363
  0
ARC
  8
1
 62
7
 10
-448.9381689526556
 20
77.88736974123458
 30
0
 40
81.43051721424835
 50
163.3098431474639
 51
196.6901568525364
  0
ARC
  8
1
 62
7
 10
-448.9381689526556
 20
77.88736974123458
 30
0
 40
81.43051721424834
 50
73.30984314746368
 51
106.6901568525364
  0
ARC
  8
1
 62
7
 10
-289.856298946201
 20
154.3873697412345
 30
0
 40
8
 50
90
 51
141.9524925463807
  0
ARC
  8
1
 62
7
 10
-289.856298946201
 20
1.387369741234579
 30
0
 40
8.00000000000019
 50
218.0475074536189
 51
270
  0
ARC
  8
1
 62
3
  6
DASHDOT
 10
4.372410554582416
 20
77.88736974123469
 30
0
 40
59.99999999999996
 50
137.6662750336977
 51
161.6649108295021
  0
ARC
  8
1
 62
3
  6
DASHDOT
 10
4.372410554582416
 20
77.88736974123469
 30
0
 40
60.00000000000011
 50
259.2592012296665
 51
282.2235101944497
  0
ARC
  8
1
 62
3
  6
DASHDOT
 10
4.372410554582416
 20
77.88736974123469
 30
0
 40
60.00000000000004
 50
19.27224221981808
 51
41.49205684445048
  0
ARC
  8
1
 62
3
  6
DASHDOT
 10
4.372410554582416
 20
77.88736974123469
 30
0
 40
95.00000000000003
 50
38.83929209783295
 51
50.77476338888259
  0
ARC
  8
1
 62
3
  6
DASHDOT
 10
4.372410554582416
 20
77.88736974123469
 30
0
 40
94.9999999999999
 50
128.8228887980788
 51
140.666281167235
  0
ARC
  8
1
 62
3
  6
DASHDOT
 10
4.372410554582416
 20
77.88736974123469
 30
0
 40
95
 50
219.2313564329323
 51
231.1350404012986
  0
ARC
  8
1
 62
3
  6
DASHDOT
 10
4.372410554582416
 20
77.88736974123469
 30
0
 40
95.00000000000021
 50
308.7935179723949
 51
321.2446150213926
  0
ARC
  8
1
 62
3
  6
DASHDOT
 10
-448.9381689526556
 20
77.88736974123458
 30
0
 40
95.00000000000003
 50
128.8228887980788
 51
140.666281167235
  0
ARC
  8
1
 62
3
  6
DASHDOT
 10
-448.9381689526556
 20
77.88736974123458
 30
0
 40
94.99999999999994
 50
219.2313564329323
 51
231.1350404012985
  0
ARC
  8
1
 62
3
  6
DASHDOT
 10
-448.9381689526556
 20
77.88736974123458
 30
0
 40
94.99999999999994
 50
219.2313564329323
 51
231.1350404012985
  0
ARC
  8
1
 62
3
  6
DASHDOT
 10
-448.9381689526556
 20
77.88736974123458
 30
0
 40
95.00000000000001
 50
308.7935179723949
 51
321.2446150213926
  0
ARC
  8
1
 62
3
  6
DASHDOT
 10
-448.9381689526556
 20
77.88736974123458
 30
0
 40
94.99999999999997
 50
38.83929209783283
 51
50.77476338888262
  0
CIRCLE
  8
1
 62
7
 10
-448.9381689526556
 20
77.88736974123458
 30
0
 40
40
  0
CIRCLE
  8
1
 62
7
 10
-516.1133131653774
 20
145.0625139539566
 30
0
 40
4.249999999999943
  0
CIRCLE
  8
1
 62
7
 10
-516.1133131653776
 20
10.71222552851259
 30
0
 40
4.25
  0
CIRCLE
  8
1
 62
7
 10
-381.7630247399335
 20
10.71222552851259
 30
0
 40
4.25
  0
CIRCLE
  8
1
 62
7
 10
-381.7630247399334
 20
145.0625139539566
 30
0
 40
4.25
  0
CIRCLE
  8
1
 62
7
 10
71.54755476730443
 20
145.0625139539567
 30
0
 40
4.25
  0
CIRCLE
  8
1
 62
7
 10
71.54755476730443
 20
10.71222552851259
 30
0
 40
4.25
  0
CIRCLE
  8
1
 62
7
 10
-62.80273365813957
 20
10.71222552851259
 30
0
 40
4.25
  0
CIRCLE
  8
1
 62
7
 10
-62.80273365813957
 20
145.0625139539567
 30
0
 40
4.25
  0
CIRCLE
  8
1
 62
3
 10
56.33393478164882
 20
107.8873697412347
 30
0
 40
3
  0
CIRCLE
  8
1
 62
3
 10
4.372410554582416
 20
17.88736974123469
 30
0
 40
3
  0
CIRCLE
  8
1
 62
7
 10
56.33393478164882
 20
107.8873697412347
 30
0
 40
4
  0
CIRCLE
  8
1
 62
7
 10
4.372410554582416
 20
17.88736974123469
 30
0
 40
4
  0
CIRCLE
  8
1
 62
7
 10
56.33393478164882
 20
107.8873697412347
 30
0
 40
8
  0
CIRCLE
  8
1
 62
7
 10
4.372410554582416
 20
17.88736974123469
 30
0
 40
8.000000000000004
  0
CIRCLE
  8
1
 62
7
 10
69.75732854030753
 20
40.13736974123458
 30
0
 40
6.650000000000006
  0
CIRCLE
  8
1
 62
7
 10
-61.01250743114281
 20
40.13736974123469
 30
0
 40
6.650000000000041
  0
CIRCLE
  8
1
 62
3
 10
-47.58911367248402
 20
107.8873697412347
 30
0
 40
3
  0
CIRCLE
  8
1
 62
7
 10
-47.58911367248402
 20
107.8873697412347
 30
0
 40
4
  0
CIRCLE
  8
1
 62
7
 10
-47.58911367248402
 20
107.8873697412347
 30
0
 40
8
  0
CIRCLE
  8
1
 62
7
 10
4.372410554582416
 20
153.3873697412348
 30
0
 40
6.650000000000004
  0
CIRCLE
  8
1
 62
7
 10
4.372410554582416
 20
77.88736974123469
 30
0
 40
40.00000000000001
  0
TEXT
  8
1
 62
7
 10
-523.3603761299571
 20
261.1931416711499
 30
0
 40
8
  1
VBE 10
 41
0.8221655227352772
  7
SIMPLEX
  0
ENDSEC
  0
EOF
