  0
SECTION
  2
HEADER
  9
$ACADVER
  1
AC1009
  9
$INSBASE
 10
0.0
 20
0.0
 30
0.0
  9
$EXTMIN
 10
-68.0
 20
-82.5
 30
0.0
  9
$EXTMAX
 10
424.77370205355737
 20
136.80000000000001
 30
0.0
  9
$LIMMIN
 10
-68.0
 20
-82.5
  9
$LIMMAX
 10
418.0
 20
136.80000000000001
  9
$ORTHOMODE
 70
     0
  9
$REGENMODE
 70
     1
  9
$FILLMODE
 70
     1
  9
$QTEXTMODE
 70
     0
  9
$MIRRTEXT
 70
     1
  9
$DRAGMODE
 70
     2
  9
$LTSCALE
 40
1.0
  9
$OSMODE
 70
    37
  9
$ATTMODE
 70
     1
  9
$TEXTSIZE
 40
3.5
  9
$TRACEWID
 40
0.5
  9
$TEXTSTYLE
  7
STANDARD
  9
$CLAYER
  8
0
  9
$CELTYPE
  6
BYLAYER
  9
$CECOLOR
 62
   256
  9
$DIMSCALE
 40
1.0
  9
$DIMASZ
 40
0.18
  9
$DIMEXO
 40
0.0625
  9
$DIMDLI
 40
0.38
  9
$DIMRND
 40
0.0
  9
$DIMDLE
 40
0.0
  9
$DIMEXE
 40
0.18
  9
$DIMTP
 40
0.0
  9
$DIMTM
 40
0.0
  9
$DIMTXT
 40
0.18
  9
$DIMCEN
 40
0.09
  9
$DIMTSZ
 40
0.0
  9
$DIMTOL
 70
     0
  9
$DIMLIM
 70
     0
  9
$DIMTIH
 70
     1
  9
$DIMTOH
 70
     1
  9
$DIMSE1
 70
     0
  9
$DIMSE2
 70
     0
  9
$DIMTAD
 70
     0
  9
$DIMZIN
 70
     0
  9
$DIMBLK
  1

  9
$DIMASO
 70
     1
  9
$DIMSHO
 70
     1
  9
$DIMPOST
  1

  9
$DIMAPOST
  1

  9
$DIMALT
 70
     0
  9
$DIMALTD
 70
     2
  9
$DIMALTF
 40
25.399999999999999
  9
$DIMLFAC
 40
1.0
  9
$DIMTOFL
 70
     0
  9
$DIMTVP
 40
0.0
  9
$DIMTIX
 70
     0
  9
$DIMSOXD
 70
     0
  9
$DIMSAH
 70
     0
  9
$DIMBLK1
  1

  9
$DIMBLK2
  1

  9
$DIMSTYLE
  2
STANDARD
  9
$DIMCLRD
 70
     0
  9
$DIMCLRE
 70
     0
  9
$DIMCLRT
 70
     0
  9
$DIMTFAC
 40
1.0
  9
$DIMGAP
 40
0.09
  9
$LUNITS
 70
     2
  9
$LUPREC
 70
     4
  9
$SKETCHINC
 40
0.1
  9
$FILLETRAD
 40
2.0
  9
$AUNITS
 70
     0
  9
$AUPREC
 70
     0
  9
$MENU
  1
ACAD
  9
$ELEVATION
 40
0.0
  9
$PELEVATION
 40
0.0
  9
$THICKNESS
 40
0.0
  9
$LIMCHECK
 70
     0
  9
$BLIPMODE
 70
     0
  9
$CHAMFERA
 40
0.0
  9
$CHAMFERB
 40
0.0
  9
$SKPOLY
 70
     0
  9
$TDCREATE
 40
2452095.3607701389
  9
$TDUPDATE
 40
2452095.361175694
  9
$TDINDWG
 40
0.0004188657
  9
$TDUSRTIMER
 40
0.0004188657
  9
$USRTIMER
 70
     1
  9
$ANGBASE
 50
0.0
  9
$ANGDIR
 70
     0
  9
$PDMODE
 70
     0
  9
$PDSIZE
 40
0.0
  9
$PLINEWID
 40
0.0
  9
$COORDS
 70
     1
  9
$SPLFRAME
 70
     0
  9
$SPLINETYPE
 70
     6
  9
$SPLINESEGS
 70
     8
  9
$ATTDIA
 70
     0
  9
$ATTREQ
 70
     1
  9
$HANDLING
 70
 10241
  9
$HANDSEED
  5
147
  9
$SURFTAB1
 70
     6
  9
$SURFTAB2
 70
     6
  9
$SURFTYPE
 70
     6
  9
$SURFU
 70
     6
  9
$SURFV
 70
     6
  9
$UCSNAME
  2

  9
$UCSORG
 10
0.0
 20
0.0
 30
0.0
  9
$UCSXDIR
 10
1.0
 20
0.0
 30
0.0
  9
$UCSYDIR
 10
0.0
 20
1.0
 30
0.0
  9
$PUCSNAME
  2

  9
$PUCSORG
 10
0.0
 20
0.0
 30
0.0
  9
$PUCSXDIR
 10
1.0
 20
0.0
 30
0.0
  9
$PUCSYDIR
 10
0.0
 20
1.0
 30
0.0
  9
$USERI1
 70
     0
  9
$USERI2
 70
     0
  9
$USERI3
 70
     0
  9
$USERI4
 70
     0
  9
$USERI5
 70
     0
  9
$USERR1
 40
0.0
  9
$USERR2
 40
0.0
  9
$USERR3
 40
0.0
  9
$USERR4
 40
0.0
  9
$USERR5
 40
0.0
  9
$WORLDVIEW
 70
     1
  9
$SHADEDGE
 70
     3
  9
$SHADEDIF
 70
    70
  9
$TILEMODE
 70
     1
  9
$MAXACTVP
 70
    64
  9
$PLIMCHECK
 70
     0
  9
$PEXTMIN
 10
1.0000000000000000E+020
 20
1.0000000000000000E+020
 30
1.0000000000000000E+020
  9
$PEXTMAX
 10
-1.0000000000000000E+020
 20
-1.0000000000000000E+020
 30
-1.0000000000000000E+020
  9
$PLIMMIN
 10
0.0
 20
0.0
  9
$PLIMMAX
 10
12.0
 20
9.0
  9
$UNITMODE
 70
     0
  9
$VISRETAIN
 70
     1
  9
$PLINEGEN
 70
     0
  9
$PSLTSCALE
 70
     1
  0
ENDSEC
  0
SECTION
  2
TABLES
  0
TABLE
  2
VPORT
 70
     2
  0
VPORT
  2
*ACTIVE
 70
     0
 10
0.0
 20
0.0
 11
1.0
 21
1.0
 12
23.66868943697752
 22
125.3180928719398
 13
0.0
 23
0.0
 14
1.0
 24
1.0
 15
0.0
 25
0.0
 16
0.0
 26
0.0
 36
1.0
 17
0.0
 27
0.0
 37
0.0
 40
9.0000001250300556
 41
2.4144144144144142
 42
50.0
 43
0.0
 44
0.0
 50
0.0
 51
0.0
 71
     0
 72
   100
 73
     1
 74
     1
 75
     0
 76
     0
 77
     0
 78
     0
  0
ENDTAB
  0
TABLE
  2
LTYPE
 70
     9
  0
LTYPE
  2
CONTINUOUS
 70
     0
  3
Solid line
 72
    65
 73
     0
 40
0.0
  0
LTYPE
  2
BORDER
 70
     0
  3
__ __ . __ __ .
 72
    65
 73
     6
 40
22.381578947368421
 49
6.3947368421052611
 49
-3.1973684210526301
 49
6.3947368421052611
 49
-3.1973684210526301
 49
0.0
 49
-3.1973684210526301
  0
LTYPE
  2
CENTER
 70
     0
  3
____ _ ____ _
 72
    65
 73
     4
 40
25.578947368421041
 49
15.98684210526315
 49
-3.1973684210526301
 49
3.1973684210526301
 49
-3.1973684210526301
  0
LTYPE
  2
DASHDOT
 70
     0
  3
__ . __ . __ .
 72
    65
 73
     4
 40
12.789473684210529
 49
6.3947368421052611
 49
-3.1973684210526301
 49
0.0
 49
-3.1973684210526301
  0
LTYPE
  2
DASHED
 70
     0
  3
__ __ __ __ __
 72
    65
 73
     2
 40
9.5921052631578938
 49
6.3947368421052611
 49
-3.1973684210526301
  0
LTYPE
  2
DIVIDE
 70
     0
  3
__ . . __ . . 
 72
    65
 73
     6
 40
15.98684210526315
 49
6.3947368421052611
 49
-3.1973684210526301
 49
0.0
 49
-3.1973684210526301
 49
0.0
 49
-3.1973684210526301
  0
LTYPE
  2
DOT
 70
     0
  3
..............
 72
    65
 73
     4
 40
6.3947368421052611
 49
0.0
 49
-3.1973684210526301
 49
0.0
 49
-3.1973684210526301
  0
LTYPE
  2
HIDDEN
 70
     0
  3
_ _ _ _ _ _ _
 72
    65
 73
     2
 40
4.796052631578946
 49
3.1973684210526301
 49
-1.598684210526315
  0
LTYPE
  2
PHANTOM
 70
     0
  3
_____ _ _ _____ _ _ 
 72
    65
 73
     6
 40
31.973684210526311
 49
15.98684210526315
 49
-3.1973684210526301
 49
3.1973684210526301
 49
-3.1973684210526301
 49
3.1973684210526301
 49
-3.1973684210526301
  0
ENDTAB
  0
TABLE
  2
LAYER
 70
     2
  0
LAYER
  2
0
 70
     0
 62
     7
  6
CONTINUOUS
  0
LAYER
  2
1
 70
     0
 62
     7
  6
CONTINUOUS
  0
ENDTAB
  0
TABLE
  2
STYLE
 70
     4
  0
STYLE
  2
STANDARD
 70
     0
 40
0.0
 41
1.0
 50
0.0
 71
     0
 42
3.5
  3
txt
  4

  0
STYLE
  2
SIMPLEX
 70
     0
 40
0.0
 41
1.0
 50
0.0
 71
     0
 42
3.5
  3
simplex
  4

  0
STYLE
  2
COMPLEX
 70
     0
 40
0.0
 41
1.0
 50
0.0
 71
     0
 42
3.5
  3
complex
  4

  0
STYLE
  2
ITALIC
 70
     0
 40
0.0
 41
1.0
 50
0.0
 71
     0
 42
3.5
  3
italic
  4

  0
ENDTAB
  0
TABLE
  2
VIEW
 70
     0
  0
ENDTAB
  0
TABLE
  2
UCS
 70
     0
  0
ENDTAB
  0
TABLE
  2
APPID
 70
     1
  0
APPID
  2
ACAD
 70
     0
  0
ENDTAB
  0
TABLE
  2
DIMSTYLE
 70
     1
  0
DIMSTYLE
  2
STANDARD
 70
     0
  3

  4

  5

  6

  7

 40
1.0
 41
0.18
 42
0.0625
 43
0.38
 44
0.18
 45
0.0
 46
0.0
 47
0.0
 48
0.0
140
0.18
141
0.09
142
0.0
143
25.399999999999999
144
1.0
145
0.0
146
1.0
147
0.09
 71
     0
 72
     0
 73
     1
 74
     1
 75
     0
 76
     0
 77
     0
 78
     0
170
     0
171
     2
172
     0
173
     0
174
     0
175
     0
176
     0
177
     0
178
     0
  0
ENDTAB
  0
ENDSEC
  0
SECTION
  2
BLOCKS
  0
BLOCK
  8
0
  2
$MODEL_SPACE
 70
     0
 10
0.0
 20
0.0
 30
0.0
  3
$MODEL_SPACE
  1

  0
ENDBLK
  5
20
  8
0
  0
BLOCK
 67
     1
  8
0
  2
$PAPER_SPACE
 70
     0
 10
0.0
 20
0.0
 30
0.0
  3
$PAPER_SPACE
  1

  0
ENDBLK
  5
1C
 67
     1
  8
0
  0
ENDSEC
  0
SECTION
  2
ENTITIES
  0
LINE
  5
33
  8
1
 62
     3
 10
139.7000000000001
 20
-47.499999999999972
 30
0.0
 11
156.0000000000002
 21
-47.499999999999972
 31
0.0
  0
LINE
  5
34
  8
1
 62
     7
 10
137.90000000000001
 20
-47.499999999999972
 30
0.0
 11
138.7000000000003
 21
-47.499999999999972
 31
0.0
  0
LINE
  5
35
  8
1
 62
     7
 10
137.90000000000001
 20
68.000000000000028
 30
0.0
 11
137.90000000000001
 21
-67.999999999999972
 31
0.0
  0
LINE
  5
36
  8
1
 62
     7
 10
139.60000000000011
 20
65.500000000000028
 30
0.0
 11
139.60000000000011
 21
55.500000000000028
 31
0.0
  0
LINE
  5
37
  8
1
 62
     7
 10
140.4000000000002
 20
55.500000000000028
 30
0.0
 11
140.90000000000029
 21
55.500000000000028
 31
0.0
  0
LINE
  5
38
  8
1
 62
     7
 10
140.4000000000002
 20
65.500000000000028
 30
0.0
 11
140.90000000000029
 21
65.500000000000028
 31
0.0
  0
LINE
  5
39
  8
1
 62
     7
 10
142.60000000000019
 20
-44.499999999999972
 30
0.0
 11
152.40000000000009
 21
-44.499999999999972
 31
0.0
  0
LINE
  5
3A
  8
1
 62
     3
 10
153.0000000000002
 20
-49.899999999999942
 30
0.0
 11
142.60000000000019
 21
-49.899999999999942
 31
0.0
  0
LINE
  5
3B
  8
1
 62
     3
 10
153.0000000000002
 20
-45.09999999999998
 30
0.0
 11
142.60000000000019
 21
-45.09999999999998
 31
0.0
  0
LINE
  5
3C
  8
1
 62
     7
 10
152.40000000000009
 20
-44.499999999999972
 30
0.0
 11
152.40000000000009
 21
-50.499999999999972
 31
0.0
  0
LINE
  5
3D
  8
1
 62
     7
 10
152.40000000000009
 20
-50.499999999999972
 30
0.0
 11
142.60000000000019
 21
-50.499999999999972
 31
0.0
  0
LINE
  5
3E
  8
1
 62
     7
 10
153.0000000000002
 20
-49.899999999999942
 30
0.0
 11
152.40000000000009
 21
-50.499999999999972
 31
0.0
  0
LINE
  5
3F
  8
1
 62
     7
 10
153.0000000000002
 20
-45.09999999999998
 30
0.0
 11
153.0000000000002
 21
-49.899999999999942
 31
0.0
  0
LINE
  5
40
  8
1
 62
     7
 10
152.40000000000009
 20
-44.499999999999972
 30
0.0
 11
153.0000000000002
 21
-45.09999999999998
 31
0.0
  0
LINE
  5
41
  8
1
 62
     7
 10
139.7000000000003
 20
-53.999999999999972
 30
0.0
 11
142.60000000000019
 21
-53.999999999999972
 31
0.0
  0
LINE
  5
42
  8
1
 62
     7
 10
142.60000000000019
 20
-40.999999999999957
 30
0.0
 11
142.60000000000019
 21
-53.999999999999972
 31
0.0
  0
LINE
  5
43
  8
1
 62
     7
 10
139.7000000000003
 20
-40.999999999999957
 30
0.0
 11
142.60000000000019
 21
-40.999999999999957
 31
0.0
  0
LINE
  5
44
  8
1
 62
     7
 10
138.7000000000003
 20
-66.536725737242563
 30
0.0
 11
139.7000000000003
 21
-66.536725737242563
 31
0.0
  0
LINE
  5
45
  8
1
 62
     7
 10
138.90000000000001
 20
50.617293143642421
 30
0.0
 11
139.7000000000003
 21
47.631652497587368
 31
0.0
  0
LINE
  5
46
  8
1
 62
     7
 10
137.90000000000001
 20
50.485640646055103
 30
0.0
 11
138.7000000000003
 21
47.500000000000021
 31
0.0
  0
LINE
  5
47
  8
1
 62
     7
 10
138.90000000000001
 20
66.500000000000028
 30
0.0
 11
138.90000000000001
 21
50.617293143642421
 31
0.0
  0
LINE
  5
48
  8
1
 62
     7
 10
137.95885855344889
 20
54.500000000000021
 30
0.0
 11
138.90000000000001
 21
54.500000000000021
 31
0.0
  0
LINE
  5
49
  8
1
 62
     7
 10
141.7000000000003
 20
64.700000000000017
 30
0.0
 11
141.7000000000003
 21
56.300000000000011
 31
0.0
  0
LINE
  5
4A
  8
1
 62
     7
 10
137.90000000000001
 20
66.500000000000028
 30
0.0
 11
138.90000000000001
 21
66.500000000000028
 31
0.0
  0
LINE
  5
4B
  8
1
 62
     7
 10
138.90000000000001
 20
65.500000000000028
 30
0.0
 11
139.60000000000011
 21
65.500000000000028
 31
0.0
  0
LINE
  5
4C
  8
1
 62
     7
 10
138.90000000000001
 20
55.500000000000028
 30
0.0
 11
139.60000000000011
 21
55.500000000000028
 31
0.0
  0
LINE
  5
4D
  8
1
 62
     7
 10
137.90000000000001
 20
-67.999999999999972
 30
0.0
 11
133.0
 21
-67.999999999999972
 31
0.0
  0
LINE
  5
4E
  8
1
 62
     7
 10
138.7000000000003
 20
47.500000000000021
 30
0.0
 11
138.7000000000003
 21
-66.536725737242563
 31
0.0
  0
LINE
  5
4F
  8
1
 62
     7
 10
137.90000000000001
 20
47.500000000000021
 30
0.0
 11
138.7000000000003
 21
47.500000000000021
 31
0.0
  0
LINE
  5
50
  8
1
 62
     7
 10
133.0
 20
68.000000000000028
 30
0.0
 11
137.90000000000001
 21
68.000000000000028
 31
0.0
  0
LINE
  5
51
  8
1
 62
     7
 10
133.0
 20
68.000000000000028
 30
0.0
 11
133.0
 21
-67.999999999999972
 31
0.0
  0
LINE
  5
52
  8
1
 62
     7
 10
139.7000000000003
 20
47.631652497587368
 30
0.0
 11
139.7000000000003
 21
-66.536725737242563
 31
0.0
  0
LINE
  5
53
  8
1
 62
     3
 10
139.7000000000003
 20
0.0
 30
0.0
 11
144.70000000000019
 21
0.0
 31
0.0
  0
LINE
  5
54
  8
1
 62
     7
 10
229.59999999999999
 20
65.500000000000028
 30
0.0
 11
229.59999999999999
 21
55.500000000000028
 31
0.0
  0
LINE
  5
55
  8
1
 62
     7
 10
230.4000000000002
 20
55.500000000000028
 30
0.0
 11
230.90000000000029
 21
55.500000000000028
 31
0.0
  0
LINE
  5
56
  8
1
 62
     7
 10
230.4000000000002
 20
65.500000000000028
 30
0.0
 11
230.90000000000029
 21
65.500000000000028
 31
0.0
  0
LINE
  5
57
  8
1
 62
     7
 10
228.7000000000003
 20
-44.499999999999972
 30
0.0
 11
242.4000000000002
 21
-44.499999999999972
 31
0.0
  0
LINE
  5
58
  8
1
 62
     3
 10
229.53923048454149
 20
-44.499999999999972
 30
0.0
 11
229.53923048454149
 21
-50.499999999999972
 31
0.0
  0
LINE
  5
59
  8
1
 62
     3
 10
229.53923048454149
 20
-49.899999999999942
 30
0.0
 11
228.7000000000003
 21
-50.384529946162033
 31
0.0
  0
LINE
  5
5A
  8
1
 62
     3
 10
243.00000000000011
 20
-49.899999999999942
 30
0.0
 11
229.53923048454149
 21
-49.899999999999942
 31
0.0
  0
LINE
  5
5B
  8
1
 62
     3
 10
229.53923048454149
 20
-45.09999999999998
 30
0.0
 11
228.7000000000003
 21
-44.615470053837932
 31
0.0
  0
LINE
  5
5C
  8
1
 62
     3
 10
243.00000000000011
 20
-45.09999999999998
 30
0.0
 11
229.53923048454149
 21
-45.09999999999998
 31
0.0
  0
LINE
  5
5D
  8
1
 62
     7
 10
242.4000000000002
 20
-44.499999999999972
 30
0.0
 11
242.4000000000002
 21
-50.499999999999972
 31
0.0
  0
LINE
  5
5E
  8
1
 62
     7
 10
242.4000000000002
 20
-50.499999999999972
 30
0.0
 11
228.7000000000003
 21
-50.499999999999972
 31
0.0
  0
LINE
  5
5F
  8
1
 62
     7
 10
243.00000000000011
 20
-49.899999999999942
 30
0.0
 11
242.4000000000002
 21
-50.499999999999972
 31
0.0
  0
LINE
  5
60
  8
1
 62
     7
 10
243.00000000000011
 20
-45.09999999999998
 30
0.0
 11
243.00000000000011
 21
-49.899999999999942
 31
0.0
  0
LINE
  5
61
  8
1
 62
     7
 10
242.4000000000002
 20
-44.499999999999972
 30
0.0
 11
243.00000000000011
 21
-45.09999999999998
 31
0.0
  0
LINE
  5
62
  8
1
 62
     7
 10
223.8000000000001
 20
-44.499999999999972
 30
0.0
 11
223.8000000000001
 21
-50.499999999999972
 31
0.0
  0
LINE
  5
63
  8
1
 62
     7
 10
228.0000000000002
 20
-52.749999999999972
 30
0.0
 11
228.0000000000002
 21
-42.249999999999957
 31
0.0
  0
LINE
  5
64
  8
1
 62
     7
 10
227.5000000000002
 20
-52.749999999999972
 30
0.0
 11
228.0000000000002
 21
-52.749999999999972
 31
0.0
  0
LINE
  5
65
  8
1
 62
     7
 10
227.5000000000002
 20
-42.249999999999957
 30
0.0
 11
227.5000000000002
 21
-52.749999999999972
 31
0.0
  0
LINE
  5
66
  8
1
 62
     7
 10
228.0000000000002
 20
-42.249999999999957
 30
0.0
 11
227.5000000000002
 21
-42.249999999999957
 31
0.0
  0
LINE
  5
67
  8
1
 62
     7
 10
228.0000000000002
 20
-42.499999999999957
 30
0.0
 11
228.7000000000003
 21
-42.499999999999957
 31
0.0
  0
LINE
  5
68
  8
1
 62
     7
 10
228.7000000000003
 20
-52.499999999999972
 30
0.0
 11
228.0
 21
-52.499999999999972
 31
0.0
  0
LINE
  5
69
  8
1
 62
     7
 10
228.69999999999999
 20
-58.281226189436751
 30
0.0
 11
229.69999999999999
 21
-58.281226189436751
 31
0.0
  0
LINE
  5
6A
  8
1
 62
     7
 10
229.7000000000003
 20
-53.999999999999972
 30
0.0
 11
232.60000000000031
 21
-53.999999999999972
 31
0.0
  0
LINE
  5
6B
  8
1
 62
     7
 10
232.60000000000031
 20
-50.499999999999972
 30
0.0
 11
232.60000000000031
 21
-53.999999999999972
 31
0.0
  0
LINE
  5
6C
  8
1
 62
     7
 10
232.60000000000031
 20
-40.999999999999957
 30
0.0
 11
232.60000000000031
 21
-44.499999999999972
 31
0.0
  0
LINE
  5
6D
  8
1
 62
     7
 10
229.7000000000003
 20
-40.999999999999957
 30
0.0
 11
232.60000000000031
 21
-40.999999999999957
 31
0.0
  0
LINE
  5
6E
  8
1
 62
     7
 10
229.69999999999999
 20
-50.5
 30
0.0
 11
229.7000000000003
 21
-66.536725737242563
 31
0.0
  0
LINE
  5
6F
  8
1
 62
     7
 10
227.90000000000001
 20
-52.749999999999972
 30
0.0
 11
227.90000000000001
 21
-67.999999999999972
 31
0.0
  0
LINE
  5
70
  8
1
 62
     7
 10
223.0
 20
-53.499999999999972
 30
0.0
 11
227.90000000000001
 21
-53.499999999999972
 31
0.0
  0
LINE
  5
71
  8
1
 62
     7
 10
223.0
 20
-41.499999999999957
 30
0.0
 11
228.69999999999999
 21
-41.499999999999957
 31
0.0
  0
LINE
  5
72
  8
1
 62
     7
 10
228.69999999999999
 20
-38.499999999999957
 30
0.0
 11
229.69999999999999
 21
-38.499999999999957
 31
0.0
  0
LINE
  5
73
  8
1
 62
     3
 10
220.8000000000001
 20
-47.499999999999972
 30
0.0
 11
246.0000000000002
 21
-47.499999999999972
 31
0.0
  0
LINE
  5
74
  8
1
 62
     7
 10
228.7000000000003
 20
-66.536725737242563
 30
0.0
 11
229.7000000000003
 21
-66.536725737242563
 31
0.0
  0
LINE
  5
75
  8
1
 62
     7
 10
228.90000000000001
 20
50.617293143642421
 30
0.0
 11
229.7000000000003
 21
47.631652497587368
 31
0.0
  0
LINE
  5
76
  8
1
 62
     7
 10
227.90000000000001
 20
50.485640646055103
 30
0.0
 11
228.7000000000003
 21
47.500000000000021
 31
0.0
  0
LINE
  5
77
  8
1
 62
     7
 10
228.90000000000001
 20
66.500000000000028
 30
0.0
 11
228.90000000000001
 21
50.617293143642421
 31
0.0
  0
LINE
  5
78
  8
1
 62
     7
 10
227.95885855344889
 20
54.500000000000021
 30
0.0
 11
228.90000000000001
 21
54.500000000000021
 31
0.0
  0
LINE
  5
79
  8
1
 62
     7
 10
227.90000000000001
 20
57.500000000000028
 30
0.0
 11
227.90000000000001
 21
47.500000000000021
 31
0.0
  0
LINE
  5
7A
  8
1
 62
     7
 10
231.7000000000003
 20
64.700000000000017
 30
0.0
 11
231.7000000000003
 21
56.300000000000011
 31
0.0
  0
LINE
  5
7B
  8
1
 62
     7
 10
226.5
 20
57.500000000000028
 30
0.0
 11
228.90000000000001
 21
57.500000000000028
 31
0.0
  0
LINE
  5
7C
  8
1
 62
     7
 10
226.5
 20
63.500000000000028
 30
0.0
 11
228.90000000000001
 21
63.500000000000028
 31
0.0
  0
LINE
  5
7D
  8
1
 62
     7
 10
227.90000000000001
 20
66.500000000000028
 30
0.0
 11
228.90000000000001
 21
66.500000000000028
 31
0.0
  0
LINE
  5
7E
  8
1
 62
     7
 10
228.90000000000001
 20
65.500000000000028
 30
0.0
 11
229.59999999999999
 21
65.500000000000028
 31
0.0
  0
LINE
  5
7F
  8
1
 62
     7
 10
228.90000000000001
 20
55.500000000000028
 30
0.0
 11
229.59999999999999
 21
55.500000000000028
 31
0.0
  0
LINE
  5
80
  8
1
 62
     7
 10
223.0
 20
54.000000000000028
 30
0.0
 11
226.5
 21
57.500000000000028
 31
0.0
  0
LINE
  5
81
  8
1
 62
     7
 10
226.5
 20
63.500000000000028
 30
0.0
 11
226.5
 21
57.500000000000028
 31
0.0
  0
LINE
  5
82
  8
1
 62
     7
 10
223.0
 20
67.000000000000014
 30
0.0
 11
226.5
 21
63.500000000000028
 31
0.0
  0
LINE
  5
83
  8
1
 62
     7
 10
227.90000000000001
 20
-67.999999999999972
 30
0.0
 11
223.0
 21
-67.999999999999972
 31
0.0
  0
LINE
  5
84
  8
1
 62
     7
 10
228.7000000000003
 20
-32.999999999999957
 30
0.0
 11
223.0
 21
-32.999999999999957
 31
0.0
  0
LINE
  5
85
  8
1
 62
     7
 10
223.0
 20
33.0
 30
0.0
 11
228.7000000000003
 21
33.0
 31
0.0
  0
LINE
  5
86
  8
1
 62
     7
 10
228.7000000000003
 20
47.500000000000021
 30
0.0
 11
228.7000000000003
 21
-66.536725737242563
 31
0.0
  0
LINE
  5
87
  8
1
 62
     7
 10
227.90000000000001
 20
47.500000000000021
 30
0.0
 11
228.7000000000003
 21
47.500000000000021
 31
0.0
  0
LINE
  5
88
  8
1
 62
     7
 10
227.90000000000001
 20
68.000000000000028
 30
0.0
 11
227.90000000000001
 21
63.500000000000028
 31
0.0
  0
LINE
  5
89
  8
1
 62
     7
 10
223.0
 20
68.000000000000028
 30
0.0
 11
227.90000000000001
 21
68.000000000000028
 31
0.0
  0
LINE
  5
8A
  8
1
 62
     7
 10
223.0
 20
68.000000000000028
 30
0.0
 11
223.0
 21
-67.999999999999972
 31
0.0
  0
LINE
  5
8B
  8
1
 62
     7
 10
229.7000000000003
 20
47.631652497587368
 30
0.0
 11
229.7000000000003
 21
-44.499999999999972
 31
0.0
  0
LINE
  5
8C
  8
1
 62
     7
 10
204.0
 20
67.349999999999994
 30
0.0
 11
222.80000000000001
 21
67.349999999999994
 31
0.0
  0
LINE
  5
8D
  8
1
 62
     7
 10
222.80000000000001
 20
33.5
 30
0.0
 11
204.0
 21
33.5
 31
0.0
  0
LINE
  5
8E
  8
1
 62
     7
 10
222.80000000000001
 20
-67.349999999999994
 30
0.0
 11
204.0
 21
-67.349999999999994
 31
0.0
  0
LINE
  5
8F
  8
1
 62
     7
 10
204.0
 20
-33.5
 30
0.0
 11
222.80000000000001
 21
-33.5
 31
0.0
  0
LINE
  5
90
  8
1
 62
     7
 10
222.80000000000001
 20
67.349999999999994
 30
0.0
 11
222.80000000000001
 21
-67.349999999999994
 31
0.0
  0
LINE
  5
91
  8
1
 62
     7
 10
197.59999999999991
 20
62.5
 30
0.0
 11
200.0
 21
62.5
 31
0.0
  0
LINE
  5
92
  8
1
 62
     7
 10
197.59999999999991
 20
32.5
 30
0.0
 11
200.0
 21
32.5
 31
0.0
  0
LINE
  5
93
  8
1
 62
     7
 10
197.59999999999991
 20
-32.5
 30
0.0
 11
200.0
 21
-32.5
 31
0.0
  0
LINE
  5
94
  8
1
 62
     7
 10
197.59999999999991
 20
-82.5
 30
0.0
 11
200.0
 21
-82.5
 31
0.0
  0
LINE
  5
95
  8
1
 62
     7
 10
197.59999999999991
 20
62.5
 30
0.0
 11
197.59999999999991
 21
-82.5
 31
0.0
  0
LINE
  5
96
  8
1
 62
     7
 10
200.0
 20
-82.5
 30
0.0
 11
200.0
 21
63.349999999999987
 31
0.0
  0
LINE
  5
97
  8
1
 62
     3
 10
192.59999999999991
 20
0.0
 30
0.0
 11
197.59999999999991
 21
0.0
 31
0.0
  0
LINE
  5
98
  8
1
 62
     7
 10
197.59999999999991
 20
-71.75
 30
0.0
 11
200.0
 21
-71.75
 31
0.0
  0
LINE
  5
99
  8
1
 62
     7
 10
200.0
 20
-78.25
 30
0.0
 11
197.59999999999991
 21
-78.25
 31
0.0
  0
LINE
  5
9A
  8
1
 62
     3
 10
194.59999999999991
 20
-75.0
 30
0.0
 11
203.0
 21
-75.0
 31
0.0
  0
LINE
  5
9B
  8
1
 62
     7
 10
62.5
 20
53.851648071345039
 30
0.0
 11
62.5
 21
-53.851648071345039
 31
0.0
  0
LINE
  5
9C
  8
1
 62
     7
 10
53.851648071345039
 20
-62.5
 30
0.0
 11
-53.851648071345039
 21
-62.5
 31
0.0
  0
LINE
  5
9D
  8
1
 62
     7
 10
-62.5
 20
-53.851648071345039
 30
0.0
 11
-62.5
 21
53.851648071345039
 31
0.0
  0
LINE
  5
9E
  8
1
 62
     7
 10
-53.851648071345039
 20
62.5
 30
0.0
 11
53.851648071345039
 21
62.5
 31
0.0
  0
LINE
  5
9F
  8
1
 62
     3
 10
-5.0
 20
0.0000000000000006
 30
0.0
 11
5.0
 21
0.0
 31
0.0
  0
LINE
  5
A0
  8
1
 62
     3
 10
-0.0000000000000009
 20
-5.0
 30
0.0
 11
0.0000000000000003
 21
5.0
 31
0.0
  0
LINE
  5
A1
  8
1
 62
     3
 10
57.452425971407003
 20
57.452425971406967
 30
0.0
 11
48.613591206575137
 21
48.613591206575137
 31
0.0
  0
LINE
  5
A2
  8
1
 62
     3
 10
-57.452425971406967
 20
57.452425971407003
 30
0.0
 11
-48.613591206575137
 21
48.613591206575137
 31
0.0
  0
LINE
  5
A3
  8
1
 62
     3
 10
-57.452425971407003
 20
-57.452425971406967
 30
0.0
 11
-48.613591206575137
 21
-48.613591206575137
 31
0.0
  0
LINE
  5
A4
  8
1
 62
     3
 10
57.452425971406967
 20
-57.452425971407003
 30
0.0
 11
48.613591206575137
 21
-48.613591206575137
 31
0.0
  0
LINE
  5
A5
  8
1
 62
     7
 10
412.5
 20
53.851648071345039
 30
0.0
 11
412.5
 21
26.790856649237639
 31
0.0
  0
LINE
  5
A6
  8
1
 62
     7
 10
403.85164807134493
 20
-62.5
 30
0.0
 11
376.79085664923753
 21
-62.5
 31
0.0
  0
LINE
  5
A7
  8
1
 62
     7
 10
287.5
 20
-53.851648071345039
 30
0.0
 11
287.5
 21
-26.790856649237639
 31
0.0
  0
LINE
  5
A8
  8
1
 62
     7
 10
296.14835192865502
 20
62.5
 30
0.0
 11
323.2091433507623
 21
62.5
 31
0.0
  0
LINE
  5
A9
  8
1
 62
     3
 10
345.0
 20
0.0000000000000006
 30
0.0
 11
355.0
 21
0.0
 31
0.0
  0
LINE
  5
AA
  8
1
 62
     3
 10
350.0
 20
-5.0
 30
0.0
 11
350.0
 21
5.0
 31
0.0
  0
LINE
  5
AB
  8
1
 62
     3
 10
407.45242597140702
 20
57.452425971406967
 30
0.0
 11
398.61359120657511
 21
48.613591206575137
 31
0.0
  0
LINE
  5
AC
  8
1
 62
     3
 10
292.54757402859292
 20
57.452425971407003
 30
0.0
 11
301.38640879342472
 21
48.613591206575137
 31
0.0
  0
LINE
  5
AD
  8
1
 62
     3
 10
292.54757402859292
 20
-57.452425971406967
 30
0.0
 11
301.38640879342472
 21
-48.613591206575137
 31
0.0
  0
LINE
  5
AE
  8
1
 62
     3
 10
407.45242597140702
 20
-57.452425971407003
 30
0.0
 11
398.61359120657511
 21
-48.613591206575137
 31
0.0
  0
LINE
  5
AF
  8
1
 62
     7
 10
376.79085664923753
 20
62.5
 30
0.0
 11
403.85164807134493
 21
62.5
 31
0.0
  0
LINE
  5
B0
  8
1
 62
     7
 10
412.5
 20
-26.790856649237622
 30
0.0
 11
412.5
 21
-53.851648071345039
 31
0.0
  0
LINE
  5
B1
  8
1
 62
     7
 10
323.2091433507623
 20
-62.5
 30
0.0
 11
296.14835192865502
 21
-62.5
 31
0.0
  0
LINE
  5
B2
  8
1
 62
     7
 10
287.5
 20
26.790856649237622
 30
0.0
 11
287.5
 21
53.851648071345039
 31
0.0
  0
LINE
  5
B3
  8
1
 62
     3
 10
300.63655198428683
 20
28.499999999999961
 30
0.0
 11
317.09103465619131
 21
18.999999999999961
 31
0.0
  0
LINE
  5
B4
  8
1
 62
     3
 10
382.9089653438088
 20
18.999999999999961
 30
0.0
 11
399.36344801571312
 21
28.499999999999961
 31
0.0
  0
LINE
  5
B5
  8
1
 62
     3
 10
350.0
 20
-57.0
 30
0.0
 11
350.0
 21
-37.999999999999957
 31
0.0
  0
LINE
  5
B6
  8
1
 62
     7
 10
205.75
 20
87.349999999999966
 30
0.0
 11
208.25
 21
87.349999999999966
 31
0.0
  0
LINE
  5
B7
  8
1
 62
     7
 10
208.25
 20
87.349999999999966
 30
0.0
 11
208.25
 21
67.349999999999994
 31
0.0
  0
LINE
  5
B8
  8
1
 62
     7
 10
205.75
 20
87.349999999999966
 30
0.0
 11
205.75
 21
67.349999999999994
 31
0.0
  0
LINE
  5
B9
  8
1
 62
     3
 10
206.375
 20
90.349999999999994
 30
0.0
 11
206.375
 21
87.349999999999966
 31
0.0
  0
LINE
  5
BA
  8
1
 62
     3
 10
207.0
 20
87.349999999999966
 30
0.0
 11
207.0
 21
90.349999999999994
 31
0.0
  0
LINE
  5
BB
  8
1
 62
     3
 10
207.62499999999989
 20
90.349999999999994
 30
0.0
 11
207.62499999999989
 21
87.349999999999966
 31
0.0
  0
LINE
  5
BC
  8
1
 62
     7
 10
-2.5
 20
87.349999999999966
 30
0.0
 11
2.5
 21
87.349999999999966
 31
0.0
  0
LINE
  5
BD
  8
1
 62
     7
 10
0.0
 20
87.349999999999966
 30
0.0
 11
0.0
 21
67.349999999999994
 31
0.0
  0
LINE
  5
BE
  8
1
 62
     7
 10
-2.5
 20
87.349999999999966
 30
0.0
 11
-2.5
 21
67.349999999999994
 31
0.0
  0
LINE
  5
BF
  8
1
 62
     3
 10
-1.875
 20
90.349999999999994
 30
0.0
 11
-1.875
 21
87.349999999999966
 31
0.0
  0
LINE
  5
C0
  8
1
 62
     3
 10
-1.25
 20
87.349999999999966
 30
0.0
 11
-1.25
 21
90.349999999999994
 31
0.0
  0
LINE
  5
C1
  8
1
 62
     3
 10
-0.625
 20
90.349999999999994
 30
0.0
 11
-0.625
 21
87.349999999999966
 31
0.0
  0
LINE
  5
C2
  8
1
 62
     3
 10
1.875
 20
87.349999999999966
 30
0.0
 11
1.875
 21
90.349999999999994
 31
0.0
  0
LINE
  5
C3
  8
1
 62
     3
 10
1.25
 20
90.349999999999994
 30
0.0
 11
1.25
 21
87.349999999999966
 31
0.0
  0
LINE
  5
C4
  8
1
 62
     3
 10
0.625
 20
87.349999999999966
 30
0.0
 11
0.625
 21
90.349999999999994
 31
0.0
  0
LINE
  5
C5
  8
1
 62
     7
 10
2.5
 20
67.349999999999994
 30
0.0
 11
2.5
 21
87.349999999999966
 31
0.0
  0
LINE
  5
C6
  8
1
 62
     7
 10
347.5
 20
87.349999999999966
 30
0.0
 11
352.49999999999989
 21
87.349999999999966
 31
0.0
  0
LINE
  5
C7
  8
1
 62
     7
 10
350.0
 20
87.349999999999966
 30
0.0
 11
350.0
 21
68.0
 31
0.0
  0
LINE
  5
C8
  8
1
 62
     7
 10
347.5
 20
87.349999999999966
 30
0.0
 11
347.5
 21
67.954028578149789
 31
0.0
  0
LINE
  5
C9
  8
1
 62
     3
 10
348.125
 20
90.349999999999994
 30
0.0
 11
348.125
 21
87.349999999999966
 31
0.0
  0
LINE
  5
CA
  8
1
 62
     3
 10
348.75
 20
87.349999999999966
 30
0.0
 11
348.75
 21
90.349999999999994
 31
0.0
  0
LINE
  5
CB
  8
1
 62
     3
 10
349.37499999999989
 20
90.349999999999994
 30
0.0
 11
349.37499999999989
 21
87.349999999999966
 31
0.0
  0
LINE
  5
CC
  8
1
 62
     3
 10
351.875
 20
87.349999999999966
 30
0.0
 11
351.875
 21
90.349999999999994
 31
0.0
  0
LINE
  5
CD
  8
1
 62
     3
 10
351.25
 20
90.349999999999994
 30
0.0
 11
351.25
 21
87.349999999999966
 31
0.0
  0
LINE
  5
CE
  8
1
 62
     3
 10
350.625
 20
87.349999999999966
 30
0.0
 11
350.625
 21
90.349999999999994
 31
0.0
  0
LINE
  5
CF
  8
1
 62
     7
 10
352.49999999999989
 20
67.954028578149789
 30
0.0
 11
352.49999999999989
 21
87.349999999999966
 31
0.0
  0
LINE
  5
D0
  8
1
 62
     3
 10
229.7000000000003
 20
0.0
 30
0.0
 11
234.7000000000003
 21
0.0
 31
0.0
  0
LINE
  5
D1
  8
1
 62
     7
 10
114.0
 20
67.349999999999994
 30
0.0
 11
132.80000000000001
 21
67.349999999999994
 31
0.0
  0
LINE
  5
D2
  8
1
 62
     7
 10
132.80000000000001
 20
-67.349999999999994
 30
0.0
 11
114.0
 21
-67.349999999999994
 31
0.0
  0
LINE
  5
D3
  8
1
 62
     7
 10
132.80000000000001
 20
67.349999999999994
 30
0.0
 11
132.80000000000001
 21
-67.349999999999994
 31
0.0
  0
LINE
  5
D4
  8
1
 62
     7
 10
107.59999999999999
 20
62.5
 30
0.0
 11
110.0
 21
62.5
 31
0.0
  0
LINE
  5
D5
  8
1
 62
     7
 10
107.59999999999999
 20
-82.5
 30
0.0
 11
110.0
 21
-82.5
 31
0.0
  0
LINE
  5
D6
  8
1
 62
     7
 10
107.59999999999999
 20
62.5
 30
0.0
 11
107.59999999999999
 21
-82.5
 31
0.0
  0
LINE
  5
D7
  8
1
 62
     7
 10
110.0
 20
-82.5
 30
0.0
 11
110.0
 21
63.349999999999987
 31
0.0
  0
LINE
  5
D8
  8
1
 62
     3
 10
102.59999999999999
 20
0.0
 30
0.0
 11
107.59999999999999
 21
0.0
 31
0.0
  0
LINE
  5
D9
  8
1
 62
     3
 10
104.59999999999999
 20
-75.0
 30
0.0
 11
113.0
 21
-75.0
 31
0.0
  0
LINE
  5
DA
  8
1
 62
     7
 10
115.7499999999999
 20
87.349999999999966
 30
0.0
 11
118.25
 21
87.349999999999966
 31
0.0
  0
LINE
  5
DB
  8
1
 62
     7
 10
118.25
 20
87.349999999999966
 30
0.0
 11
118.25
 21
67.349999999999994
 31
0.0
  0
LINE
  5
DC
  8
1
 62
     7
 10
115.7499999999999
 20
87.349999999999966
 30
0.0
 11
115.7499999999999
 21
67.349999999999994
 31
0.0
  0
LINE
  5
DD
  8
1
 62
     3
 10
116.375
 20
90.349999999999994
 30
0.0
 11
116.375
 21
87.349999999999966
 31
0.0
  0
LINE
  5
DE
  8
1
 62
     3
 10
117.0
 20
87.349999999999966
 30
0.0
 11
117.0
 21
90.349999999999994
 31
0.0
  0
LINE
  5
DF
  8
1
 62
     3
 10
117.625
 20
90.349999999999994
 30
0.0
 11
117.625
 21
87.349999999999966
 31
0.0
  0
ARC
  5
E0
  8
1
 62
     7
 10
228.33336471440401
 20
-47.212355802980341
 30
0.0
 40
5.5999999999999188
 50
215.95002072616981
 51
261.44173228264731
  0
ARC
  5
E1
  8
1
 62
     7
 10
228.33336471440401
 20
-47.787644197019652
 30
0.0
 40
5.5999999999999384
 50
98.558267717352692
 51
144.04997927382971
  0
ARC
  5
E2
  8
1
 62
     7
 10
350.0
 20
0.0
 30
0.0
 40
47.499999999999929
 50
165.722860468058
 51
254.27713953194191
  0
ARC
  5
E3
  8
1
 62
     7
 10
350.0
 20
0.0
 30
0.0
 40
47.499999999999993
 50
285.72286046805817
 51
14.277139531941829
  0
ARC
  5
E4
  8
1
 62
     7
 10
350.0
 20
0.0
 30
0.0
 40
47.500000000000021
 50
45.722860468058087
 51
134.2771395319418
  0
ARC
  5
E5
  8
1
 62
     7
 10
0.0
 20
0.0
 30
0.0
 40
82.5
 50
310.74905437747032
 51
319.25094562252963
  0
ARC
  5
E6
  8
1
 62
     7
 10
0.0
 20
0.0
 30
0.0
 40
82.5
 50
220.7490543774704
 51
229.2509456225296
  0
ARC
  5
E7
  8
1
 62
     7
 10
0.0
 20
0.0
 30
0.0
 40
82.5
 50
130.74905437747029
 51
139.25094562252951
  0
ARC
  5
E8
  8
1
 62
     7
 10
0.0
 20
0.0
 30
0.0
 40
82.5
 50
40.749054377470401
 51
49.25094562252962
  0
ARC
  5
E9
  8
1
 62
     3
 10
0.0
 20
0.0
 30
0.0
 40
75.0
 50
40.0
 51
50.0
  0
ARC
  5
EA
  8
1
 62
     3
 10
0.0
 20
0.0
 30
0.0
 40
75.0
 50
130.0
 51
140.0
  0
ARC
  5
EB
  8
1
 62
     3
 10
0.0
 20
0.0
 30
0.0
 40
75.000000000000014
 50
220.0
 51
230.0
  0
ARC
  5
EC
  8
1
 62
     3
 10
0.0
 20
0.0
 30
0.0
 40
75.000000000000014
 50
310.0
 51
320.0
  0
ARC
  5
ED
  8
1
 62
     7
 10
350.0
 20
0.0
 30
0.0
 40
82.499999999999957
 50
310.74905437747032
 51
319.25094562252963
  0
ARC
  5
EE
  8
1
 62
     7
 10
350.0
 20
0.0
 30
0.0
 40
82.5
 50
220.7490543774704
 51
229.25094562252971
  0
ARC
  5
EF
  8
1
 62
     7
 10
350.0
 20
0.0
 30
0.0
 40
82.499999999999957
 50
130.74905437747029
 51
139.25094562252951
  0
ARC
  5
F0
  8
1
 62
     7
 10
350.0
 20
0.0
 30
0.0
 40
82.5
 50
40.749054377470401
 51
49.250945622529642
  0
ARC
  5
F1
  8
1
 62
     3
 10
350.0
 20
0.0
 30
0.0
 40
74.999999999999915
 50
40.000000000000028
 51
50.000000000000043
  0
ARC
  5
F2
  8
1
 62
     3
 10
350.0
 20
0.0
 30
0.0
 40
74.999999999999957
 50
129.99999999999989
 51
140.0
  0
ARC
  5
F3
  8
1
 62
     3
 10
350.0
 20
0.0
 30
0.0
 40
74.999999999999915
 50
220.0
 51
230.0
  0
ARC
  5
F4
  8
1
 62
     3
 10
350.0
 20
0.0
 30
0.0
 40
74.999999999999972
 50
309.99999999999977
 51
319.99999999999977
  0
ARC
  5
F5
  8
1
 62
     7
 10
0.0
 20
0.0
 30
0.0
 40
67.349999999999994
 50
68.123340706513744
 51
111.8766592934862
  0
ARC
  5
F6
  8
1
 62
     7
 10
0.0
 20
0.0
 30
0.0
 40
67.349999999999994
 50
158.1233407065136
 51
201.87665929348631
  0
ARC
  5
F7
  8
1
 62
     7
 10
0.0
 20
0.0
 30
0.0
 40
67.349999999999994
 50
248.1233407065136
 51
291.87665929348628
  0
ARC
  5
F8
  8
1
 62
     7
 10
0.0
 20
0.0
 30
0.0
 40
67.349999999999994
 50
338.12334070651377
 51
21.876659293486259
  0
ARC
  5
F9
  8
1
 62
     7
 10
334.78574257733482
 20
32.627080333319412
 30
0.0
 40
17.99999999999995
 50
114.9999999999997
 51
211.1014122552603
  0
ARC
  5
FA
  8
1
 62
     7
 10
331.49999999999989
 20
32.04293994002424
 30
0.0
 40
30.0
 50
119.9999999999999
 51
175.61978746556429
  0
ARC
  5
FB
  8
1
 62
     7
 10
282.88303120670582
 20
38.75
 30
0.0
 40
19.21877381056332
 50
313.28329168614488
 51
346.71670831385552
  0
ARC
  5
FC
  8
1
 62
     7
 10
350.0
 20
0.0
 30
0.0
 40
67.000000000000014
 50
60.0
 51
119.9999999999999
  0
ARC
  5
FD
  8
1
 62
     7
 10
350.0
 20
0.0
 30
0.0
 40
54.0
 50
64.999999999999957
 51
114.9999999999999
  0
ARC
  5
FE
  8
1
 62
     7
 10
350.0
 20
0.0
 30
0.0
 40
38.500000000000021
 50
142.70271808465191
 51
157.29728191534801
  0
ARC
  5
FF
  8
1
 62
     7
 10
350.0
 20
0.0
 30
0.0
 40
53.999999999999943
 50
185.0
 51
235.0
  0
ARC
  5
100
  8
1
 62
     7
 10
350.0
 20
0.0
 30
0.0
 40
67.0
 50
180.0
 51
239.99999999999989
  0
ARC
  5
101
  8
1
 62
     7
 10
313.0
 20
-0.0000000000000284
 30
0.0
 40
30.000000000000011
 50
124.3802125344357
 51
180.0
  0
ARC
  5
102
  8
1
 62
     7
 10
314.13699086869713
 20
-3.1376067389157059
 30
0.0
 40
18.000000000000011
 50
88.898587744739643
 51
185.0
  0
ARC
  5
103
  8
1
 62
     7
 10
370.64875170863758
 20
-29.48947359440368
 30
0.0
 40
17.999999999999979
 50
208.8985877447397
 51
305.00000000000011
  0
ARC
  5
104
  8
1
 62
     7
 10
368.5
 20
-32.04293994002424
 30
0.0
 40
29.999999999999989
 50
244.3802125344356
 51
300.00000000000011
  0
ARC
  5
105
  8
1
 62
     7
 10
350.0
 20
0.0
 30
0.0
 40
67.000000000000071
 50
300.00000000000011
 51
359.99999999999977
  0
ARC
  5
106
  8
1
 62
     7
 10
350.0
 20
0.0
 30
0.0
 40
54.000000000000007
 50
305.0
 51
355.0
  0
ARC
  5
107
  8
1
 62
     7
 10
350.0
 20
0.0
 30
0.0
 40
38.499999999999993
 50
262.70271808465191
 51
277.29728191534792
  0
ARC
  5
108
  8
1
 62
     7
 10
350.0
 20
-77.500000000000028
 30
0.0
 40
19.21877381056326
 50
73.283291686144608
 51
106.71670831385551
  0
ARC
  5
109
  8
1
 62
     7
 10
331.49999999999989
 20
-32.04293994002424
 30
0.0
 40
30.00000000000005
 50
239.9999999999998
 51
295.61978746556412
  0
ARC
  5
10A
  8
1
 62
     7
 10
329.35124829136231
 20
-29.48947359440368
 30
0.0
 40
18.000000000000011
 50
235.0
 51
331.10141225526007
  0
ARC
  5
10B
  8
1
 62
     7
 10
365.21425742266518
 20
32.627080333319377
 30
0.0
 40
18.000000000000099
 50
328.89858774473981
 51
64.999999999999915
  0
ARC
  5
10C
  8
1
 62
     7
 10
368.5
 20
32.04293994002424
 30
0.0
 40
29.999999999999989
 50
4.3802125344355964
 51
60.0
  0
ARC
  5
10D
  8
1
 62
     7
 10
417.11696879329412
 20
38.749999999999957
 30
0.0
 40
19.218773810563359
 50
193.28329168614451
 51
226.71670831385529
  0
ARC
  5
10E
  8
1
 62
     7
 10
350.0
 20
0.0
 30
0.0
 40
38.500000000000057
 50
22.70271808465192
 51
37.29728191534786
  0
ARC
  5
10F
  8
1
 62
     7
 10
387.0
 20
-0.0000000000000284
 30
0.0
 40
30.0
 50
359.99999999999977
 51
55.619787465564201
  0
ARC
  5
110
  8
1
 62
     7
 10
385.86300913130282
 20
-3.137606738915736
 30
0.0
 40
18.000000000000011
 50
355.0
 51
91.101412255260186
  0
ARC
  5
111
  8
1
 62
     3
 10
350.0
 20
0.0
 30
0.0
 40
47.5
 50
17.500000000000011
 51
42.499999999999929
  0
ARC
  5
112
  8
1
 62
     3
 10
350.0
 20
0.0
 30
0.0
 40
47.500000000000057
 50
137.49999999999989
 51
162.49999999999989
  0
ARC
  5
113
  8
1
 62
     3
 10
350.0
 20
0.0
 30
0.0
 40
47.50000000000005
 50
257.49999999999989
 51
282.50000000000011
  0
ARC
  5
114
  8
1
 62
     7
 10
0.0
 20
0.0
 30
0.0
 40
68.0
 50
92.106937302047925
 51
113.20257305723629
  0
ARC
  5
115
  8
1
 62
     7
 10
0.0
 20
0.0
 30
0.0
 40
68.0
 50
156.79742694276359
 51
203.20257305723629
  0
ARC
  5
116
  8
1
 62
     7
 10
0.0
 20
0.0
 30
0.0
 40
68.0
 50
246.79742694276359
 51
293.20257305723629
  0
ARC
  5
117
  8
1
 62
     7
 10
0.0
 20
0.0
 30
0.0
 40
68.0
 50
336.79742694276359
 51
23.202573057236378
  0
ARC
  5
118
  8
1
 62
     7
 10
0.0
 20
0.0
 30
0.0
 40
68.0
 50
66.797426942763622
 51
87.893062697952061
  0
CIRCLE
  5
119
  8
1
 62
     7
 10
0.0
 20
0.0
 30
0.0
 40
32.5
  0
CIRCLE
  5
11A
  8
1
 62
     7
 10
53.033008588991059
 20
53.033008588991059
 30
0.0
 40
3.25
  0
CIRCLE
  5
11B
  8
1
 62
     7
 10
-53.033008588991059
 20
53.033008588991059
 30
0.0
 40
3.25
  0
CIRCLE
  5
11C
  8
1
 62
     7
 10
-53.033008588991059
 20
-53.033008588991052
 30
0.0
 40
3.25
  0
CIRCLE
  5
11D
  8
1
 62
     7
 10
53.033008588991052
 20
-53.033008588991059
 30
0.0
 40
3.25
  0
CIRCLE
  5
11E
  8
1
 62
     7
 10
403.03300858899098
 20
53.033008588991059
 30
0.0
 40
3.25
  0
CIRCLE
  5
11F
  8
1
 62
     7
 10
296.96699141100891
 20
53.033008588991059
 30
0.0
 40
3.25
  0
CIRCLE
  5
120
  8
1
 62
     7
 10
296.96699141100891
 20
-53.033008588991052
 30
0.0
 40
3.25
  0
CIRCLE
  5
121
  8
1
 62
     7
 10
403.03300858899098
 20
-53.033008588991059
 30
0.0
 40
3.25
  0
CIRCLE
  5
122
  8
1
 62
     7
 10
350.0
 20
0.0
 30
0.0
 40
68.0
  0
CIRCLE
  5
123
  8
1
 62
     7
 10
350.0
 20
0.0
 30
0.0
 40
33.0
  0
CIRCLE
  5
124
  8
1
 62
     7
 10
350.0
 20
60.5
 30
0.0
 40
5.0
  0
CIRCLE
  5
125
  8
1
 62
     7
 10
308.8637933202391
 20
23.75
 30
0.0
 40
6.5
  0
CIRCLE
  5
126
  8
1
 62
     7
 10
308.8637933202391
 20
23.75
 30
0.0
 40
3.0
  0
CIRCLE
  5
127
  8
1
 62
     3
 10
308.8637933202391
 20
23.75
 30
0.0
 40
2.5
  0
CIRCLE
  5
128
  8
1
 62
     7
 10
297.6054630710413
 20
-30.249999999999961
 30
0.0
 40
4.9999999999999636
  0
CIRCLE
  5
129
  8
1
 62
     7
 10
402.39453692895847
 20
-30.250000000000028
 30
0.0
 40
5.0000000000000728
  0
CIRCLE
  5
12A
  8
1
 62
     7
 10
350.0
 20
-47.500000000000021
 30
0.0
 40
6.499999999999992
  0
CIRCLE
  5
12B
  8
1
 62
     7
 10
391.1362066797609
 20
23.749999999999961
 30
0.0
 40
6.499999999999992
  0
CIRCLE
  5
12C
  8
1
 62
     7
 10
350.0
 20
-47.500000000000021
 30
0.0
 40
3.0000000000000431
  0
CIRCLE
  5
12D
  8
1
 62
     7
 10
391.1362066797609
 20
23.749999999999961
 30
0.0
 40
2.999999999999996
  0
CIRCLE
  5
12E
  8
1
 62
     3
 10
350.0
 20
-47.500000000000021
 30
0.0
 40
2.500000000000008
  0
CIRCLE
  5
12F
  8
1
 62
     3
 10
391.1362066797609
 20
23.749999999999961
 30
0.0
 40
2.4999999999999858
  0
ARC
  5
130
  8
1
 62
     7
 10
140.4000000000002
 20
56.300000000000011
 30
0.0
 40
0.8000000000000966
 50
180.0
 51
270.0
  0
ARC
  5
131
  8
1
 62
     7
 10
140.4000000000002
 20
64.700000000000017
 30
0.0
 40
0.8000000000000113
 50
90.0
 51
180.0
  0
ARC
  5
132
  8
1
 62
     7
 10
140.90000000000029
 20
64.700000000000017
 30
0.0
 40
0.8000000000000113
 50
0.0
 51
90.0
  0
ARC
  5
133
  8
1
 62
     7
 10
140.90000000000029
 20
56.300000000000011
 30
0.0
 40
0.799999999999983
 50
270.0
 51
0.0
  0
ARC
  5
134
  8
1
 62
     7
 10
230.4000000000002
 20
56.300000000000011
 30
0.0
 40
0.8000000000000966
 50
180.0
 51
270.0
  0
ARC
  5
135
  8
1
 62
     7
 10
230.4000000000002
 20
64.700000000000017
 30
0.0
 40
0.8000000000000113
 50
90.0
 51
180.0
  0
ARC
  5
136
  8
1
 62
     7
 10
230.90000000000029
 20
64.700000000000017
 30
0.0
 40
0.8000000000000113
 50
0.0
 51
90.0
  0
ARC
  5
137
  8
1
 62
     7
 10
230.90000000000029
 20
56.300000000000011
 30
0.0
 40
0.799999999999983
 50
270.0
 51
0.0
  0
ARC
  5
138
  8
1
 62
     7
 10
204.0
 20
63.349999999999987
 30
0.0
 40
4.0000000000000062
 50
90.0
 51
180.0
  0
ARC
  5
139
  8
1
 62
     7
 10
204.0
 20
37.5
 30
0.0
 40
4.0
 50
180.0
 51
270.0
  0
ARC
  5
13A
  8
1
 62
     7
 10
204.0
 20
-63.349999999999987
 30
0.0
 40
4.0
 50
180.0
 51
270.0
  0
ARC
  5
13B
  8
1
 62
     7
 10
204.0
 20
-37.5
 30
0.0
 40
4.0
 50
90.0
 51
180.0
  0
ARC
  5
13C
  8
1
 62
     7
 10
114.0
 20
63.349999999999987
 30
0.0
 40
4.0000000000000062
 50
90.0
 51
180.0
  0
ARC
  5
13D
  8
1
 62
     7
 10
114.0
 20
-63.349999999999987
 30
0.0
 40
4.0
 50
180.0
 51
270.0
  0
TEXT
  5
13E
  8
1
 62
     7
 10
0.0
 20
130.80000000000001
 30
0.0
 40
6.0
  1
VBE 5
 41
0.9
  7
SIMPLEX
  0
ENDSEC
  0
EOF
