  0
SECTION
  2
HEADER
  9
$ACADVER
  1
AC1009
  9
$INSBASE
 10
0.0
 20
0.0
 30
0.0
  9
$EXTMIN
 10
-103.6474069424201
 20
-329.3055178036729
 30
0.0
  9
$EXTMAX
 10
269.34265413793338
 20
-121.2970452147688
 30
0.0
  9
$LIMMIN
 10
-103.6474069424201
 20
-329.3055178036729
  9
$LIMMAX
 10
262.56895208437612
 20
-121.2970452147688
  9
$ORTHOMODE
 70
     0
  9
$REGENMODE
 70
     1
  9
$FILLMODE
 70
     1
  9
$QTEXTMODE
 70
     0
  9
$MIRRTEXT
 70
     1
  9
$DRAGMODE
 70
     2
  9
$LTSCALE
 40
1.0
  9
$OSMODE
 70
    37
  9
$ATTMODE
 70
     1
  9
$TEXTSIZE
 40
3.5
  9
$TRACEWID
 40
0.5
  9
$TEXTSTYLE
  7
STANDARD
  9
$CLAYER
  8
0
  9
$CELTYPE
  6
BYLAYER
  9
$CECOLOR
 62
   256
  9
$DIMSCALE
 40
1.0
  9
$DIMASZ
 40
0.18
  9
$DIMEXO
 40
0.0625
  9
$DIMDLI
 40
0.38
  9
$DIMRND
 40
0.0
  9
$DIMDLE
 40
0.0
  9
$DIMEXE
 40
0.18
  9
$DIMTP
 40
0.0
  9
$DIMTM
 40
0.0
  9
$DIMTXT
 40
0.18
  9
$DIMCEN
 40
0.09
  9
$DIMTSZ
 40
0.0
  9
$DIMTOL
 70
     0
  9
$DIMLIM
 70
     0
  9
$DIMTIH
 70
     1
  9
$DIMTOH
 70
     1
  9
$DIMSE1
 70
     0
  9
$DIMSE2
 70
     0
  9
$DIMTAD
 70
     0
  9
$DIMZIN
 70
     0
  9
$DIMBLK
  1

  9
$DIMASO
 70
     1
  9
$DIMSHO
 70
     1
  9
$DIMPOST
  1

  9
$DIMAPOST
  1

  9
$DIMALT
 70
     0
  9
$DIMALTD
 70
     2
  9
$DIMALTF
 40
25.399999999999999
  9
$DIMLFAC
 40
1.0
  9
$DIMTOFL
 70
     0
  9
$DIMTVP
 40
0.0
  9
$DIMTIX
 70
     0
  9
$DIMSOXD
 70
     0
  9
$DIMSAH
 70
     0
  9
$DIMBLK1
  1

  9
$DIMBLK2
  1

  9
$DIMSTYLE
  2
STANDARD
  9
$DIMCLRD
 70
     0
  9
$DIMCLRE
 70
     0
  9
$DIMCLRT
 70
     0
  9
$DIMTFAC
 40
1.0
  9
$DIMGAP
 40
0.09
  9
$LUNITS
 70
     2
  9
$LUPREC
 70
     4
  9
$SKETCHINC
 40
0.1
  9
$FILLETRAD
 40
2.0
  9
$AUNITS
 70
     0
  9
$AUPREC
 70
     0
  9
$MENU
  1
ACAD
  9
$ELEVATION
 40
0.0
  9
$PELEVATION
 40
0.0
  9
$THICKNESS
 40
0.0
  9
$LIMCHECK
 70
     0
  9
$BLIPMODE
 70
     0
  9
$CHAMFERA
 40
0.0
  9
$CHAMFERB
 40
0.0
  9
$SKPOLY
 70
     0
  9
$TDCREATE
 40
2452095.4237546292
  9
$TDUPDATE
 40
2452095.4246871518
  9
$TDINDWG
 40
0.0009414352
  9
$TDUSRTIMER
 40
0.0009414352
  9
$USRTIMER
 70
     1
  9
$ANGBASE
 50
0.0
  9
$ANGDIR
 70
     0
  9
$PDMODE
 70
     0
  9
$PDSIZE
 40
0.0
  9
$PLINEWID
 40
0.0
  9
$COORDS
 70
     1
  9
$SPLFRAME
 70
     0
  9
$SPLINETYPE
 70
     6
  9
$SPLINESEGS
 70
     8
  9
$ATTDIA
 70
     0
  9
$ATTREQ
 70
     1
  9
$HANDLING
 70
 10241
  9
$HANDSEED
  5
14C
  9
$SURFTAB1
 70
     6
  9
$SURFTAB2
 70
     6
  9
$SURFTYPE
 70
     6
  9
$SURFU
 70
     6
  9
$SURFV
 70
     6
  9
$UCSNAME
  2

  9
$UCSORG
 10
0.0
 20
0.0
 30
0.0
  9
$UCSXDIR
 10
1.0
 20
0.0
 30
0.0
  9
$UCSYDIR
 10
0.0
 20
1.0
 30
0.0
  9
$PUCSNAME
  2

  9
$PUCSORG
 10
0.0
 20
0.0
 30
0.0
  9
$PUCSXDIR
 10
1.0
 20
0.0
 30
0.0
  9
$PUCSYDIR
 10
0.0
 20
1.0
 30
0.0
  9
$USERI1
 70
     0
  9
$USERI2
 70
     0
  9
$USERI3
 70
     0
  9
$USERI4
 70
     0
  9
$USERI5
 70
     0
  9
$USERR1
 40
0.0
  9
$USERR2
 40
0.0
  9
$USERR3
 40
0.0
  9
$USERR4
 40
0.0
  9
$USERR5
 40
0.0
  9
$WORLDVIEW
 70
     1
  9
$SHADEDGE
 70
     3
  9
$SHADEDIF
 70
    70
  9
$TILEMODE
 70
     1
  9
$MAXACTVP
 70
    64
  9
$PLIMCHECK
 70
     0
  9
$PEXTMIN
 10
1.0000000000000000E+020
 20
1.0000000000000000E+020
 30
1.0000000000000000E+020
  9
$PEXTMAX
 10
-1.0000000000000000E+020
 20
-1.0000000000000000E+020
 30
-1.0000000000000000E+020
  9
$PLIMMIN
 10
0.0
 20
0.0
  9
$PLIMMAX
 10
12.0
 20
9.0
  9
$UNITMODE
 70
     0
  9
$VISRETAIN
 70
     1
  9
$PLINEGEN
 70
     0
  9
$PSLTSCALE
 70
     1
  0
ENDSEC
  0
SECTION
  2
TABLES
  0
TABLE
  2
VPORT
 70
     2
  0
VPORT
  2
*ACTIVE
 70
     0
 10
0.0
 20
0.0
 11
1.0
 21
1.0
 12
-83.016928032901419
 22
-129.11867161063441
 13
0.0
 23
0.0
 14
1.0
 24
1.0
 15
0.0
 25
0.0
 16
0.0
 26
0.0
 36
1.0
 17
0.0
 27
0.0
 37
0.0
 40
9.0000003825230124
 41
3.0569948186528491
 42
50.0
 43
0.0
 44
0.0
 50
0.0
 51
0.0
 71
     0
 72
   100
 73
     1
 74
     1
 75
     0
 76
     0
 77
     0
 78
     0
  0
ENDTAB
  0
TABLE
  2
LTYPE
 70
     9
  0
LTYPE
  2
CONTINUOUS
 70
     0
  3
Solid line
 72
    65
 73
     0
 40
0.0
  0
LTYPE
  2
BORDER
 70
     0
  3
__ __ . __ __ .
 72
    65
 73
     6
 40
16.865227060444571
 49
4.8186363029841619
 49
-2.4093181514920801
 49
4.8186363029841619
 49
-2.4093181514920801
 49
0.0
 49
-2.4093181514920801
  0
LTYPE
  2
CENTER
 70
     0
  3
____ _ ____ _
 72
    65
 73
     4
 40
19.27454521193664
 49
12.046590757460409
 49
-2.4093181514920801
 49
2.4093181514920801
 49
-2.4093181514920801
  0
LTYPE
  2
DASHDOT
 70
     0
  3
__ . __ . __ .
 72
    65
 73
     4
 40
9.6372726059683256
 49
4.8186363029841619
 49
-2.4093181514920801
 49
0.0
 49
-2.4093181514920801
  0
LTYPE
  2
DASHED
 70
     0
  3
__ __ __ __ __
 72
    65
 73
     2
 40
7.2279544544762437
 49
4.8186363029841619
 49
-2.4093181514920801
  0
LTYPE
  2
DIVIDE
 70
     0
  3
__ . . __ . . 
 72
    65
 73
     6
 40
12.046590757460409
 49
4.8186363029841619
 49
-2.4093181514920801
 49
0.0
 49
-2.4093181514920801
 49
0.0
 49
-2.4093181514920801
  0
LTYPE
  2
DOT
 70
     0
  3
..............
 72
    65
 73
     4
 40
4.8186363029841619
 49
0.0
 49
-2.4093181514920801
 49
0.0
 49
-2.4093181514920801
  0
LTYPE
  2
HIDDEN
 70
     0
  3
_ _ _ _ _ _ _
 72
    65
 73
     2
 40
3.6139772272381219
 49
2.4093181514920801
 49
-1.2046590757460409
  0
LTYPE
  2
PHANTOM
 70
     0
  3
_____ _ _ _____ _ _ 
 72
    65
 73
     6
 40
24.093181514920818
 49
12.046590757460409
 49
-2.4093181514920801
 49
2.4093181514920801
 49
-2.4093181514920801
 49
2.4093181514920801
 49
-2.4093181514920801
  0
ENDTAB
  0
TABLE
  2
LAYER
 70
     2
  0
LAYER
  2
0
 70
     0
 62
     7
  6
CONTINUOUS
  0
LAYER
  2
1
 70
     0
 62
     7
  6
CONTINUOUS
  0
ENDTAB
  0
TABLE
  2
STYLE
 70
     4
  0
STYLE
  2
STANDARD
 70
     0
 40
0.0
 41
1.0
 50
0.0
 71
     0
 42
3.5
  3
txt
  4

  0
STYLE
  2
SIMPLEX
 70
     0
 40
0.0
 41
1.0
 50
0.0
 71
     0
 42
3.5
  3
simplex
  4

  0
STYLE
  2
COMPLEX
 70
     0
 40
0.0
 41
1.0
 50
0.0
 71
     0
 42
3.5
  3
complex
  4

  0
STYLE
  2
ITALIC
 70
     0
 40
0.0
 41
1.0
 50
0.0
 71
     0
 42
3.5
  3
italic
  4

  0
ENDTAB
  0
TABLE
  2
VIEW
 70
     0
  0
ENDTAB
  0
TABLE
  2
UCS
 70
     0
  0
ENDTAB
  0
TABLE
  2
APPID
 70
     1
  0
APPID
  2
ACAD
 70
     0
  0
ENDTAB
  0
TABLE
  2
DIMSTYLE
 70
     1
  0
DIMSTYLE
  2
STANDARD
 70
     0
  3

  4

  5

  6

  7

 40
1.0
 41
0.18
 42
0.0625
 43
0.38
 44
0.18
 45
0.0
 46
0.0
 47
0.0
 48
0.0
140
0.18
141
0.09
142
0.0
143
25.399999999999999
144
1.0
145
0.0
146
1.0
147
0.09
 71
     0
 72
     0
 73
     1
 74
     1
 75
     0
 76
     0
 77
     0
 78
     0
170
     0
171
     2
172
     0
173
     0
174
     0
175
     0
176
     0
177
     0
178
     0
  0
ENDTAB
  0
ENDSEC
  0
SECTION
  2
BLOCKS
  0
BLOCK
  8
0
  2
$MODEL_SPACE
 70
     0
 10
0.0
 20
0.0
 30
0.0
  3
$MODEL_SPACE
  1

  0
ENDBLK
  5
20
  8
0
  0
BLOCK
 67
     1
  8
0
  2
$PAPER_SPACE
 70
     0
 10
0.0
 20
0.0
 30
0.0
  3
$PAPER_SPACE
  1

  0
ENDBLK
  5
1C
 67
     1
  8
0
  0
ENDSEC
  0
SECTION
  2
ENTITIES
  0
LINE
  5
33
  8
1
 62
     7
 10
-100.2922399188372
 20
-266.8055178036729
 30
0.0
 11
-97.892239918837234
 21
-266.8055178036729
 31
0.0
  0
LINE
  5
34
  8
1
 62
     7
 10
-100.2922399188372
 20
-226.8055178036729
 30
0.0
 11
-97.892239918837234
 21
-226.8055178036729
 31
0.0
  0
LINE
  5
35
  8
1
 62
     7
 10
-97.892239918837234
 20
-270.40551780367292
 30
0.0
 11
-97.892239918837234
 21
-223.20551780367299
 31
0.0
  0
LINE
  5
36
  8
1
 62
     7
 10
-97.292239918837211
 20
-270.40551780367292
 30
0.0
 11
-97.892239918837234
 21
-270.40551780367292
 31
0.0
  0
LINE
  5
37
  8
1
 62
     7
 10
-97.892239918837234
 20
-223.20551780367299
 30
0.0
 11
-97.292239918837211
 21
-223.20551780367299
 31
0.0
  0
LINE
  5
38
  8
1
 62
     7
 10
-100.2922399188372
 20
-226.8055178036729
 30
0.0
 11
-100.2922399188372
 21
-266.8055178036729
 31
0.0
  0
LINE
  5
39
  8
1
 62
     7
 10
16.381447160141651
 20
-270.40551780367292
 30
0.0
 11
16.381447160141651
 21
-329.3055178036729
 31
0.0
  0
LINE
  5
3A
  8
1
 62
     7
 10
18.781447160141621
 20
-281.0555178036729
 30
0.0
 11
18.781447160141621
 21
-329.3055178036729
 31
0.0
  0
LINE
  5
3B
  8
1
 62
     7
 10
-62.292239918837168
 20
-300.8055178036729
 30
0.0
 11
-62.292239918837168
 21
-193.3055178036729
 31
0.0
  0
LINE
  5
3C
  8
1
  6
DASHDOT
 62
     3
 10
-98.193042866766206
 20
-321.8055178036729
 30
0.0
 11
-93.786626667314195
 21
-321.8055178036729
 31
0.0
  0
LINE
  5
3D
  8
1
  6
DASHDOT
 62
     3
 10
62.381447160141697
 20
-246.8055178036729
 30
0.0
 11
66.146985363716539
 21
-246.8055178036729
 31
0.0
  0
LINE
  5
3E
  8
1
  6
DASHDOT
 62
     3
 10
-51.292239918837168
 20
-246.8055178036729
 30
0.0
 11
-48.627982889522571
 21
-246.8055178036729
 31
0.0
  0
LINE
  5
3F
  8
1
  6
DASHDOT
 62
     3
 10
-100.2922399188372
 20
-246.8055178036729
 30
0.0
 11
-103.6474069424201
 21
-246.8055178036729
 31
0.0
  0
LINE
  5
40
  8
1
 62
     7
 10
-65.192239918837174
 20
-300.8055178036729
 30
0.0
 11
-62.292239918837168
 21
-300.8055178036729
 31
0.0
  0
LINE
  5
41
  8
1
 62
     7
 10
-65.192239918837174
 20
-287.8055178036729
 30
0.0
 11
-62.292239918837168
 21
-287.8055178036729
 31
0.0
  0
LINE
  5
42
  8
1
 62
     7
 10
-66.192239918837174
 20
-313.3422435409156
 30
0.0
 11
-65.192239918837174
 21
-313.3422435409156
 31
0.0
  0
LINE
  5
43
  8
1
 62
     7
 10
-65.192239918837174
 20
-312.57880601409192
 30
0.0
 11
-65.192239918837174
 21
-313.3422435409156
 31
0.0
  0
LINE
  5
44
  8
1
 62
     7
 10
-65.992239918837186
 20
-196.1882246600305
 30
0.0
 11
-65.192239918837174
 21
-199.1738653060855
 31
0.0
  0
LINE
  5
45
  8
1
 62
     7
 10
-66.992239918837186
 20
-196.3198771576179
 30
0.0
 11
-66.192239918837174
 21
-199.3055178036729
 31
0.0
  0
LINE
  5
46
  8
1
 62
     7
 10
-65.992239918837186
 20
-180.3055178036729
 30
0.0
 11
-65.992239918837186
 21
-196.1882246600305
 31
0.0
  0
LINE
  5
47
  8
1
 62
     7
 10
-63.692239918837181
 20
-191.30551780367301
 30
0.0
 11
-63.192239918837167
 21
-190.8055178036729
 31
0.0
  0
LINE
  5
48
  8
1
 62
     7
 10
-63.692239918837181
 20
-181.3055178036729
 30
0.0
 11
-63.192239918837167
 21
-181.8055178036729
 31
0.0
  0
LINE
  5
49
  8
1
 62
     7
 10
-65.292239918837197
 20
-181.3055178036729
 30
0.0
 11
-65.292239918837197
 21
-191.30551780367301
 31
0.0
  0
LINE
  5
4A
  8
1
 62
     7
 10
-66.992239918837186
 20
-180.3055178036729
 30
0.0
 11
-65.992239918837186
 21
-180.3055178036729
 31
0.0
  0
LINE
  5
4B
  8
1
 62
     7
 10
-65.992239918837186
 20
-181.3055178036729
 30
0.0
 11
-63.692239918837181
 21
-181.3055178036729
 31
0.0
  0
LINE
  5
4C
  8
1
 62
     7
 10
-65.992239918837186
 20
-191.30551780367301
 30
0.0
 11
-63.692239918837181
 21
-191.30551780367301
 31
0.0
  0
LINE
  5
4D
  8
1
 62
     7
 10
-63.192239918837167
 20
-181.8055178036729
 30
0.0
 11
-63.192239918837167
 21
-190.8055178036729
 31
0.0
  0
LINE
  5
4E
  8
1
 62
     7
 10
-66.992239918837186
 20
-314.8055178036729
 30
0.0
 11
-71.892239918837191
 21
-314.8055178036729
 31
0.0
  0
LINE
  5
4F
  8
1
 62
     7
 10
-66.192239918837174
 20
-199.3055178036729
 30
0.0
 11
-66.192239918837174
 21
-313.3422435409156
 31
0.0
  0
LINE
  5
50
  8
1
 62
     7
 10
-71.892239918837191
 20
-178.80551780367301
 30
0.0
 11
-66.992239918837186
 21
-178.80551780367301
 31
0.0
  0
LINE
  5
51
  8
1
 62
     7
 10
-71.892239918837191
 20
-178.80551780367301
 30
0.0
 11
-71.892239918837191
 21
-314.8055178036729
 31
0.0
  0
LINE
  5
52
  8
1
 62
     7
 10
-86.539553924826706
 20
-152.77174972908799
 30
0.0
 11
-86.539553924826706
 21
-147.77174972908799
 31
0.0
  0
LINE
  5
53
  8
1
 62
     7
 10
-86.131845467676825
 20
-152.77174972908799
 30
0.0
 11
-86.131845467676825
 21
-147.77174972908799
 31
0.0
  0
LINE
  5
54
  8
1
 62
     7
 10
-85.244925912847606
 20
-147.77174972908799
 30
0.0
 11
-85.244925912847606
 21
-152.77174972908799
 31
0.0
  0
LINE
  5
55
  8
1
 62
     7
 10
-85.652634369997529
 20
-147.77174972908799
 30
0.0
 11
-85.652634369997529
 21
-152.77174972908799
 31
0.0
  0
LINE
  5
56
  8
1
 62
     7
 10
-87.192239918837217
 20
-152.77174972908799
 30
0.0
 11
-84.592239918837237
 21
-152.77174972908799
 31
0.0
  0
LINE
  5
57
  8
1
 62
     7
 10
-84.592239918837237
 20
-152.77174972908799
 30
0.0
 11
-84.592239918837237
 21
-179.3055178036729
 31
0.0
  0
LINE
  5
58
  8
1
 62
     7
 10
-87.192239918837217
 20
-152.77174972908799
 30
0.0
 11
-87.192239918837217
 21
-179.3055178036729
 31
0.0
  0
LINE
  5
59
  8
1
 62
     7
 10
-88.992239918837214
 20
-314.3055178036729
 30
0.0
 11
-72.092239918837166
 21
-314.3055178036729
 31
0.0
  0
LINE
  5
5A
  8
1
 62
     7
 10
-72.092239918837166
 20
-179.3055178036729
 30
0.0
 11
-72.092239918837166
 21
-314.3055178036729
 31
0.0
  0
LINE
  5
5B
  8
1
 62
     7
 10
-72.092239918837166
 20
-179.3055178036729
 30
0.0
 11
-88.992239918837214
 21
-179.3055178036729
 31
0.0
  0
LINE
  5
5C
  8
1
 62
     7
 10
-97.292239918837211
 20
-184.3055178036729
 30
0.0
 11
-94.892239918837205
 21
-184.3055178036729
 31
0.0
  0
LINE
  5
5D
  8
1
 62
     7
 10
-97.292239918837211
 20
-329.3055178036729
 30
0.0
 11
-94.892239918837205
 21
-329.3055178036729
 31
0.0
  0
LINE
  5
5E
  8
1
  6
DASHDOT
 62
     3
 10
13.38144716014161
 20
-246.8055178036729
 30
0.0
 11
10.026280136558601
 21
-246.8055178036729
 31
0.0
  0
LINE
  5
5F
  8
1
 62
     7
 10
47.481447160141613
 20
-305.08674399310962
 30
0.0
 11
48.481447160141613
 21
-305.08674399310962
 31
0.0
  0
LINE
  5
60
  8
1
 62
     7
 10
48.481447160141649
 20
-297.3055178036729
 30
0.0
 11
48.481447160141649
 21
-313.3422435409156
 31
0.0
  0
LINE
  5
61
  8
1
 62
     7
 10
48.481447160141649
 20
-300.8055178036729
 30
0.0
 11
51.38144716014164
 21
-300.8055178036729
 31
0.0
  0
LINE
  5
62
  8
1
 62
     7
 10
48.481447160141649
 20
-287.8055178036729
 30
0.0
 11
51.38144716014164
 21
-287.8055178036729
 31
0.0
  0
LINE
  5
63
  8
1
 62
     7
 10
46.681447160141651
 20
-300.3055178036729
 30
0.0
 11
46.681447160141651
 21
-314.8055178036729
 31
0.0
  0
LINE
  5
64
  8
1
 62
     7
 10
41.781447160141639
 20
-300.3055178036729
 30
0.0
 11
46.681447160141651
 21
-300.3055178036729
 31
0.0
  0
LINE
  5
65
  8
1
 62
     7
 10
41.781447160141639
 20
-288.3055178036729
 30
0.0
 11
47.481447160141663
 21
-288.3055178036729
 31
0.0
  0
LINE
  5
66
  8
1
 62
     7
 10
47.481447160141613
 20
-285.3055178036729
 30
0.0
 11
48.481447160141613
 21
-285.3055178036729
 31
0.0
  0
LINE
  5
67
  8
1
 62
     7
 10
47.481447160141663
 20
-313.3422435409156
 30
0.0
 11
48.481447160141649
 21
-313.3422435409156
 31
0.0
  0
LINE
  5
68
  8
1
 62
     7
 10
48.481447160141649
 20
-199.1738653060855
 30
0.0
 11
48.481447160141649
 21
-218.3055178036729
 31
0.0
  0
LINE
  5
69
  8
1
 62
     7
 10
47.681447160141651
 20
-196.1882246600305
 30
0.0
 11
48.481447160141649
 21
-199.1738653060855
 31
0.0
  0
LINE
  5
6A
  8
1
 62
     7
 10
46.681447160141651
 20
-196.3198771576179
 30
0.0
 11
47.481447160141663
 21
-199.3055178036729
 31
0.0
  0
LINE
  5
6B
  8
1
 62
     7
 10
46.681447160141651
 20
-192.3055178036729
 30
0.0
 11
47.681447160141651
 21
-192.3055178036729
 31
0.0
  0
LINE
  5
6C
  8
1
 62
     7
 10
49.981447160141663
 20
-191.30551780367301
 30
0.0
 11
50.48144716014167
 21
-190.8055178036729
 31
0.0
  0
LINE
  5
6D
  8
1
 62
     7
 10
49.981447160141663
 20
-181.3055178036729
 30
0.0
 11
50.48144716014167
 21
-181.8055178036729
 31
0.0
  0
LINE
  5
6E
  8
1
 62
     7
 10
48.381447160141647
 20
-181.3055178036729
 30
0.0
 11
48.381447160141647
 21
-191.30551780367301
 31
0.0
  0
LINE
  5
6F
  8
1
 62
     7
 10
46.681447160141651
 20
-180.3055178036729
 30
0.0
 11
47.681447160141651
 21
-180.3055178036729
 31
0.0
  0
LINE
  5
70
  8
1
 62
     7
 10
47.681447160141651
 20
-181.3055178036729
 30
0.0
 11
49.981447160141663
 21
-181.3055178036729
 31
0.0
  0
LINE
  5
71
  8
1
 62
     7
 10
47.681447160141651
 20
-191.30551780367301
 30
0.0
 11
49.981447160141663
 21
-191.30551780367301
 31
0.0
  0
LINE
  5
72
  8
1
 62
     7
 10
50.48144716014167
 20
-181.8055178036729
 30
0.0
 11
50.48144716014167
 21
-190.8055178036729
 31
0.0
  0
LINE
  5
73
  8
1
 62
     7
 10
41.781447160141639
 20
-178.80551780367301
 30
0.0
 11
41.781447160141639
 21
-215.3055178036729
 31
0.0
  0
LINE
  5
74
  8
1
 62
     7
 10
46.681447160141651
 20
-314.8055178036729
 30
0.0
 11
41.781447160141639
 21
-314.8055178036729
 31
0.0
  0
LINE
  5
75
  8
1
 62
     7
 10
47.481447160141663
 20
-279.8055178036729
 30
0.0
 11
41.781447160141639
 21
-279.8055178036729
 31
0.0
  0
LINE
  5
76
  8
1
 62
     7
 10
41.781447160141639
 20
-213.8055178036729
 30
0.0
 11
47.481447160141663
 21
-213.8055178036729
 31
0.0
  0
LINE
  5
77
  8
1
 62
     7
 10
47.481447160141663
 20
-199.3055178036729
 30
0.0
 11
47.481447160141663
 21
-218.3055178036729
 31
0.0
  0
LINE
  5
78
  8
1
 62
     7
 10
46.681447160141651
 20
-199.3055178036729
 30
0.0
 11
47.481447160141663
 21
-199.3055178036729
 31
0.0
  0
LINE
  5
79
  8
1
 62
     7
 10
41.781447160141639
 20
-178.80551780367301
 30
0.0
 11
46.681447160141651
 21
-178.80551780367301
 31
0.0
  0
LINE
  5
7A
  8
1
 62
     7
 10
27.134133154152181
 20
-152.77174972908799
 30
0.0
 11
27.134133154152181
 21
-147.77174972908799
 31
0.0
  0
LINE
  5
7B
  8
1
 62
     7
 10
27.541841611302029
 20
-152.77174972908799
 30
0.0
 11
27.541841611302029
 21
-147.77174972908799
 31
0.0
  0
LINE
  5
7C
  8
1
 62
     7
 10
28.428761166131238
 20
-147.77174972908799
 30
0.0
 11
28.428761166131238
 21
-152.77174972908799
 31
0.0
  0
LINE
  5
7D
  8
1
 62
     7
 10
28.02105270898139
 20
-147.77174972908799
 30
0.0
 11
28.02105270898139
 21
-152.77174972908799
 31
0.0
  0
LINE
  5
7E
  8
1
 62
     7
 10
26.481447160141641
 20
-152.77174972908799
 30
0.0
 11
29.08144716014165
 21
-152.77174972908799
 31
0.0
  0
LINE
  5
7F
  8
1
 62
     7
 10
29.08144716014165
 20
-152.77174972908799
 30
0.0
 11
29.08144716014165
 21
-179.3055178036729
 31
0.0
  0
LINE
  5
80
  8
1
 62
     7
 10
24.681447160141609
 20
-314.3055178036729
 30
0.0
 11
41.58144716014165
 21
-314.3055178036729
 31
0.0
  0
LINE
  5
81
  8
1
 62
     7
 10
41.58144716014165
 20
-179.3055178036729
 30
0.0
 11
41.58144716014165
 21
-215.3055178036729
 31
0.0
  0
LINE
  5
82
  8
1
 62
     7
 10
41.58144716014165
 20
-179.3055178036729
 30
0.0
 11
24.681447160141609
 21
-179.3055178036729
 31
0.0
  0
LINE
  5
83
  8
1
 62
     7
 10
16.381447160141651
 20
-184.3055178036729
 30
0.0
 11
18.781447160141621
 21
-184.3055178036729
 31
0.0
  0
LINE
  5
84
  8
1
 62
     7
 10
16.381447160141651
 20
-184.3055178036729
 30
0.0
 11
16.381447160141651
 21
-223.20551780367299
 31
0.0
  0
LINE
  5
85
  8
1
 62
     7
 10
16.381447160141651
 20
-325.0555178036729
 30
0.0
 11
18.781447160141731
 21
-325.0555178036729
 31
0.0
  0
LINE
  5
86
  8
1
  6
DASHDOT
 62
     3
 10
15.11834971061592
 20
-321.8055178036729
 30
0.0
 11
20.507193539530029
 21
-321.8055178036729
 31
0.0
  0
LINE
  5
87
  8
1
 62
     7
 10
16.381447160141651
 20
-318.5555178036729
 30
0.0
 11
18.781447160141621
 21
-318.5555178036729
 31
0.0
  0
LINE
  5
88
  8
1
 62
     7
 10
16.381447160141651
 20
-329.3055178036729
 30
0.0
 11
18.781447160141621
 21
-329.3055178036729
 31
0.0
  0
LINE
  5
89
  8
1
 62
     7
 10
51.38144716014164
 20
-296.70551780367299
 30
0.0
 11
51.38144716014164
 21
-300.8055178036729
 31
0.0
  0
LINE
  5
8A
  8
1
 62
     7
 10
18.781447160141621
 20
-182.53855616330549
 30
0.0
 11
18.781447160141621
 21
-212.80551780367301
 31
0.0
  0
LINE
  5
8B
  8
1
 62
     7
 10
46.681447160141651
 20
-199.3055178036729
 30
0.0
 11
46.681447160141651
 21
-178.80551780367301
 31
0.0
  0
LINE
  5
8C
  8
1
 62
     7
 10
47.681447160141651
 20
-180.3055178036729
 30
0.0
 11
47.681447160141651
 21
-196.1882246600305
 31
0.0
  0
LINE
  5
8D
  8
1
 62
     7
 10
47.481447160141663
 20
-299.3055178036729
 30
0.0
 11
46.781447160141639
 21
-299.3055178036729
 31
0.0
  0
LINE
  5
8E
  8
1
 62
     7
 10
46.781447160141639
 20
-289.3055178036729
 30
0.0
 11
47.481447160141663
 21
-289.3055178036729
 31
0.0
  0
LINE
  5
8F
  8
1
 62
     7
 10
46.781447160141639
 20
-289.0555178036729
 30
0.0
 11
46.281447160141653
 21
-289.0555178036729
 31
0.0
  0
LINE
  5
90
  8
1
 62
     7
 10
46.281447160141653
 20
-289.0555178036729
 30
0.0
 11
46.281447160141653
 21
-299.5555178036729
 31
0.0
  0
LINE
  5
91
  8
1
 62
     7
 10
46.281447160141653
 20
-299.5555178036729
 30
0.0
 11
46.781447160141639
 21
-299.5555178036729
 31
0.0
  0
LINE
  5
92
  8
1
 62
     7
 10
46.781447160141639
 20
-299.5555178036729
 30
0.0
 11
46.781447160141639
 21
-289.0555178036729
 31
0.0
  0
LINE
  5
93
  8
1
 62
     7
 10
42.581447160141643
 20
-291.3055178036729
 30
0.0
 11
42.581447160141643
 21
-297.3055178036729
 31
0.0
  0
LINE
  5
94
  8
1
 62
     7
 10
61.181447160141637
 20
-291.3055178036729
 30
0.0
 11
61.781447160141639
 21
-291.90551780367298
 31
0.0
  0
LINE
  5
95
  8
1
 62
     7
 10
61.781447160141639
 20
-291.90551780367298
 30
0.0
 11
61.781447160141639
 21
-296.70551780367299
 31
0.0
  0
LINE
  5
96
  8
1
 62
     7
 10
61.781447160141639
 20
-296.70551780367299
 30
0.0
 11
61.181447160141637
 21
-297.3055178036729
 31
0.0
  0
LINE
  5
97
  8
1
 62
     7
 10
61.181447160141637
 20
-297.3055178036729
 30
0.0
 11
47.481447160141663
 21
-297.3055178036729
 31
0.0
  0
LINE
  5
98
  8
1
 62
     7
 10
61.181447160141637
 20
-291.3055178036729
 30
0.0
 11
61.181447160141637
 21
-297.3055178036729
 31
0.0
  0
LINE
  5
99
  8
1
 62
     3
 10
61.781447160141639
 20
-291.90551780367298
 30
0.0
 11
48.320677644682981
 21
-291.90551780367298
 31
0.0
  0
LINE
  5
9A
  8
1
 62
     3
 10
48.320677644682981
 20
-291.90551780367298
 30
0.0
 11
47.481447160141663
 21
-291.4209878575108
 31
0.0
  0
LINE
  5
9B
  8
1
 62
     3
 10
61.781447160141639
 20
-296.70551780367299
 30
0.0
 11
48.320677644682981
 21
-296.70551780367299
 31
0.0
  0
LINE
  5
9C
  8
1
 62
     3
 10
48.320677644682981
 20
-296.70551780367299
 30
0.0
 11
47.481447160141663
 21
-297.19004774983512
 31
0.0
  0
LINE
  5
9D
  8
1
 62
     3
 10
48.320677644682981
 20
-291.3055178036729
 30
0.0
 11
48.320677644682981
 21
-297.3055178036729
 31
0.0
  0
LINE
  5
9E
  8
1
 62
     7
 10
47.481447160141663
 20
-291.3055178036729
 30
0.0
 11
61.181447160141637
 21
-291.3055178036729
 31
0.0
  0
LINE
  5
9F
  8
1
 62
     7
 10
26.481447160141641
 20
-152.77174972908799
 30
0.0
 11
26.481447160141641
 21
-179.3055178036729
 31
0.0
  0
LINE
  5
A0
  8
1
 62
     7
 10
-94.892239918837205
 20
-182.53855616330549
 30
0.0
 11
-94.892239918837205
 21
-329.3055178036729
 31
0.0
  0
LINE
  5
A1
  8
1
 62
     7
 10
-97.292239918837211
 20
-329.3055178036729
 30
0.0
 11
-97.292239918837211
 21
-184.3055178036729
 31
0.0
  0
LINE
  5
A2
  8
1
 62
     7
 10
-65.192239918837174
 20
-312.57880601409192
 30
0.0
 11
-65.192239918837174
 21
-199.1738653060855
 31
0.0
  0
LINE
  5
A3
  8
1
 62
     7
 10
-66.992239918837186
 20
-314.8055178036729
 30
0.0
 11
-66.992239918837186
 21
-178.80551780367301
 31
0.0
  0
LINE
  5
A4
  8
1
 62
     7
 10
-66.192239918837174
 20
-199.3055178036729
 30
0.0
 11
-66.992239918837186
 21
-199.3055178036729
 31
0.0
  0
LINE
  5
A5
  8
1
 62
     7
 10
41.581447160141643
 20
-213.3055178036729
 30
0.0
 11
38.381447160141697
 21
-213.3055178036729
 31
0.0
  0
LINE
  5
A6
  8
1
 62
     7
 10
16.381447160141651
 20
-212.5555178036729
 30
0.0
 11
18.781447160141621
 21
-212.5555178036729
 31
0.0
  0
LINE
  5
A7
  8
1
 62
     7
 10
18.781447160141621
 20
-281.0555178036729
 30
0.0
 11
16.381447160141651
 21
-281.0555178036729
 31
0.0
  0
LINE
  5
A8
  8
1
 62
     7
 10
192.06895208437601
 20
-152.7717497290879
 30
0.0
 11
197.06895208437601
 21
-152.7717497290879
 31
0.0
  0
LINE
  5
A9
  8
1
 62
     7
 10
197.06895208437601
 20
-178.80551780367301
 30
0.0
 11
197.06895208437601
 21
-152.7717497290879
 31
0.0
  0
LINE
  5
AA
  8
1
 62
     7
 10
192.06895208437601
 20
-178.80551780367301
 30
0.0
 11
192.06895208437601
 21
-152.7717497290879
 31
0.0
  0
LINE
  5
AB
  8
1
 62
     7
 10
194.56895208437601
 20
-178.80551780367301
 30
0.0
 11
194.56895208437601
 21
-152.7717497290879
 31
0.0
  0
LINE
  5
AC
  8
1
 62
     7
 10
140.71730401303111
 20
-184.3055178036729
 30
0.0
 11
167.7780954351384
 21
-184.3055178036729
 31
0.0
  0
LINE
  5
AD
  8
1
 62
     7
 10
221.3598087336137
 20
-184.3055178036729
 30
0.0
 11
248.4206001557211
 21
-184.3055178036729
 31
0.0
  0
LINE
  5
AE
  8
1
 62
     7
 10
140.71730401303111
 20
-309.3055178036729
 30
0.0
 11
167.77809543513831
 21
-309.3055178036729
 31
0.0
  0
LINE
  5
AF
  8
1
 62
     7
 10
221.3598087336137
 20
-309.3055178036729
 30
0.0
 11
248.4206001557211
 21
-309.3055178036729
 31
0.0
  0
LINE
  5
B0
  8
1
 62
     7
 10
257.06895208437612
 20
-192.95386973232789
 30
0.0
 11
257.06895208437612
 21
-220.01466115443529
 31
0.0
  0
LINE
  5
B1
  8
1
 62
     7
 10
257.06895208437612
 20
-273.59637445291071
 30
0.0
 11
257.06895208437612
 21
-300.65716587501811
 31
0.0
  0
LINE
  5
B2
  8
1
 62
     7
 10
132.06895208437609
 20
-273.59637445291048
 30
0.0
 11
132.06895208437609
 21
-300.65716587501788
 31
0.0
  0
LINE
  5
B3
  8
1
 62
     7
 10
132.06895208437609
 20
-192.95386973232789
 30
0.0
 11
132.06895208437609
 21
-220.0146611544354
 31
0.0
  0
LINE
  5
B4
  8
1
 62
     7
 10
198.56895208437609
 20
-234.962798521346
 30
0.0
 11
198.56895208437609
 21
-231.00551780367289
 31
0.0
  0
LINE
  5
B5
  8
1
 62
     7
 10
198.56895208437609
 20
-231.00551780367289
 30
0.0
 11
190.56895208437601
 21
-231.00551780367289
 31
0.0
  0
LINE
  5
B6
  8
1
 62
     7
 10
190.56895208437601
 20
-231.00551780367289
 30
0.0
 11
190.56895208437601
 21
-234.962798521346
 31
0.0
  0
LINE
  5
B7
  8
1
  6
DASHDOT
 62
     3
 10
190.56895208437601
 20
-246.8055178036729
 30
0.0
 11
198.56895208437609
 21
-246.8055178036729
 31
0.0
  0
LINE
  5
B8
  8
1
  6
DASHDOT
 62
     3
 10
194.56895208437601
 20
-242.8055178036729
 30
0.0
 11
194.56895208437601
 21
-250.8055178036729
 31
0.0
  0
LINE
  5
B9
  8
1
  6
DASHDOT
 62
     3
 10
251.13749457930001
 20
-303.3740602985967
 30
0.0
 11
244.06642676743451
 21
-296.30299248673111
 31
0.0
  0
LINE
  5
BA
  8
1
  6
DASHDOT
 62
     3
 10
137.27836584069229
 20
-304.09610404735662
 30
0.0
 11
144.34943365255791
 21
-297.02503623549109
 31
0.0
  0
LINE
  5
BB
  8
1
 62
     7
 10
196.44395208437609
 20
-147.7717497290879
 30
0.0
 11
196.44395208437609
 21
-152.7717497290879
 31
0.0
  0
LINE
  5
BC
  8
1
 62
     7
 10
195.19395208437601
 20
-147.7717497290879
 30
0.0
 11
195.19395208437601
 21
-152.7717497290879
 31
0.0
  0
LINE
  5
BD
  8
1
 62
     7
 10
195.81895208437601
 20
-147.7717497290879
 30
0.0
 11
195.81895208437601
 21
-152.7717497290879
 31
0.0
  0
LINE
  5
BE
  8
1
 62
     7
 10
193.94395208437601
 20
-147.7717497290879
 30
0.0
 11
193.94395208437601
 21
-152.7717497290879
 31
0.0
  0
LINE
  5
BF
  8
1
 62
     7
 10
193.31895208437609
 20
-147.7717497290879
 30
0.0
 11
193.31895208437609
 21
-152.7717497290879
 31
0.0
  0
LINE
  5
C0
  8
1
 62
     7
 10
192.69395208437601
 20
-147.7717497290879
 30
0.0
 11
192.69395208437601
 21
-152.7717497290879
 31
0.0
  0
LINE
  5
C1
  8
1
 62
     7
 10
62.381447160141697
 20
-193.3055178036729
 30
0.0
 11
62.381447160141697
 21
-300.3055178036729
 31
0.0
  0
LINE
  5
C2
  8
1
 62
     7
 10
62.381447160141697
 20
-300.3055178036729
 30
0.0
 11
51.381447160141711
 21
-300.3055178036729
 31
0.0
  0
LINE
  5
C3
  8
1
 62
     7
 10
51.381447160141711
 20
-291.90551780367298
 30
0.0
 11
51.381447160141711
 21
-272.3055178036729
 31
0.0
  0
LINE
  5
C4
  8
1
 62
     7
 10
62.381447160141697
 20
-193.3055178036729
 30
0.0
 11
51.381447160141711
 21
-193.3055178036729
 31
0.0
  0
LINE
  5
C5
  8
1
 62
     7
 10
51.381447160141711
 20
-221.30551780367301
 30
0.0
 11
51.381447160141711
 21
-193.3055178036729
 31
0.0
  0
LINE
  5
C6
  8
1
 62
     7
 10
51.381447160141711
 20
-221.30551780367301
 30
0.0
 11
43.381447160141697
 21
-221.30551780367301
 31
0.0
  0
LINE
  5
C7
  8
1
 62
     7
 10
51.381447160141711
 20
-272.3055178036729
 30
0.0
 11
43.381447160141697
 21
-272.3055178036729
 31
0.0
  0
LINE
  5
C8
  8
1
 62
     7
 10
43.381447160141697
 20
-226.8055178036729
 30
0.0
 11
17.53144716014161
 21
-226.8055178036729
 31
0.0
  0
LINE
  5
C9
  8
1
 62
     7
 10
13.38144716014161
 20
-266.8055178036729
 30
0.0
 11
15.78144716014161
 21
-266.8055178036729
 31
0.0
  0
LINE
  5
CA
  8
1
 62
     7
 10
38.381447160141697
 20
-212.80551780367301
 30
0.0
 11
16.3814471601417
 21
-212.80551780367301
 31
0.0
  0
LINE
  5
CB
  8
1
 62
     7
 10
38.381447160141697
 20
-212.80551780367301
 30
0.0
 11
38.381447160141697
 21
-213.54132509784279
 31
0.0
  0
LINE
  5
CC
  8
1
 62
     7
 10
16.3814471601417
 20
-280.8055178036729
 30
0.0
 11
38.381447160141697
 21
-280.8055178036729
 31
0.0
  0
LINE
  5
CD
  8
1
 62
     7
 10
38.381447160141697
 20
-280.3055178036729
 30
0.0
 11
41.581447160141643
 21
-280.3055178036729
 31
0.0
  0
LINE
  5
CE
  8
1
 62
     7
 10
16.3814471601417
 20
-220.8055178036729
 30
0.0
 11
19.3814471601417
 21
-220.8055178036729
 31
0.0
  0
LINE
  5
CF
  8
1
 62
     7
 10
41.381447160141697
 20
-216.80551780367301
 30
0.0
 11
37.381447160141697
 21
-212.80551780367301
 31
0.0
  0
LINE
  5
D0
  8
1
 62
     7
 10
41.381447160141697
 20
-218.3055178036729
 30
0.0
 11
41.381447160141697
 21
-216.80551780367301
 31
0.0
  0
LINE
  5
D1
  8
1
 62
     7
 10
19.3814471601417
 20
-275.3055178036729
 30
0.0
 11
19.3814471601417
 21
-266.8055178036729
 31
0.0
  0
LINE
  5
D2
  8
1
 62
     7
 10
43.381447160141697
 20
-275.3055178036729
 30
0.0
 11
19.3814471601417
 21
-275.3055178036729
 31
0.0
  0
LINE
  5
D3
  8
1
 62
     7
 10
19.3814471601417
 20
-272.8055178036729
 30
0.0
 11
16.3814471601417
 21
-272.8055178036729
 31
0.0
  0
LINE
  5
D4
  8
1
 62
     7
 10
37.381447160141697
 20
-280.8055178036729
 30
0.0
 11
41.381447160141697
 21
-276.8055178036729
 31
0.0
  0
LINE
  5
D5
  8
1
 62
     7
 10
38.381447160141697
 20
-280.06971050950312
 30
0.0
 11
38.381447160141697
 21
-280.8055178036729
 31
0.0
  0
LINE
  5
D6
  8
1
 62
     7
 10
41.381447160141697
 20
-276.8055178036729
 30
0.0
 11
41.381447160141697
 21
-275.3055178036729
 31
0.0
  0
LINE
  5
D7
  8
1
 62
     7
 10
19.3814471601417
 20
-224.76388258332329
 30
0.0
 11
24.106447160141698
 21
-224.76388258332341
 31
0.0
  0
LINE
  5
D8
  8
1
 62
     7
 10
19.3814471601417
 20
-220.34715302402279
 30
0.0
 11
24.106447160141698
 21
-220.34715302402259
 31
0.0
  0
LINE
  5
D9
  8
1
 62
     7
 10
36.106447160141713
 20
-220.34715302402259
 30
0.0
 11
26.656447160141699
 21
-220.34715302402259
 31
0.0
  0
LINE
  5
DA
  8
1
 62
     7
 10
21.3814471601417
 20
-225.10551780367291
 30
0.0
 11
21.3814471601417
 21
-220.00551780367309
 31
0.0
  0
LINE
  5
DB
  8
1
 62
     7
 10
43.381447160141697
 20
-226.8055178036729
 30
0.0
 11
43.381447160141697
 21
-218.3055178036729
 31
0.0
  0
LINE
  5
DC
  8
1
 62
     7
 10
43.381447160141697
 20
-220.34715302402279
 30
0.0
 11
38.656447160141703
 21
-220.34715302402259
 31
0.0
  0
LINE
  5
DD
  8
1
 62
     7
 10
43.381447160141697
 20
-224.76388258332329
 30
0.0
 11
38.656447160141703
 21
-224.76388258332341
 31
0.0
  0
LINE
  5
DE
  8
1
 62
     7
 10
26.656447160141699
 20
-224.76388258332341
 30
0.0
 11
36.10644716014167
 21
-224.76388258332341
 31
0.0
  0
LINE
  5
DF
  8
1
 62
     7
 10
41.381447160141697
 20
-220.00551780367309
 30
0.0
 11
41.381447160141697
 21
-225.10551780367291
 31
0.0
  0
LINE
  5
E0
  8
1
 62
     7
 10
19.3814471601417
 20
-218.3055178036729
 30
0.0
 11
19.3814471601417
 21
-226.8055178036729
 31
0.0
  0
LINE
  5
E1
  8
1
 62
     7
 10
21.3814471601417
 20
-273.60551780367291
 30
0.0
 11
21.3814471601417
 21
-268.50551780367289
 31
0.0
  0
LINE
  5
E2
  8
1
 62
     7
 10
24.106447160141698
 20
-268.8471530240227
 30
0.0
 11
19.3814471601417
 21
-268.8471530240227
 31
0.0
  0
LINE
  5
E3
  8
1
 62
     7
 10
24.106447160141698
 20
-273.26388258332332
 30
0.0
 11
19.3814471601417
 21
-273.26388258332332
 31
0.0
  0
LINE
  5
E4
  8
1
 62
     7
 10
26.656447160141699
 20
-273.26388258332332
 30
0.0
 11
36.106447160141713
 21
-273.26388258332332
 31
0.0
  0
LINE
  5
E5
  8
1
 62
     7
 10
36.10644716014167
 20
-268.8471530240227
 30
0.0
 11
26.656447160141699
 21
-268.8471530240227
 31
0.0
  0
LINE
  5
E6
  8
1
 62
     7
 10
38.656447160141703
 20
-268.8471530240227
 30
0.0
 11
43.381447160141697
 21
-268.8471530240227
 31
0.0
  0
LINE
  5
E7
  8
1
 62
     7
 10
41.381447160141697
 20
-268.50551780367289
 30
0.0
 11
41.381447160141697
 21
-273.60551780367291
 31
0.0
  0
LINE
  5
E8
  8
1
 62
     7
 10
38.656447160141703
 20
-273.26388258332332
 30
0.0
 11
43.381447160141697
 21
-273.26388258332332
 31
0.0
  0
LINE
  5
E9
  8
1
 62
     7
 10
43.381447160141697
 20
-275.3055178036729
 30
0.0
 11
43.381447160141697
 21
-266.8055178036729
 31
0.0
  0
LINE
  5
EA
  8
1
 62
     7
 10
19.3814471601417
 20
-218.3055178036729
 30
0.0
 11
43.381447160141697
 21
-218.3055178036729
 31
0.0
  0
LINE
  5
EB
  8
1
 62
     7
 10
15.78144716014161
 20
-227.8055178036729
 30
0.0
 11
15.78144716014161
 21
-223.20551780367299
 31
0.0
  0
LINE
  5
EC
  8
1
 62
     7
 10
15.78144716014161
 20
-223.20551780367299
 30
0.0
 11
17.53144716014161
 21
-223.20551780367299
 31
0.0
  0
LINE
  5
ED
  8
1
 62
     7
 10
17.53144716014161
 20
-221.8055178036729
 30
0.0
 11
17.53144716014161
 21
-227.8055178036729
 31
0.0
  0
LINE
  5
EE
  8
1
 62
     7
 10
17.53144716014161
 20
-227.8055178036729
 30
0.0
 11
15.78144716014161
 21
-227.8055178036729
 31
0.0
  0
LINE
  5
EF
  8
1
 62
     7
 10
15.78144716014161
 20
-270.40551780367292
 30
0.0
 11
15.78144716014161
 21
-265.8055178036729
 31
0.0
  0
LINE
  5
F0
  8
1
 62
     7
 10
17.53144716014161
 20
-270.40551780367292
 30
0.0
 11
15.78144716014161
 21
-270.40551780367292
 31
0.0
  0
LINE
  5
F1
  8
1
 62
     7
 10
17.53144716014161
 20
-265.8055178036729
 30
0.0
 11
17.53144716014161
 21
-271.8055178036729
 31
0.0
  0
LINE
  5
F2
  8
1
 62
     7
 10
15.78144716014161
 20
-265.8055178036729
 30
0.0
 11
17.53144716014161
 21
-265.8055178036729
 31
0.0
  0
LINE
  5
F3
  8
1
 62
     7
 10
15.78144716014161
 20
-226.8055178036729
 30
0.0
 11
13.38144716014161
 21
-226.8055178036729
 31
0.0
  0
LINE
  5
F4
  8
1
 62
     7
 10
17.53144716014161
 20
-266.8055178036729
 30
0.0
 11
43.381447160141697
 21
-266.8055178036729
 31
0.0
  0
LINE
  5
F5
  8
1
 62
     7
 10
19.3814471601417
 20
-221.8055178036729
 30
0.0
 11
17.53144716014161
 21
-221.8055178036729
 31
0.0
  0
LINE
  5
F6
  8
1
 62
     7
 10
19.3814471601417
 20
-271.8055178036729
 30
0.0
 11
17.53144716014161
 21
-271.8055178036729
 31
0.0
  0
LINE
  5
F7
  8
1
 62
     7
 10
-51.292239918837168
 20
-193.3055178036729
 30
0.0
 11
-51.292239918837168
 21
-300.3055178036729
 31
0.0
  0
LINE
  5
F8
  8
1
 62
     7
 10
-51.292239918837168
 20
-193.3055178036729
 30
0.0
 11
-62.292239918837168
 21
-193.3055178036729
 31
0.0
  0
LINE
  5
F9
  8
1
 62
     7
 10
-51.292239918837168
 20
-300.3055178036729
 30
0.0
 11
-62.292239918837168
 21
-300.3055178036729
 31
0.0
  0
LINE
  5
FA
  8
1
 62
     7
 10
-62.292239918837168
 20
-221.30551780367301
 30
0.0
 11
-65.192239918837174
 21
-221.30551780367301
 31
0.0
  0
LINE
  5
FB
  8
1
 62
     7
 10
-65.192239918837174
 20
-272.3055178036729
 30
0.0
 11
-62.292239918837168
 21
-272.3055178036729
 31
0.0
  0
LINE
  5
FC
  8
1
 62
     7
 10
41.781447160141639
 20
-278.3055178036729
 30
0.0
 11
41.781447160141639
 21
-314.8055178036729
 31
0.0
  0
LINE
  5
FD
  8
1
 62
     7
 10
41.58144716014165
 20
-278.3055178036729
 30
0.0
 11
41.58144716014165
 21
-314.3055178036729
 31
0.0
  0
LINE
  5
FE
  8
1
 62
     7
 10
13.38144716014161
 20
-226.8055178036729
 30
0.0
 11
13.38144716014161
 21
-266.8055178036729
 31
0.0
  0
LINE
  5
FF
  8
1
 62
     7
 10
48.481447160141649
 20
-275.3055178036729
 30
0.0
 11
48.481447160141649
 21
-291.3055178036729
 31
0.0
  0
LINE
  5
100
  8
1
 62
     7
 10
47.481447160141663
 20
-275.3055178036729
 30
0.0
 11
47.481447160141663
 21
-313.3422435409156
 31
0.0
  0
LINE
  5
101
  8
1
 62
     7
 10
62.381447160141683
 20
-259.3055178036729
 30
0.0
 11
13.381447160141629
 21
-259.3055178036729
 31
0.0
  0
LINE
  5
102
  8
1
 62
     7
 10
62.381447160141683
 20
-231.00551780367289
 30
0.0
 11
13.38144716014161
 21
-231.00551780367289
 31
0.0
  0
LINE
  5
103
  8
1
 62
     7
 10
13.381447160141629
 20
-234.3055178036729
 30
0.0
 11
62.381447160141683
 21
-234.3055178036729
 31
0.0
  0
LINE
  5
104
  8
1
  6
DASHDOT
 62
     3
 10
251.13749457929981
 20
-190.23697530874909
 30
0.0
 11
244.06642676743419
 21
-197.30804312061451
 31
0.0
  0
LINE
  5
105
  8
1
  6
DASHDOT
 62
     3
 10
138.0004095894522
 20
-190.23697530874929
 30
0.0
 11
145.07147740131759
 21
-197.3080431206148
 31
0.0
  0
LINE
  5
106
  8
1
  6
DASHDOT
 62
     3
 10
138.00040958945229
 20
-303.37406029859682
 30
0.0
 11
145.07147740131791
 21
-296.30299248673151
 31
0.0
  0
ARC
  5
107
  8
1
 62
     7
 10
-88.992239918837214
 20
-307.3055178036729
 30
0.0
 40
6.99999999999996
 50
212.55693183745399
 51
270.0
  0
ARC
  5
108
  8
1
 62
     7
 10
-88.992239918837214
 20
-186.3055178036729
 30
0.0
 40
7.0
 50
90.0
 51
147.4430681625453
  0
ARC
  5
109
  8
1
 62
     7
 10
24.681447160141609
 20
-307.3055178036729
 30
0.0
 40
6.9999999999999467
 50
212.55693183745399
 51
270.0
  0
ARC
  5
10A
  8
1
 62
     7
 10
24.681447160141609
 20
-186.3055178036729
 30
0.0
 40
7.0
 50
90.0
 51
147.4430681625451
  0
ARC
  5
10B
  8
1
 62
     7
 10
47.114811874545573
 20
-294.59316200069281
 30
0.0
 40
5.6000000000000538
 50
98.558267717352734
 51
144.04997927382891
  0
ARC
  5
10C
  8
1
 62
     7
 10
47.114811874545552
 20
-294.01787360665332
 30
0.0
 40
5.5999999999999641
 50
215.9500207261701
 51
261.44173228264731
  0
ARC
  5
10D
  8
1
 62
     7
 10
24.681447160141609
 20
-287.3055178036729
 30
0.0
 40
7.0
 50
111.78678929826179
 51
147.44306816254539
  0
ARC
  5
10E
  8
1
 62
     7
 10
176.06895208437609
 20
-214.76257786364869
 30
0.0
 40
30.000000000000028
 50
119.9999999999999
 51
175.6197874655642
  0
ARC
  5
10F
  8
1
 62
     7
 10
127.451983291082
 20
-208.0555178036729
 30
0.0
 40
19.218773810563292
 50
313.28329168614459
 51
346.71670831385552
  0
ARC
  5
110
  8
1
 62
     7
 10
194.56895208437601
 20
-246.8055178036729
 30
0.0
 40
67.000000000000014
 50
60.0
 51
119.9999999999999
  0
ARC
  5
111
  8
1
 62
     7
 10
194.56895208437601
 20
-246.8055178036729
 30
0.0
 40
54.000000000000007
 50
64.999999999999957
 51
115.0
  0
ARC
  5
112
  8
1
 62
     7
 10
194.56895208437601
 20
-246.8055178036729
 30
0.0
 40
54.000000000000028
 50
185.00000000000011
 51
235.0
  0
ARC
  5
113
  8
1
 62
     7
 10
194.56895208437601
 20
-246.8055178036729
 30
0.0
 40
67.0
 50
180.0
 51
239.99999999999989
  0
ARC
  5
114
  8
1
 62
     7
 10
157.56895208437601
 20
-246.8055178036729
 30
0.0
 40
29.99999999999994
 50
124.3802125344357
 51
180.0
  0
ARC
  5
115
  8
1
 62
     7
 10
158.70594295307319
 20
-249.94312454258869
 30
0.0
 40
18.00000000000005
 50
168.440893686838
 51
185.00000000000011
  0
ARC
  5
116
  8
1
 62
     7
 10
215.21770379301361
 20
-276.29499139807672
 30
0.0
 40
17.999999999999979
 50
288.44089368683802
 51
305.00000000000011
  0
ARC
  5
117
  8
1
 62
     7
 10
213.06895208437601
 20
-278.84845774369722
 30
0.0
 40
29.99999999999994
 50
244.38021253443549
 51
300.00000000000028
  0
ARC
  5
118
  8
1
 62
     7
 10
194.56895208437601
 20
-324.3055178036729
 30
0.0
 40
19.218773810563299
 50
73.28329168614475
 51
106.71670831385531
  0
ARC
  5
119
  8
1
 62
     7
 10
194.56895208437601
 20
-246.8055178036729
 30
0.0
 40
67.0
 50
300.00000000000011
 51
0.0
  0
ARC
  5
11A
  8
1
 62
     7
 10
194.56895208437601
 20
-246.8055178036729
 30
0.0
 40
54.000000000000028
 50
305.0
 51
355.0
  0
ARC
  5
11B
  8
1
 62
     7
 10
176.06895208437609
 20
-278.84845774369722
 30
0.0
 40
30.0
 50
239.9999999999998
 51
295.61978746556429
  0
ARC
  5
11C
  8
1
 62
     7
 10
209.78320950704131
 20
-214.17843747035349
 30
0.0
 40
17.999999999999901
 50
48.44089368683813
 51
64.999999999999986
  0
ARC
  5
11D
  8
1
 62
     7
 10
213.06895208437601
 20
-214.76257786364869
 30
0.0
 40
29.999999999999911
 50
4.3802125344356231
 51
60.000000000000028
  0
ARC
  5
11E
  8
1
 62
     7
 10
261.68592087767001
 20
-208.0555178036729
 30
0.0
 40
19.21877381056337
 50
193.28329168614471
 51
226.71670831385549
  0
ARC
  5
11F
  8
1
 62
     7
 10
231.56895208437601
 20
-246.8055178036729
 30
0.0
 40
30.000000000000028
 50
0.0
 51
55.619787465564123
  0
ARC
  5
120
  8
1
 62
     7
 10
194.56895208437601
 20
-246.8055178036729
 30
0.0
 40
82.499999999999957
 50
130.74905437747029
 51
139.25094562252951
  0
ARC
  5
121
  8
1
 62
     7
 10
194.56895208437601
 20
-246.8055178036729
 30
0.0
 40
82.5
 50
40.749054377470372
 51
49.25094562252962
  0
ARC
  5
122
  8
1
 62
     7
 10
194.56895208437601
 20
-246.8055178036729
 30
0.0
 40
82.499999999999986
 50
310.74905437747032
 51
319.25094562252963
  0
ARC
  5
123
  8
1
 62
     7
 10
194.56895208437601
 20
-246.8055178036729
 30
0.0
 40
82.499999999999957
 50
220.7490543774702
 51
229.25094562252971
  0
ARC
  5
124
  8
1
 62
     7
 10
153.43274540461519
 20
-223.05551780367301
 30
0.0
 40
6.5000000000000142
 50
125.9170244945507
 51
174.08297550544751
  0
ARC
  5
125
  8
1
 62
     7
 10
173.9202003757384
 20
-276.29499139807672
 30
0.0
 40
18.000000000000011
 50
235.0
 51
251.5591063131622
  0
ARC
  5
126
  8
1
 62
     7
 10
194.56895208437601
 20
-294.3055178036729
 30
0.0
 40
6.500000000000024
 50
245.91702449455121
 51
294.08297550544808
  0
ARC
  5
127
  8
1
 62
     7
 10
230.431961215679
 20
-249.94312454258881
 30
0.0
 40
17.999999999999979
 50
355.00000000000011
 51
10.03859331823489
  0
ARC
  5
128
  8
1
 62
     7
 10
235.705158764137
 20
-223.05551780367301
 30
0.0
 40
6.5000000000000044
 50
5.9170244945514776
 51
54.082975505447912
  0
ARC
  5
129
  8
1
 62
     7
 10
179.35469466171079
 20
-214.17843747035349
 30
0.0
 40
18.000000000000011
 50
115.0000000000001
 51
131.559106313162
  0
ARC
  5
12A
  8
1
 62
     7
 10
194.56895208437601
 20
-246.8055178036729
 30
0.0
 40
12.5
 50
108.6629248849424
 51
71.337075115057516
  0
ARC
  5
12B
  8
1
 62
     7
 10
24.681447160141602
 20
-206.3055178036729
 30
0.0
 40
6.9999999999999956
 50
212.55693183745461
 51
248.21321070173821
  0
ARC
  5
12C
  8
1
  6
DASHDOT
 62
     3
 10
194.56895208437601
 20
-246.8055178036729
 30
0.0
 40
74.999999999999986
 50
311.17744627072562
 51
318.82255372927432
  0
ARC
  5
12D
  8
1
  6
DASHDOT
 62
     3
 10
194.56895208437601
 20
-246.8055178036729
 30
0.0
 40
75.0
 50
41.177446270725689
 51
48.822553729274389
  0
ARC
  5
12E
  8
1
  6
DASHDOT
 62
     3
 10
194.56895208437601
 20
-246.8055178036729
 30
0.0
 40
75.000000000000071
 50
131.17744627072571
 51
138.8225537292744
  0
ARC
  5
12F
  8
1
  6
DASHDOT
 62
     3
 10
194.56895208437601
 20
-246.8055178036729
 30
0.0
 40
75.000000000000099
 50
221.17744627072571
 51
228.82255372927429
  0
CIRCLE
  5
130
  8
1
 62
     7
 10
194.56895208437601
 20
-186.3055178036729
 30
0.0
 40
5.0
  0
CIRCLE
  5
131
  8
1
 62
     7
 10
153.43274540461519
 20
-223.05551780367301
 30
0.0
 40
3.0
  0
CIRCLE
  5
132
  8
1
 62
     7
 10
153.43274540461519
 20
-223.05551780367301
 30
0.0
 40
2.5000000000001141
  0
CIRCLE
  5
133
  8
1
 62
     7
 10
142.17441515541751
 20
-277.0555178036729
 30
0.0
 40
5.000000000000016
  0
CIRCLE
  5
134
  8
1
 62
     7
 10
246.96348901333459
 20
-277.05551780367301
 30
0.0
 40
4.9999999999999662
  0
CIRCLE
  5
135
  8
1
 62
     7
 10
194.56895208437601
 20
-294.3055178036729
 30
0.0
 40
3.0
  0
CIRCLE
  5
136
  8
1
 62
     7
 10
235.705158764137
 20
-223.05551780367301
 30
0.0
 40
3.0000000000000728
  0
CIRCLE
  5
137
  8
1
 62
     7
 10
194.56895208437601
 20
-294.3055178036729
 30
0.0
 40
2.4999999999999098
  0
CIRCLE
  5
138
  8
1
 62
     7
 10
235.705158764137
 20
-223.05551780367301
 30
0.0
 40
2.5000000000000822
  0
CIRCLE
  5
139
  8
1
 62
     7
 10
194.56895208437601
 20
-246.8055178036729
 30
0.0
 40
68.000000000000028
  0
CIRCLE
  5
13A
  8
1
 62
     7
 10
247.6019606733673
 20
-299.83852639266388
 30
0.0
 40
3.25
  0
CIRCLE
  5
13B
  8
1
 62
     7
 10
194.56895208437601
 20
-246.8055178036729
 30
0.0
 40
53.5
  0
CIRCLE
  5
13C
  8
1
 62
     7
 10
25.38144716014169
 20
-222.5555178036729
 30
0.0
 40
2.5499999999999901
  0
CIRCLE
  5
13D
  8
1
 62
     7
 10
37.381447160141697
 20
-222.5555178036729
 30
0.0
 40
2.5499999999999901
  0
CIRCLE
  5
13E
  8
1
 62
     7
 10
25.38144716014169
 20
-271.0555178036729
 30
0.0
 40
2.5499999999999901
  0
CIRCLE
  5
13F
  8
1
 62
     7
 10
37.381447160141697
 20
-271.0555178036729
 30
0.0
 40
2.5499999999999901
  0
CIRCLE
  5
140
  8
1
 62
     7
 10
247.60196067336699
 20
-193.7725092146818
 30
0.0
 40
3.25
  0
CIRCLE
  5
141
  8
1
 62
     7
 10
141.53594349538491
 20
-193.772509214682
 30
0.0
 40
3.25
  0
CIRCLE
  5
142
  8
1
 62
     7
 10
141.535943495385
 20
-299.83852639266411
 30
0.0
 40
3.25
  0
TEXT
  5
143
  8
1
 62
     7
 10
-95.866100648124615
 20
-126.2970452147688
 30
0.0
 40
5.0
  1
VBE 5P
 41
0.9
  7
SIMPLEX
  0
ENDSEC
  0
EOF
