  0
SECTION
  2
HEADER
  9
$ACADVER
  1
AC1009
  9
$INSBASE
 10
0.0
 20
0.0
 30
0.0
  9
$EXTMIN
 10
-45.132080713999997
 20
-611.02550952869092
 30
0.0
  9
$EXTMAX
 10
378.80194633341819
 20
-401.29746596223907
 30
0.0
  9
$LIMMIN
 10
-45.132080713999997
 20
-611.02550952869092
  9
$LIMMAX
 10
372.02824427986081
 20
-401.29746596223907
  9
$ORTHOMODE
 70
     0
  9
$REGENMODE
 70
     1
  9
$FILLMODE
 70
     1
  9
$QTEXTMODE
 70
     0
  9
$MIRRTEXT
 70
     1
  9
$DRAGMODE
 70
     2
  9
$LTSCALE
 40
1.0
  9
$OSMODE
 70
    37
  9
$ATTMODE
 70
     1
  9
$TEXTSIZE
 40
3.5
  9
$TRACEWID
 40
0.5
  9
$TEXTSTYLE
  7
STANDARD
  9
$CLAYER
  8
0
  9
$CELTYPE
  6
BYLAYER
  9
$CECOLOR
 62
   256
  9
$DIMSCALE
 40
1.0
  9
$DIMASZ
 40
0.18
  9
$DIMEXO
 40
0.0625
  9
$DIMDLI
 40
0.38
  9
$DIMRND
 40
0.0
  9
$DIMDLE
 40
0.0
  9
$DIMEXE
 40
0.18
  9
$DIMTP
 40
0.0
  9
$DIMTM
 40
0.0
  9
$DIMTXT
 40
0.18
  9
$DIMCEN
 40
0.09
  9
$DIMTSZ
 40
0.0
  9
$DIMTOL
 70
     0
  9
$DIMLIM
 70
     0
  9
$DIMTIH
 70
     1
  9
$DIMTOH
 70
     1
  9
$DIMSE1
 70
     0
  9
$DIMSE2
 70
     0
  9
$DIMTAD
 70
     0
  9
$DIMZIN
 70
     0
  9
$DIMBLK
  1

  9
$DIMASO
 70
     1
  9
$DIMSHO
 70
     1
  9
$DIMPOST
  1

  9
$DIMAPOST
  1

  9
$DIMALT
 70
     0
  9
$DIMALTD
 70
     2
  9
$DIMALTF
 40
25.399999999999999
  9
$DIMLFAC
 40
1.0
  9
$DIMTOFL
 70
     0
  9
$DIMTVP
 40
0.0
  9
$DIMTIX
 70
     0
  9
$DIMSOXD
 70
     0
  9
$DIMSAH
 70
     0
  9
$DIMBLK1
  1

  9
$DIMBLK2
  1

  9
$DIMSTYLE
  2
STANDARD
  9
$DIMCLRD
 70
     0
  9
$DIMCLRE
 70
     0
  9
$DIMCLRT
 70
     0
  9
$DIMTFAC
 40
1.0
  9
$DIMGAP
 40
0.09
  9
$LUNITS
 70
     2
  9
$LUPREC
 70
     4
  9
$SKETCHINC
 40
0.1
  9
$FILLETRAD
 40
2.0
  9
$AUNITS
 70
     0
  9
$AUPREC
 70
     0
  9
$MENU
  1
ACAD
  9
$ELEVATION
 40
0.0
  9
$PELEVATION
 40
0.0
  9
$THICKNESS
 40
0.0
  9
$LIMCHECK
 70
     0
  9
$BLIPMODE
 70
     0
  9
$CHAMFERA
 40
0.0
  9
$CHAMFERB
 40
0.0
  9
$SKPOLY
 70
     0
  9
$TDCREATE
 40
2452095.3864745372
  9
$TDUPDATE
 40
2452095.386960879
  9
$TDINDWG
 40
0.0005003472
  9
$TDUSRTIMER
 40
0.0005003472
  9
$USRTIMER
 70
     1
  9
$ANGBASE
 50
0.0
  9
$ANGDIR
 70
     0
  9
$PDMODE
 70
     0
  9
$PDSIZE
 40
0.0
  9
$PLINEWID
 40
0.0
  9
$COORDS
 70
     1
  9
$SPLFRAME
 70
     0
  9
$SPLINETYPE
 70
     6
  9
$SPLINESEGS
 70
     8
  9
$ATTDIA
 70
     0
  9
$ATTREQ
 70
     1
  9
$HANDLING
 70
 10241
  9
$HANDSEED
  5
146
  9
$SURFTAB1
 70
     6
  9
$SURFTAB2
 70
     6
  9
$SURFTYPE
 70
     6
  9
$SURFU
 70
     6
  9
$SURFV
 70
     6
  9
$UCSNAME
  2

  9
$UCSORG
 10
0.0
 20
0.0
 30
0.0
  9
$UCSXDIR
 10
1.0
 20
0.0
 30
0.0
  9
$UCSYDIR
 10
0.0
 20
1.0
 30
0.0
  9
$PUCSNAME
  2

  9
$PUCSORG
 10
0.0
 20
0.0
 30
0.0
  9
$PUCSXDIR
 10
1.0
 20
0.0
 30
0.0
  9
$PUCSYDIR
 10
0.0
 20
1.0
 30
0.0
  9
$USERI1
 70
     0
  9
$USERI2
 70
     0
  9
$USERI3
 70
     0
  9
$USERI4
 70
     0
  9
$USERI5
 70
     0
  9
$USERR1
 40
0.0
  9
$USERR2
 40
0.0
  9
$USERR3
 40
0.0
  9
$USERR4
 40
0.0
  9
$USERR5
 40
0.0
  9
$WORLDVIEW
 70
     1
  9
$SHADEDGE
 70
     3
  9
$SHADEDIF
 70
    70
  9
$TILEMODE
 70
     1
  9
$MAXACTVP
 70
    64
  9
$PLIMCHECK
 70
     0
  9
$PEXTMIN
 10
1.0000000000000000E+020
 20
1.0000000000000000E+020
 30
1.0000000000000000E+020
  9
$PEXTMAX
 10
-1.0000000000000000E+020
 20
-1.0000000000000000E+020
 30
-1.0000000000000000E+020
  9
$PLIMMIN
 10
0.0
 20
0.0
  9
$PLIMMAX
 10
12.0
 20
9.0
  9
$UNITMODE
 70
     0
  9
$VISRETAIN
 70
     1
  9
$PLINEGEN
 70
     0
  9
$PSLTSCALE
 70
     1
  0
ENDSEC
  0
SECTION
  2
TABLES
  0
TABLE
  2
VPORT
 70
     2
  0
VPORT
  2
*ACTIVE
 70
     0
 10
0.0
 20
0.0
 11
1.0
 21
1.0
 12
-15.633342859462569
 22
-415.90239331292651
 13
0.0
 23
0.0
 14
1.0
 24
1.0
 15
0.0
 25
0.0
 16
0.0
 26
0.0
 36
1.0
 17
0.0
 27
0.0
 37
0.0
 40
8.9999993786144792
 41
2.4144144144144142
 42
50.0
 43
0.0
 44
0.0
 50
0.0
 51
0.0
 71
     0
 72
   100
 73
     1
 74
     1
 75
     0
 76
     0
 77
     0
 78
     0
  0
ENDTAB
  0
TABLE
  2
LTYPE
 70
     9
  0
LTYPE
  2
CONTINUOUS
 70
     0
  3
Solid line
 72
    65
 73
     0
 40
0.0
  0
LTYPE
  2
BORDER
 70
     0
  3
__ __ . __ __ .
 72
    65
 73
     6
 40
19.211330756296221
 49
5.4889516446560647
 49
-2.744475822328031
 49
5.4889516446560647
 49
-2.744475822328031
 49
0.0
 49
-2.744475822328031
  0
LTYPE
  2
CENTER
 70
     0
  3
____ _ ____ _
 72
    65
 73
     4
 40
21.955806578624259
 49
13.72237911164016
 49
-2.744475822328031
 49
2.744475822328031
 49
-2.744475822328031
  0
LTYPE
  2
DASHDOT
 70
     0
  3
__ . __ . __ .
 72
    65
 73
     4
 40
10.977903289312129
 49
5.4889516446560647
 49
-2.744475822328031
 49
0.0
 49
-2.744475822328031
  0
LTYPE
  2
DASHED
 70
     0
  3
__ __ __ __ __
 72
    65
 73
     2
 40
8.2334274669840983
 49
5.4889516446560647
 49
-2.744475822328031
  0
LTYPE
  2
DIVIDE
 70
     0
  3
__ . . __ . . 
 72
    65
 73
     6
 40
13.72237911164016
 49
5.4889516446560647
 49
-2.744475822328031
 49
0.0
 49
-2.744475822328031
 49
0.0
 49
-2.744475822328031
  0
LTYPE
  2
DOT
 70
     0
  3
..............
 72
    65
 73
     4
 40
5.4889516446560647
 49
0.0
 49
-2.744475822328031
 49
0.0
 49
-2.744475822328031
  0
LTYPE
  2
HIDDEN
 70
     0
  3
_ _ _ _ _ _ _
 72
    65
 73
     2
 40
4.1167137334920483
 49
2.744475822328031
 49
-1.3722379111640151
  0
LTYPE
  2
PHANTOM
 70
     0
  3
_____ _ _ _____ _ _ 
 72
    65
 73
     6
 40
27.444758223280321
 49
13.72237911164016
 49
-2.744475822328031
 49
2.744475822328031
 49
-2.744475822328031
 49
2.744475822328031
 49
-2.744475822328031
  0
ENDTAB
  0
TABLE
  2
LAYER
 70
     2
  0
LAYER
  2
0
 70
     0
 62
     7
  6
CONTINUOUS
  0
LAYER
  2
1
 70
     0
 62
     7
  6
CONTINUOUS
  0
ENDTAB
  0
TABLE
  2
STYLE
 70
     4
  0
STYLE
  2
STANDARD
 70
     0
 40
0.0
 41
1.0
 50
0.0
 71
     0
 42
3.5
  3
txt
  4

  0
STYLE
  2
SIMPLEX
 70
     0
 40
0.0
 41
1.0
 50
0.0
 71
     0
 42
3.5
  3
simplex
  4

  0
STYLE
  2
COMPLEX
 70
     0
 40
0.0
 41
1.0
 50
0.0
 71
     0
 42
3.5
  3
complex
  4

  0
STYLE
  2
ITALIC
 70
     0
 40
0.0
 41
1.0
 50
0.0
 71
     0
 42
3.5
  3
italic
  4

  0
ENDTAB
  0
TABLE
  2
VIEW
 70
     0
  0
ENDTAB
  0
TABLE
  2
UCS
 70
     0
  0
ENDTAB
  0
TABLE
  2
APPID
 70
     1
  0
APPID
  2
ACAD
 70
     0
  0
ENDTAB
  0
TABLE
  2
DIMSTYLE
 70
     1
  0
DIMSTYLE
  2
STANDARD
 70
     0
  3

  4

  5

  6

  7

 40
1.0
 41
0.18
 42
0.0625
 43
0.38
 44
0.18
 45
0.0
 46
0.0
 47
0.0
 48
0.0
140
0.18
141
0.09
142
0.0
143
25.399999999999999
144
1.0
145
0.0
146
1.0
147
0.09
 71
     0
 72
     0
 73
     1
 74
     1
 75
     0
 76
     0
 77
     0
 78
     0
170
     0
171
     2
172
     0
173
     0
174
     0
175
     0
176
     0
177
     0
178
     0
  0
ENDTAB
  0
ENDSEC
  0
SECTION
  2
BLOCKS
  0
BLOCK
  8
0
  2
$MODEL_SPACE
 70
     0
 10
0.0
 20
0.0
 30
0.0
  3
$MODEL_SPACE
  1

  0
ENDBLK
  5
20
  8
0
  0
BLOCK
 67
     1
  8
0
  2
$PAPER_SPACE
 70
     0
 10
0.0
 20
0.0
 30
0.0
  3
$PAPER_SPACE
  1

  0
ENDBLK
  5
1C
 67
     1
  8
0
  0
ENDSEC
  0
SECTION
  2
ENTITIES
  0
POINT
  5
33
  8
1
  6
CENTER
 62
     7
 10
304.02824427986081
 20
-541.02550952869092
 30
0.0
  0
LINE
  5
34
  8
1
 62
     7
 10
-1.032080714000027
 20
-576.0255095286908
 30
0.0
 11
-0.232080714000017
 21
-576.0255095286908
 31
0.0
  0
LINE
  5
35
  8
1
 62
     7
 10
-0.232080714000017
 20
-481.0255095286908
 30
0.0
 11
-1.032080714000027
 21
-481.0255095286908
 31
0.0
  0
LINE
  5
36
  8
1
 62
     7
 10
-0.0320807140000284
 20
-595.52550952869092
 30
0.0
 11
-1.032080714000027
 21
-595.52550952869092
 31
0.0
  0
LINE
  5
37
  8
1
 62
     7
 10
143.96791928600001
 20
-595.52550952869092
 30
0.0
 11
142.96791928600001
 21
-595.52550952869092
 31
0.0
  0
LINE
  5
38
  8
1
  6
DASHDOT
 62
     3
 10
-45.132080713999997
 20
-528.52550952869092
 30
0.0
 11
-38.132080713999997
 21
-528.52550952869092
 31
0.0
  0
LINE
  5
39
  8
1
 62
     7
 10
-28.732080713999999
 20
-596.02550952869092
 30
0.0
 11
-6.4320807139999934
 21
-596.02550952869115
 31
0.0
  0
LINE
  5
3A
  8
1
 62
     7
 10
0.7679192859999831
 20
-583.02550952869092
 30
0.0
 11
3.367919286000006
 21
-583.02550952869092
 31
0.0
  0
LINE
  5
3B
  8
1
 62
     7
 10
-5.9320807139999934
 20
-596.52550952869115
 30
0.0
 11
-1.032080714000027
 21
-596.52550952869115
 31
0.0
  0
LINE
  5
3C
  8
1
 62
     7
 10
-1.032080714000027
 20
-460.5255095286908
 30
0.0
 11
-1.032080714000027
 21
-596.52550952869115
 31
0.0
  0
LINE
  5
3D
  8
1
 62
     7
 10
-0.032080714000053
 20
-580.87687492069574
 30
0.0
 11
-0.0320807140000284
 21
-595.52550952869092
 31
0.0
  0
LINE
  5
3E
  8
1
 62
     7
 10
-0.232080714000017
 20
-576.0255095286908
 30
0.0
 11
-1.0320807139999999
 21
-580.78938625716989
 31
0.0
  0
LINE
  5
3F
  8
1
 62
     7
 10
0.7679192859999831
 20
-576.11299819221665
 30
0.0
 11
-0.032080714000053
 21
-580.87687492069574
 31
0.0
  0
LINE
  5
40
  8
1
 62
     7
 10
2.667919285999989
 20
-594.02550952869092
 30
0.0
 11
2.667919285999989
 21
-584.02550952869092
 31
0.0
  0
LINE
  5
41
  8
1
 62
     7
 10
0.667919285999989
 20
-594.02550952869092
 30
0.0
 11
0.667919285999989
 21
-584.02550952869092
 31
0.0
  0
LINE
  5
42
  8
1
 62
     7
 10
0.667919285999989
 20
-594.02550952869092
 30
0.0
 11
0.667919285999989
 21
-584.02550952869092
 31
0.0
  0
LINE
  5
43
  8
1
 62
     7
 10
3.367919286000006
 20
-583.02550952869092
 30
0.0
 11
3.367919286000006
 21
-466.0255095286908
 31
0.0
  0
LINE
  5
44
  8
1
 62
     7
 10
-0.232080714000017
 20
-576.0255095286908
 30
0.0
 11
-0.232080714000017
 21
-470.0255095286908
 31
0.0
  0
LINE
  5
45
  8
1
 62
     7
 10
-0.0320807140000279
 20
-594.02550952869092
 30
0.0
 11
0.667919285999989
 21
-594.02550952869092
 31
0.0
  0
LINE
  5
46
  8
1
 62
     7
 10
-0.0320807140000279
 20
-584.02550952869092
 30
0.0
 11
0.667919285999989
 21
-584.02550952869092
 31
0.0
  0
LINE
  5
47
  8
1
 62
     7
 10
4.0679192860000057
 20
-472.0255095286908
 30
0.0
 11
4.0679192860000057
 21
-490.0255095286908
 31
0.0
  0
LINE
  5
48
  8
1
 62
     7
 10
4.0679192860000057
 20
-490.0255095286908
 30
0.0
 11
5.3679192859999878
 21
-490.0255095286908
 31
0.0
  0
LINE
  5
49
  8
1
 62
     7
 10
4.0679192860000057
 20
-472.0255095286908
 30
0.0
 11
5.3679192859999878
 21
-472.0255095286908
 31
0.0
  0
LINE
  5
4A
  8
1
 62
     7
 10
3.367919286000006
 20
-488.02550952869092
 30
0.0
 11
4.0679192860000057
 21
-488.02550952869092
 31
0.0
  0
LINE
  5
4B
  8
1
 62
     7
 10
3.367919286000006
 20
-474.0255095286908
 30
0.0
 11
4.0679192860000057
 21
-474.0255095286908
 31
0.0
  0
LINE
  5
4C
  8
1
 62
     7
 10
-0.232080714000017
 20
-470.0255095286908
 30
0.0
 11
0.7679192859999831
 21
-470.0255095286908
 31
0.0
  0
LINE
  5
4D
  8
1
 62
     7
 10
-5.9320807139999934
 20
-460.5255095286908
 30
0.0
 11
-5.9320807139999934
 21
-596.52550952869115
 31
0.0
  0
LINE
  5
4E
  8
1
 62
     7
 10
-5.9320807139999934
 20
-460.5255095286908
 30
0.0
 11
-1.032080714000027
 21
-460.5255095286908
 31
0.0
  0
LINE
  5
4F
  8
1
 62
     7
 10
25.367919285999989
 20
-463.5255095286908
 30
0.0
 11
5.3679192859999878
 21
-463.5255095286908
 31
0.0
  0
LINE
  5
50
  8
1
 62
     7
 10
5.3679192859999878
 20
-463.5255095286908
 30
0.0
 11
5.3679192859999878
 21
-566.02550952869092
 31
0.0
  0
LINE
  5
51
  8
1
 62
     7
 10
25.367919285999989
 20
-463.5255095286908
 30
0.0
 11
25.367919285999989
 21
-566.02550952869092
 31
0.0
  0
LINE
  5
52
  8
1
 62
     7
 10
5.3679192859999878
 20
-566.02550952869092
 30
0.0
 11
6.9279192859999901
 21
-566.02550952869092
 31
0.0
  0
LINE
  5
53
  8
1
 62
     7
 10
9.9279192859999892
 20
-569.02550952869092
 30
0.0
 11
9.9279192859999892
 21
-570.13866718714132
 31
0.0
  0
LINE
  5
54
  8
1
 62
     7
 10
12.92791928599998
 20
-573.13866718714132
 30
0.0
 11
17.367919285999982
 21
-573.13866718714132
 31
0.0
  0
LINE
  5
55
  8
1
 62
     7
 10
20.367919285999989
 20
-570.13866718714132
 30
0.0
 11
20.367919285999989
 21
-569.02550952869092
 31
0.0
  0
LINE
  5
56
  8
1
 62
     7
 10
23.367919285999982
 20
-566.02550952869092
 30
0.0
 11
25.367919285999989
 21
-566.02550952869092
 31
0.0
  0
LINE
  5
57
  8
1
 62
     7
 10
3.367919286000006
 20
-466.0255095286908
 30
0.0
 11
0.7679192859999829
 21
-466.0255095286908
 31
0.0
  0
LINE
  5
58
  8
1
 62
     7
 10
0.7679192859999829
 20
-466.0255095286908
 30
0.0
 11
0.7679192859999831
 21
-583.02550952869092
 31
0.0
  0
LINE
  5
59
  8
1
 62
     7
 10
-24.832080713999989
 20
-422.57444493265012
 30
0.0
 11
-24.832080713999989
 21
-426.50518310389413
 31
0.0
  0
LINE
  5
5A
  8
1
 62
     7
 10
-24.532080713999999
 20
-422.57444493265012
 30
0.0
 11
-24.532080713999999
 21
-426.50518310389413
 31
0.0
  0
LINE
  5
5B
  8
1
 62
     7
 10
-24.232080714000009
 20
-422.57444493265012
 30
0.0
 11
-24.232080714000009
 21
-426.50518310389413
 31
0.0
  0
LINE
  5
5C
  8
1
 62
     7
 10
-23.632080714000011
 20
-422.57444493265012
 30
0.0
 11
-23.632080714000011
 21
-426.50518310389413
 31
0.0
  0
LINE
  5
5D
  8
1
 62
     7
 10
-23.932080714000008
 20
-422.57444493265012
 30
0.0
 11
-23.932080714000008
 21
-426.50518310389413
 31
0.0
  0
LINE
  5
5E
  8
1
 62
     7
 10
-24.232080714000009
 20
-422.57444493265012
 30
0.0
 11
-24.232080714000009
 21
-426.50518310389413
 31
0.0
  0
LINE
  5
5F
  8
1
 62
     7
 10
-22.982080713999999
 20
-426.50518310389413
 30
0.0
 11
-22.982080713999999
 21
-461.0255095286908
 31
0.0
  0
LINE
  5
60
  8
1
 62
     7
 10
-25.482080714000009
 20
-426.50518310389413
 30
0.0
 11
-22.982080713999999
 21
-426.50518310389413
 31
0.0
  0
LINE
  5
61
  8
1
 62
     7
 10
-25.482080714000009
 20
-461.0255095286908
 30
0.0
 11
-25.482080714000009
 21
-426.50518310389413
 31
0.0
  0
LINE
  5
62
  8
1
 62
     7
 10
-6.4320807139999934
 20
-461.0255095286908
 30
0.0
 11
-6.4320807139999934
 21
-596.02550952869115
 31
0.0
  0
LINE
  5
63
  8
1
  6
DASHDOT
 62
     3
 10
-33.169284470911002
 20
-603.52550952869092
 30
0.0
 11
-40.899340730590502
 21
-603.52550952869092
 31
0.0
  0
LINE
  5
64
  8
1
 62
     7
 10
-35.732080713999999
 20
-466.0255095286908
 30
0.0
 11
-38.132080713999997
 21
-466.0255095286908
 31
0.0
  0
LINE
  5
65
  8
1
 62
     7
 10
-38.132080713999997
 20
-466.0255095286908
 30
0.0
 11
-38.132080713999997
 21
-611.02550952869092
 31
0.0
  0
LINE
  5
66
  8
1
 62
     7
 10
-35.732080713999999
 20
-611.02550952869092
 30
0.0
 11
-38.132080713999997
 21
-611.02550952869092
 31
0.0
  0
LINE
  5
67
  8
1
 62
     7
 10
-35.732080713999999
 20
-466.0255095286908
 30
0.0
 11
-35.732080713999999
 21
-611.02550952869092
 31
0.0
  0
LINE
  5
68
  8
1
 62
     7
 10
-6.4320807139999934
 20
-461.0255095286908
 30
0.0
 11
-28.732080713999999
 21
-461.0255095286908
 31
0.0
  0
LINE
  5
69
  8
1
  6
DASHDOT
 62
     3
 10
32.367919285999982
 20
-528.52550952869092
 30
0.0
 11
25.367919285999989
 21
-528.52550952869092
 31
0.0
  0
LINE
  5
6A
  8
1
  6
DASHDOT
 62
     3
 10
98.86791928600006
 20
-528.52550952869092
 30
0.0
 11
105.867919286
 21
-528.52550952869092
 31
0.0
  0
LINE
  5
6B
  8
1
  6
DASHDOT
 62
     3
 10
147.3679192860001
 20
-559.5255095286908
 30
0.0
 11
171.2195655243481
 21
-559.5255095286908
 31
0.0
  0
LINE
  5
6C
  8
1
  6
DASHDOT
 62
     3
 10
360.6701151325675
 20
-471.88363867598451
 30
0.0
 11
353.66917892041999
 21
-478.88457488813202
 31
0.0
  0
LINE
  5
6D
  8
1
  6
DASHDOT
 62
     3
 10
247.27450691393551
 20
-471.77177216276561
 30
0.0
 11
254.4831389470819
 21
-478.98040419591212
 31
0.0
  0
LINE
  5
6E
  8
1
  6
DASHDOT
 62
     3
 10
247.1564137341843
 20
-585.39734007436709
 30
0.0
 11
254.47079123101329
 21
-578.08296257753807
 31
0.0
  0
LINE
  5
6F
  8
1
  6
DASHDOT
 62
     3
 10
360.66124475396651
 20
-585.15851000279667
 30
0.0
 11
353.63753790363648
 21
-578.13480315246647
 31
0.0
  0
LINE
  5
70
  8
1
  6
DASHDOT
 62
     3
 10
304.02824427986081
 20
-564.02777406477685
 30
0.0
 11
304.02824427986081
 21
-554.40740023129695
 31
0.0
  0
LINE
  5
71
  8
1
  6
DASHDOT
 62
     3
 10
304.02824427986081
 20
-534.26471687679202
 30
0.0
 11
304.02824427986081
 21
-521.24168345781402
 31
0.0
  0
LINE
  5
72
  8
1
  6
DASHDOT
 62
     3
 10
310.49259097175508
 20
-528.52550952869092
 30
0.0
 11
298.0509258965111
 21
-528.52550952869092
 31
0.0
  0
LINE
  5
73
  8
1
 62
     7
 10
304.02824427986081
 20
-426.50518310389413
 30
0.0
 11
304.02824427986081
 21
-460.5255095286908
 31
0.0
  0
LINE
  5
74
  8
1
 62
     7
 10
301.52824427986093
 20
-426.50518310389413
 30
0.0
 11
306.52824427986081
 21
-426.50518310389413
 31
0.0
  0
LINE
  5
75
  8
1
 62
     7
 10
306.52824427986081
 20
-426.50518310389413
 30
0.0
 11
306.52824427986081
 21
-460.57148095054112
 31
0.0
  0
LINE
  5
76
  8
1
 62
     7
 10
301.52824427986093
 20
-426.50518310389413
 30
0.0
 11
301.52824427986081
 21
-460.57148095054112
 31
0.0
  0
LINE
  5
77
  8
1
 62
     7
 10
303.02824427986081
 20
-422.57444493265012
 30
0.0
 11
303.02824427986081
 21
-426.50518310389413
 31
0.0
  0
LINE
  5
78
  8
1
 62
     7
 10
305.02824427986081
 20
-422.57444493265012
 30
0.0
 11
305.02824427986081
 21
-426.50518310389413
 31
0.0
  0
LINE
  5
79
  8
1
 62
     7
 10
304.66824427986091
 20
-422.57444493265012
 30
0.0
 11
304.66824427986091
 21
-426.50518310389413
 31
0.0
  0
LINE
  5
7A
  8
1
 62
     7
 10
305.38824427986088
 20
-422.57444493265012
 30
0.0
 11
305.38824427986088
 21
-426.50518310389413
 31
0.0
  0
LINE
  5
7B
  8
1
 62
     7
 10
302.66824427986091
 20
-422.57444493265012
 30
0.0
 11
302.66824427986091
 21
-426.50518310389413
 31
0.0
  0
LINE
  5
7C
  8
1
 62
     7
 10
303.38824427986088
 20
-422.57444493265012
 30
0.0
 11
303.38824427986088
 21
-426.50518310389413
 31
0.0
  0
LINE
  5
7D
  8
1
 62
     7
 10
305.7482442798609
 20
-422.57444493265012
 30
0.0
 11
305.7482442798609
 21
-426.50518310389413
 31
0.0
  0
LINE
  5
7E
  8
1
 62
     7
 10
302.3682442798609
 20
-422.57444493265012
 30
0.0
 11
302.3682442798609
 21
-426.50518310389413
 31
0.0
  0
LINE
  5
7F
  8
1
 62
     7
 10
300.02824427986081
 20
-512.72550952869096
 30
0.0
 11
300.02824427986081
 21
-516.68279024636377
 31
0.0
  0
LINE
  5
80
  8
1
 62
     7
 10
308.02824427986081
 20
-512.72550952869096
 30
0.0
 11
300.02824427986081
 21
-512.72550952869096
 31
0.0
  0
LINE
  5
81
  8
1
 62
     7
 10
308.02824427986081
 20
-516.68279024636377
 30
0.0
 11
308.02824427986081
 21
-512.72550952869096
 31
0.0
  0
LINE
  5
82
  8
1
 62
     7
 10
365.19655880181841
 20
-545.24582277717388
 30
0.0
 11
320.13218550841998
 21
-467.19203862175772
 31
0.0
  0
LINE
  5
83
  8
1
 62
     7
 10
258.96387098646261
 20
-573.13866718714121
 30
0.0
 11
349.09261757325919
 21
-573.13866718714121
 31
0.0
  0
LINE
  5
84
  8
1
 62
     7
 10
287.92430305130171
 20
-467.19203862175772
 30
0.0
 11
242.85992975790339
 21
-545.24582277717354
 31
0.0
  0
LINE
  5
85
  8
1
 62
     7
 10
366.52824427986081
 20
-474.67386145734582
 30
0.0
 11
366.52824427986081
 21
-501.73465287945322
 31
0.0
  0
LINE
  5
86
  8
1
 62
     7
 10
250.1765962085158
 20
-466.0255095286908
 30
0.0
 11
277.23738763062329
 21
-466.0255095286908
 31
0.0
  0
LINE
  5
87
  8
1
 62
     7
 10
241.5282442798609
 20
-582.37715760003596
 30
0.0
 11
241.5282442798609
 21
-555.31636617792856
 31
0.0
  0
LINE
  5
88
  8
1
 62
     7
 10
357.87989235120591
 20
-591.02550952869092
 30
0.0
 11
330.81910092909862
 21
-591.02550952869092
 31
0.0
  0
LINE
  5
89
  8
1
 62
     7
 10
330.81910092909862
 20
-466.0255095286908
 30
0.0
 11
357.87989235120591
 21
-466.0255095286908
 31
0.0
  0
LINE
  5
8A
  8
1
 62
     7
 10
241.5282442798609
 20
-501.73465287945322
 30
0.0
 11
241.5282442798609
 21
-474.67386145734582
 31
0.0
  0
LINE
  5
8B
  8
1
 62
     7
 10
277.23738763062329
 20
-591.02550952869092
 30
0.0
 11
250.1765962085158
 21
-591.02550952869092
 31
0.0
  0
LINE
  5
8C
  8
1
 62
     7
 10
366.52824427986081
 20
-555.31636617792856
 30
0.0
 11
366.52824427986081
 21
-582.37715760003596
 31
0.0
  0
LINE
  5
8D
  8
1
  6
DASHDOT
 62
     3
 10
334.38535411915279
 20
-510.99882399115683
 30
0.0
 11
327.34634284290081
 21
-515.0627990463297
 31
0.0
  0
LINE
  5
8E
  8
1
  6
DASHDOT
 62
     3
 10
272.8429737885848
 20
-510.52068521580111
 30
0.0
 11
281.25885962130161
 21
-515.37959916678949
 31
0.0
  0
LINE
  5
8F
  8
1
 62
     7
 10
273.43412719830428
 20
-583.02550952869092
 30
0.0
 11
334.62236136141757
 21
-583.02550952869092
 31
0.0
  0
LINE
  5
90
  8
1
 62
     7
 10
366.52368732689132
 20
-527.77079212767444
 30
0.0
 11
335.9295702453345
 21
-474.7802269297074
 31
0.0
  0
LINE
  5
91
  8
1
 62
     7
 10
272.12691831438752
 20
-474.7802269297074
 30
0.0
 11
241.53280123283059
 21
-527.77079212767444
 31
0.0
  0
LINE
  5
92
  8
1
 62
     7
 10
115.26791928599999
 20
-596.02550952869092
 30
0.0
 11
137.56791928600001
 21
-596.02550952869115
 31
0.0
  0
LINE
  5
93
  8
1
 62
     7
 10
169.36791928599999
 20
-562.02550952869092
 30
0.0
 11
149.36791928599999
 21
-562.02550952869092
 31
0.0
  0
LINE
  5
94
  8
1
 62
     3
 10
169.36791928599999
 20
-562.52550952869092
 30
0.0
 11
149.36791928599999
 21
-562.52550952869092
 31
0.0
  0
LINE
  5
95
  8
1
 62
     7
 10
149.36791928599999
 20
-557.02550952869092
 30
0.0
 11
169.36791928599999
 21
-557.02550952869092
 31
0.0
  0
LINE
  5
96
  8
1
 62
     7
 10
149.36791928599999
 20
-551.0255095286908
 30
0.0
 11
149.36791928599999
 21
-566.02550952869092
 31
0.0
  0
LINE
  5
97
  8
1
 62
     7
 10
144.76791928599991
 20
-554.02550952869092
 30
0.0
 11
144.76791928599991
 21
-583.02550952869092
 31
0.0
  0
LINE
  5
98
  8
1
 62
     7
 10
142.96791928600001
 20
-576.0255095286908
 30
0.0
 11
142.96791928600001
 21
-596.52550952869115
 31
0.0
  0
LINE
  5
99
  8
1
 62
     7
 10
138.06791928600001
 20
-554.02550952869092
 30
0.0
 11
138.06791928600001
 21
-596.52550952869115
 31
0.0
  0
LINE
  5
9A
  8
1
 62
     7
 10
144.76791928599991
 20
-583.02550952869092
 30
0.0
 11
147.3679192860001
 21
-583.02550952869092
 31
0.0
  0
LINE
  5
9B
  8
1
 62
     7
 10
143.96791928600001
 20
-580.87687492069585
 30
0.0
 11
143.96791928600001
 21
-595.52550952869092
 31
0.0
  0
LINE
  5
9C
  8
1
 62
     7
 10
143.76791928599991
 20
-576.0255095286908
 30
0.0
 11
142.96791928600001
 21
-580.78938625716955
 31
0.0
  0
LINE
  5
9D
  8
1
 62
     7
 10
144.76791928599991
 20
-576.11299819221665
 30
0.0
 11
143.96791928600001
 21
-580.87687492069585
 31
0.0
  0
LINE
  5
9E
  8
1
 62
     7
 10
146.667919286
 20
-594.02550952869092
 30
0.0
 11
146.667919286
 21
-584.02550952869092
 31
0.0
  0
LINE
  5
9F
  8
1
 62
     7
 10
144.667919286
 20
-594.02550952869092
 30
0.0
 11
144.667919286
 21
-584.02550952869092
 31
0.0
  0
LINE
  5
A0
  8
1
 62
     7
 10
144.667919286
 20
-594.02550952869092
 30
0.0
 11
144.667919286
 21
-584.02550952869092
 31
0.0
  0
LINE
  5
A1
  8
1
 62
     7
 10
147.3679192860001
 20
-583.02550952869092
 30
0.0
 11
147.3679192860001
 21
-554.02550952869092
 31
0.0
  0
LINE
  5
A2
  8
1
 62
     7
 10
143.76791928599991
 20
-576.0255095286908
 30
0.0
 11
143.76791928599991
 21
-554.02550952869092
 31
0.0
  0
LINE
  5
A3
  8
1
 62
     7
 10
143.96791928600001
 20
-594.02550952869092
 30
0.0
 11
144.667919286
 21
-594.02550952869092
 31
0.0
  0
LINE
  5
A4
  8
1
 62
     7
 10
143.96791928600001
 20
-584.02550952869092
 30
0.0
 11
144.667919286
 21
-584.02550952869092
 31
0.0
  0
LINE
  5
A5
  8
1
 62
     7
 10
138.06791928600001
 20
-561.52550952869115
 30
0.0
 11
143.76791928599991
 21
-561.52550952869115
 31
0.0
  0
LINE
  5
A6
  8
1
 62
     7
 10
142.96791928600001
 20
-596.52550952869115
 30
0.0
 11
138.06791928600001
 21
-596.52550952869115
 31
0.0
  0
LINE
  5
A7
  8
1
 62
     7
 10
148.06791928600001
 20
-472.0255095286908
 30
0.0
 11
148.06791928600001
 21
-490.0255095286908
 31
0.0
  0
LINE
  5
A8
  8
1
 62
     7
 10
148.06791928600001
 20
-490.0255095286908
 30
0.0
 11
149.36791928599999
 21
-490.0255095286908
 31
0.0
  0
LINE
  5
A9
  8
1
 62
     7
 10
148.06791928600001
 20
-472.0255095286908
 30
0.0
 11
149.36791928599999
 21
-472.0255095286908
 31
0.0
  0
LINE
  5
AA
  8
1
 62
     7
 10
147.3679192860001
 20
-488.02550952869092
 30
0.0
 11
148.06791928600001
 21
-488.02550952869092
 31
0.0
  0
LINE
  5
AB
  8
1
 62
     7
 10
147.3679192860001
 20
-474.0255095286908
 30
0.0
 11
148.06791928600001
 21
-474.0255095286908
 31
0.0
  0
LINE
  5
AC
  8
1
 62
     7
 10
143.76791928599991
 20
-470.0255095286908
 30
0.0
 11
143.76791928599991
 21
-503.0255095286908
 31
0.0
  0
LINE
  5
AD
  8
1
 62
     7
 10
143.76791928599991
 20
-490.0255095286908
 30
0.0
 11
144.76791928599991
 21
-490.0255095286908
 31
0.0
  0
LINE
  5
AE
  8
1
 62
     7
 10
143.76791928599991
 20
-470.0255095286908
 30
0.0
 11
144.76791928599991
 21
-470.0255095286908
 31
0.0
  0
LINE
  5
AF
  8
1
 62
     7
 10
138.06791928600001
 20
-460.5255095286908
 30
0.0
 11
138.06791928600001
 21
-503.02550952869098
 31
0.0
  0
LINE
  5
B0
  8
1
 62
     7
 10
143.76791928599991
 20
-495.5255095286908
 30
0.0
 11
138.06791928600001
 21
-495.5255095286908
 31
0.0
  0
LINE
  5
B1
  8
1
 62
     7
 10
142.96791928600001
 20
-460.5255095286908
 30
0.0
 11
142.96791928600001
 21
-481.0255095286908
 31
0.0
  0
LINE
  5
B2
  8
1
 62
     7
 10
138.06791928600001
 20
-460.5255095286908
 30
0.0
 11
142.96791928600001
 21
-460.5255095286908
 31
0.0
  0
LINE
  5
B3
  8
1
 62
     7
 10
169.36791928599999
 20
-463.5255095286908
 30
0.0
 11
149.36791928599999
 21
-463.5255095286908
 31
0.0
  0
LINE
  5
B4
  8
1
 62
     7
 10
149.36791928599999
 20
-463.5255095286908
 30
0.0
 11
149.36791928599999
 21
-506.02550952869098
 31
0.0
  0
LINE
  5
B5
  8
1
 62
     7
 10
169.36791928599999
 20
-463.5255095286908
 30
0.0
 11
169.36791928599999
 21
-566.02550952869092
 31
0.0
  0
LINE
  5
B6
  8
1
 62
     7
 10
149.36791928599999
 20
-566.02550952869092
 30
0.0
 11
150.92791928599999
 21
-566.02550952869092
 31
0.0
  0
LINE
  5
B7
  8
1
 62
     7
 10
153.92791928599999
 20
-569.02550952869092
 30
0.0
 11
153.92791928599999
 21
-570.13866718714132
 31
0.0
  0
LINE
  5
B8
  8
1
 62
     7
 10
156.92791928599991
 20
-573.13866718714132
 30
0.0
 11
161.36791928599999
 21
-573.13866718714132
 31
0.0
  0
LINE
  5
B9
  8
1
 62
     7
 10
164.36791928599999
 20
-570.13866718714132
 30
0.0
 11
164.36791928599999
 21
-569.02550952869092
 31
0.0
  0
LINE
  5
BA
  8
1
 62
     7
 10
167.36791928599999
 20
-566.02550952869092
 30
0.0
 11
169.36791928599999
 21
-566.02550952869092
 31
0.0
  0
LINE
  5
BB
  8
1
 62
     3
 10
149.36791928599999
 20
-556.52550952869092
 30
0.0
 11
169.36791928599999
 21
-556.52550952869092
 31
0.0
  0
LINE
  5
BC
  8
1
 62
     7
 10
147.3679192860001
 20
-466.0255095286908
 30
0.0
 11
144.76791928599991
 21
-466.0255095286908
 31
0.0
  0
LINE
  5
BD
  8
1
 62
     7
 10
144.76791928599991
 20
-466.0255095286908
 30
0.0
 11
144.76791928599991
 21
-503.0255095286908
 31
0.0
  0
LINE
  5
BE
  8
1
 62
     7
 10
147.3679192860001
 20
-466.0255095286908
 30
0.0
 11
147.3679192860001
 21
-503.0255095286908
 31
0.0
  0
LINE
  5
BF
  8
1
 62
     7
 10
119.1679192860001
 20
-422.57444493265012
 30
0.0
 11
119.1679192860001
 21
-426.50518310389413
 31
0.0
  0
LINE
  5
C0
  8
1
 62
     7
 10
119.467919286
 20
-422.57444493265012
 30
0.0
 11
119.467919286
 21
-426.50518310389413
 31
0.0
  0
LINE
  5
C1
  8
1
 62
     7
 10
119.76791928600009
 20
-422.57444493265012
 30
0.0
 11
119.76791928600009
 21
-426.50518310389413
 31
0.0
  0
LINE
  5
C2
  8
1
 62
     7
 10
120.367919286
 20
-422.57444493265012
 30
0.0
 11
120.367919286
 21
-426.50518310389413
 31
0.0
  0
LINE
  5
C3
  8
1
 62
     7
 10
120.06791928600001
 20
-422.57444493265012
 30
0.0
 11
120.06791928600001
 21
-426.50518310389413
 31
0.0
  0
LINE
  5
C4
  8
1
 62
     7
 10
119.76791928600009
 20
-422.57444493265012
 30
0.0
 11
119.76791928600009
 21
-426.50518310389413
 31
0.0
  0
LINE
  5
C5
  8
1
 62
     7
 10
121.01791928599999
 20
-426.50518310389413
 30
0.0
 11
121.01791928599999
 21
-461.0255095286908
 31
0.0
  0
LINE
  5
C6
  8
1
 62
     7
 10
118.51791928600009
 20
-426.50518310389413
 30
0.0
 11
121.01791928599999
 21
-426.50518310389413
 31
0.0
  0
LINE
  5
C7
  8
1
 62
     7
 10
118.51791928600009
 20
-461.0255095286908
 30
0.0
 11
118.51791928600009
 21
-426.50518310389413
 31
0.0
  0
LINE
  5
C8
  8
1
 62
     7
 10
127.3679192859999
 20
-541.02550952869092
 30
0.0
 11
169.36791928599999
 21
-541.02550952869092
 31
0.0
  0
LINE
  5
C9
  8
1
 62
     7
 10
169.36791928599999
 20
-516.02550952869092
 30
0.0
 11
127.3679192859999
 21
-516.02550952869092
 31
0.0
  0
LINE
  5
CA
  8
1
 62
     7
 10
127.3679192859999
 20
-512.72550952869096
 30
0.0
 11
169.36791928599999
 21
-512.72550952869096
 31
0.0
  0
LINE
  5
CB
  8
1
 62
     7
 10
149.36791928599999
 20
-551.0255095286908
 30
0.0
 11
127.3679192859999
 21
-551.0255095286908
 31
0.0
  0
LINE
  5
CC
  8
1
 62
     7
 10
127.3679192859999
 20
-506.0255095286908
 30
0.0
 11
127.3679192859999
 21
-551.0255095286908
 31
0.0
  0
LINE
  5
CD
  8
1
 62
     7
 10
127.3679192859999
 20
-506.0255095286908
 30
0.0
 11
149.36791928599999
 21
-506.02550952869098
 31
0.0
  0
LINE
  5
CE
  8
1
 62
     7
 10
137.56791928600001
 20
-554.02550952869092
 30
0.0
 11
137.56791928600001
 21
-596.02550952869115
 31
0.0
  0
LINE
  5
CF
  8
1
 62
     7
 10
108.26791928600009
 20
-496.02550952869092
 30
0.0
 11
105.867919286
 21
-496.02550952869092
 31
0.0
  0
LINE
  5
D0
  8
1
 62
     7
 10
108.26791928600009
 20
-561.02550952869092
 30
0.0
 11
105.867919286
 21
-561.02550952869092
 31
0.0
  0
LINE
  5
D1
  8
1
 62
     7
 10
108.26791928600009
 20
-600.27550952869092
 30
0.0
 11
105.867919286
 21
-600.27550952869092
 31
0.0
  0
LINE
  5
D2
  8
1
 62
     7
 10
108.26791928600009
 20
-606.77550952869092
 30
0.0
 11
105.867919286
 21
-606.77550952869092
 31
0.0
  0
LINE
  5
D3
  8
1
  6
DASHDOT
 62
     3
 10
110.83071552908891
 20
-603.52550952869092
 30
0.0
 11
103.1006592694095
 21
-603.52550952869092
 31
0.0
  0
LINE
  5
D4
  8
1
 62
     7
 10
108.26791928600009
 20
-466.0255095286908
 30
0.0
 11
105.867919286
 21
-466.0255095286908
 31
0.0
  0
LINE
  5
D5
  8
1
 62
     7
 10
105.867919286
 20
-466.0255095286908
 30
0.0
 11
105.867919286
 21
-611.02550952869092
 31
0.0
  0
LINE
  5
D6
  8
1
 62
     7
 10
108.26791928600009
 20
-611.02550952869092
 30
0.0
 11
105.867919286
 21
-611.02550952869092
 31
0.0
  0
LINE
  5
D7
  8
1
 62
     7
 10
137.56791928600001
 20
-562.52550952869115
 30
0.0
 11
115.26791928599999
 21
-562.52550952869092
 31
0.0
  0
LINE
  5
D8
  8
1
 62
     7
 10
137.56791928600001
 20
-494.5255095286908
 30
0.0
 11
115.26791928599999
 21
-494.5255095286908
 31
0.0
  0
LINE
  5
D9
  8
1
 62
     7
 10
108.26791928600009
 20
-466.0255095286908
 30
0.0
 11
108.26791928600009
 21
-611.02550952869092
 31
0.0
  0
LINE
  5
DA
  8
1
 62
     7
 10
137.56791928600001
 20
-461.0255095286908
 30
0.0
 11
115.26791928599999
 21
-461.0255095286908
 31
0.0
  0
LINE
  5
DB
  8
1
 62
     7
 10
137.56791928600001
 20
-461.0255095286908
 30
0.0
 11
137.56791928600001
 21
-503.0255095286908
 31
0.0
  0
LINE
  5
DC
  8
1
  6
DASHDOT
 62
     3
 10
176.3679192859999
 20
-528.52550952869092
 30
0.0
 11
169.36791928599999
 21
-528.52550952869092
 31
0.0
  0
LINE
  5
DD
  8
1
 62
     7
 10
5.3679192859999878
 20
-506.0255095286908
 30
0.0
 11
3.367919286000006
 21
-506.0255095286908
 31
0.0
  0
LINE
  5
DE
  8
1
 62
     7
 10
5.3679192859999878
 20
-551.0255095286908
 30
0.0
 11
3.367919286000006
 21
-551.0255095286908
 31
0.0
  0
LINE
  5
DF
  8
1
 62
     7
 10
143.76791928599991
 20
-481.0255095286908
 30
0.0
 11
142.96791928600001
 21
-481.0255095286908
 31
0.0
  0
LINE
  5
E0
  8
1
 62
     7
 10
142.96791928600001
 20
-576.0255095286908
 30
0.0
 11
143.76791928599991
 21
-576.0255095286908
 31
0.0
  0
ARC
  5
E1
  8
1
 62
     7
 10
-28.732080713999999
 20
-589.02550952869092
 30
0.0
 40
7.0000000000000027
 50
180.0
 51
270.0
  0
ARC
  5
E2
  8
1
 62
     7
 10
-28.732080713999999
 20
-468.0255095286908
 30
0.0
 40
7.0
 50
90.0
 51
180.0
  0
ARC
  5
E3
  8
1
 62
     7
 10
1.6679192859999881
 20
-584.02550952869092
 30
0.0
 40
1.0
 50
0.0
 51
180.0
  0
ARC
  5
E4
  8
1
 62
     7
 10
1.6679192859999881
 20
-594.02550952869092
 30
0.0
 40
1.0
 50
180.0
 51
0.0
  0
ARC
  5
E5
  8
1
  6
DASHDOT
 62
     3
 10
304.02824427986081
 20
-528.52550952869092
 30
0.0
 40
75.000000000000014
 50
40.488988449136748
 51
49.242037052364388
  0
ARC
  5
E6
  8
1
  6
DASHDOT
 62
     3
 10
304.02824427986081
 20
-528.52550952869092
 30
0.0
 40
74.999999999999915
 50
130.35555135718519
 51
139.447083395254
  0
ARC
  5
E7
  8
1
  6
DASHDOT
 62
     3
 10
304.02824427986081
 20
-528.52550952869092
 30
0.0
 40
74.999999999999915
 50
310.94258352739632
 51
319.00514750237858
  0
ARC
  5
E8
  8
1
 62
     7
 10
304.02824427986081
 20
-528.52550952869092
 30
0.0
 40
65.000000000000043
 50
318.68340043425428
 51
341.31659956574538
  0
ARC
  5
E9
  8
1
 62
     7
 10
304.02824427986081
 20
-528.52550952869092
 30
0.0
 40
65.000000000000071
 50
198.68340043425439
 51
221.31659956574549
  0
ARC
  5
EA
  8
1
 62
     7
 10
345.1644509596216
 20
-552.27550952869092
 30
0.0
 40
17.499999999999989
 50
229.6208073150685
 51
70.379192684931624
  0
ARC
  5
EB
  8
1
 62
     7
 10
304.02824427986081
 20
-528.52550952869092
 30
0.0
 40
37.500000000000071
 50
247.51131702019509
 51
292.48868297980471
  0
ARC
  5
EC
  8
1
 62
     7
 10
262.89203760009991
 20
-552.27550952869092
 30
0.0
 40
17.499999999999979
 50
109.62080731506821
 51
310.37919268493158
  0
ARC
  5
ED
  8
1
 62
     7
 10
304.02824427986081
 20
-528.52550952869092
 30
0.0
 40
37.5
 50
127.51131702019551
 51
172.48868297980471
  0
ARC
  5
EE
  8
1
 62
     7
 10
324.10954367690528
 20
-577.03315237521826
 30
0.0
 40
14.99999999999998
 50
49.620807315068049
 51
112.48868297980481
  0
ARC
  5
EF
  8
1
 62
     7
 10
251.9787435985433
 20
-521.66260352426866
 30
0.0
 40
15.000000000000091
 50
289.62080731506808
 51
352.48868297980431
  0
ARC
  5
F0
  8
1
 62
     7
 10
356.07774496117821
 20
-521.66260352426866
 30
0.0
 40
14.999999999999959
 50
187.51131702019521
 51
250.37919268493201
  0
ARC
  5
F1
  8
1
 62
     7
 10
283.94694488281652
 20
-577.03315237521826
 30
0.0
 40
14.99999999999995
 50
67.51131702019542
 51
130.37919268493201
  0
ARC
  5
F2
  8
1
 62
     7
 10
360.86643178289609
 20
-547.74582277717377
 30
0.0
 40
5.000000000000048
 50
341.31659956574572
 51
29.99999999999989
  0
ARC
  5
F3
  8
1
 62
     7
 10
258.96387098646261
 20
-568.13866718714121
 30
0.0
 40
5.0000000000002434
 50
221.3165995657435
 51
270.0
  0
ARC
  5
F4
  8
1
 62
     7
 10
349.09261757325919
 20
-568.13866718714121
 30
0.0
 40
5.0
 50
270.0
 51
318.68340043425411
  0
ARC
  5
F5
  8
1
 62
     7
 10
247.1900567768256
 20
-547.74582277717354
 30
0.0
 40
5.000000000000016
 50
150.0
 51
198.6834004342542
  0
ARC
  5
F6
  8
1
 62
     7
 10
315.80205848949771
 20
-469.69203862175777
 30
0.0
 40
4.999999999999968
 50
30.00000000000022
 51
78.683400434255034
  0
ARC
  5
F7
  8
1
 62
     7
 10
304.02824427986081
 20
-528.52550952869092
 30
0.0
 40
64.999999999999986
 50
78.683400434254509
 51
101.31659956574551
  0
ARC
  5
F8
  8
1
 62
     7
 10
292.2544300702238
 20
-469.69203862175777
 30
0.0
 40
5.0000000000000151
 50
101.3165995657443
 51
150.0
  0
ARC
  5
F9
  8
1
 62
     7
 10
304.02824427986081
 20
-528.52550952869092
 30
0.0
 40
37.499999999999979
 50
7.5113170201952659
 51
52.488682979804672
  0
ARC
  5
FA
  8
1
 62
     7
 10
335.99644556413392
 20
-486.88077268658571
 30
0.0
 40
15.00000000000002
 50
169.62080731506791
 51
232.48868297980491
  0
ARC
  5
FB
  8
1
 62
     7
 10
304.02824427986081
 20
-481.0255095286908
 30
0.0
 40
17.499999999999929
 50
349.62080731506819
 51
190.37919268493161
  0
ARC
  5
FC
  8
1
 62
     7
 10
272.06004299558788
 20
-486.88077268658571
 30
0.0
 40
14.999999999999909
 50
307.51131702019478
 51
10.37919268493215
  0
ARC
  5
FD
  8
1
 62
     7
 10
304.02824427986081
 20
-528.52550952869092
 30
0.0
 40
82.499999999999957
 50
310.74905437747032
 51
319.25094562252963
  0
ARC
  5
FE
  8
1
 62
     7
 10
304.02824427986081
 20
-528.52550952869092
 30
0.0
 40
82.5
 50
40.74905437747038
 51
49.250945622529642
  0
ARC
  5
FF
  8
1
 62
     7
 10
304.02824427986081
 20
-528.52550952869092
 30
0.0
 40
82.5
 50
130.74905437747029
 51
139.25094562252951
  0
ARC
  5
100
  8
1
  6
DASHDOT
 62
     3
 10
304.02824427986081
 20
-528.52550952869092
 30
0.0
 40
75.000000000000014
 50
220.60188361965999
 51
229.86107428985429
  0
ARC
  5
101
  8
1
  6
DASHDOT
 62
     3
 10
304.02824427986081
 20
-528.52550952869092
 30
0.0
 40
31.000000000000011
 50
260.09560746329163
 51
282.42386178406463
  0
ARC
  5
102
  8
1
 62
     7
 10
304.02824427986081
 20
-528.52550952869092
 30
0.0
 40
82.500000000000014
 50
220.7490543774704
 51
229.2509456225296
  0
ARC
  5
103
  8
1
  6
DASHDOT
 62
     3
 10
304.02824427986081
 20
-528.52550952869092
 30
0.0
 40
31.000000000000121
 50
21.772577213215978
 51
37.678290295044427
  0
ARC
  5
104
  8
1
  6
DASHDOT
 62
     3
 10
304.02824427986081
 20
-528.52550952869092
 30
0.0
 40
31.000000000000011
 50
140.09560746329149
 51
157.6296022072533
  0
ARC
  5
105
  8
1
 62
     7
 10
304.02824427986081
 20
-528.52550952869092
 30
0.0
 40
12.50000000000002
 50
108.6629248849424
 51
71.337075115057559
  0
ARC
  5
106
  8
1
 62
     7
 10
304.02824427986081
 20
-528.52550952869092
 30
0.0
 40
62.49999999999995
 50
225.54580179394759
 51
240.69189076447461
  0
ARC
  5
107
  8
1
 62
     7
 10
304.02824427986081
 20
-528.52550952869092
 30
0.0
 40
62.499999999999957
 50
299.30810923552531
 51
314.45419820605218
  0
ARC
  5
108
  8
1
 62
     7
 10
304.02824427986081
 20
-528.52550952869092
 30
0.0
 40
62.500000000000021
 50
345.5458017939477
 51
0.6918907644745569
  0
ARC
  5
109
  8
1
 62
     7
 10
304.02824427986081
 20
-528.52550952869092
 30
0.0
 40
62.499999999999929
 50
105.5458017939476
 51
120.69189076447429
  0
ARC
  5
10A
  8
1
 62
     7
 10
304.02824427986081
 20
-528.52550952869092
 30
0.0
 40
62.5
 50
59.308109235525428
 51
74.454198206052283
  0
ARC
  5
10B
  8
1
 62
     7
 10
304.02824427986081
 20
-528.52550952869092
 30
0.0
 40
62.499999999999957
 50
179.30810923552551
 51
194.45419820605241
  0
ARC
  5
10C
  8
1
 62
     7
 10
115.26791928599999
 20
-569.52550952869092
 30
0.0
 40
7.0
 50
90.0
 51
180.0
  0
ARC
  5
10D
  8
1
 62
     7
 10
115.26791928599999
 20
-589.02550952869092
 30
0.0
 40
7.0
 50
180.0
 51
270.0
  0
ARC
  5
10E
  8
1
 62
     7
 10
115.26791928599999
 20
-487.52550952869092
 30
0.0
 40
7.0
 50
180.0
 51
270.0
  0
ARC
  5
10F
  8
1
 62
     7
 10
115.26791928599999
 20
-468.0255095286908
 30
0.0
 40
7.0
 50
90.0
 51
180.0
  0
ARC
  5
110
  8
1
 62
     7
 10
145.667919286
 20
-584.02550952869092
 30
0.0
 40
1.0
 50
0.0
 51
180.0
  0
ARC
  5
111
  8
1
 62
     7
 10
145.667919286
 20
-594.02550952869092
 30
0.0
 40
1.0
 50
180.0
 51
0.0
  0
ARC
  5
112
  8
1
 62
     7
 10
285.52824427986081
 20
-560.56844946871513
 30
0.0
 40
29.999999999999989
 50
204.66909656042111
 51
239.99999999999989
  0
ARC
  5
113
  8
1
 62
     7
 10
304.02824427986081
 20
-528.52550952869092
 30
0.0
 40
66.999999999999986
 50
239.99999999999989
 51
300.00000000000011
  0
ARC
  5
114
  8
1
 62
     7
 10
322.52824427986081
 20
-560.56844946871524
 30
0.0
 40
29.999999999999918
 50
300.00000000000011
 51
335.33090343957912
  0
ARC
  5
115
  8
1
 62
     7
 10
322.52824427986093
 20
-496.48256958866659
 30
0.0
 40
29.999999999999918
 50
60.00000000000005
 51
95.330903439579004
  0
ARC
  5
116
  8
1
 62
     7
 10
267.02824427986093
 20
-528.52550952869092
 30
0.0
 40
30.000000000000028
 50
180.0
 51
215.33090343957889
  0
ARC
  5
117
  8
1
 62
     7
 10
304.02824427986081
 20
-528.52550952869092
 30
0.0
 40
67.0
 50
0.0
 51
59.999999999999972
  0
ARC
  5
118
  8
1
 62
     7
 10
304.02824427986081
 20
-528.52550952869092
 30
0.0
 40
66.999999999999929
 50
119.9999999999999
 51
180.0
  0
ARC
  5
119
  8
1
 62
     7
 10
341.02824427986081
 20
-528.52550952869103
 30
0.0
 40
29.999999999999979
 50
324.66909656042122
 51
0.0
  0
ARC
  5
11A
  8
1
 62
     7
 10
285.52824427986098
 20
-496.48256958866659
 30
0.0
 40
30.0
 50
84.669096560421053
 51
119.9999999999999
  0
CIRCLE
  5
11B
  8
1
 62
     7
 10
304.02824427986081
 20
-528.52550952869092
 30
0.0
 40
68.0
  0
CIRCLE
  5
11C
  8
1
 62
     7
 10
345.1644509596216
 20
-552.27550952869092
 30
0.0
 40
2.5000000000000639
  0
CIRCLE
  5
11D
  8
1
 62
     7
 10
345.1644509596216
 20
-552.27550952869092
 30
0.0
 40
3.000000000000008
  0
CIRCLE
  5
11E
  8
1
 62
     7
 10
262.89203760009991
 20
-552.27550952869092
 30
0.0
 40
2.500000000000008
  0
CIRCLE
  5
11F
  8
1
 62
     7
 10
262.89203760009991
 20
-552.27550952869092
 30
0.0
 40
3.000000000000048
  0
CIRCLE
  5
120
  8
1
 62
     7
 10
304.02824427986081
 20
-481.0255095286908
 30
0.0
 40
2.5
  0
CIRCLE
  5
121
  8
1
 62
     7
 10
304.02824427986081
 20
-481.0255095286908
 30
0.0
 40
3.0
  0
CIRCLE
  5
122
  8
1
 62
     7
 10
304.02824427986081
 20
-589.02550952869092
 30
0.0
 40
6.0
  0
CIRCLE
  5
123
  8
1
 62
     7
 10
251.6337073509024
 20
-498.27550952869092
 30
0.0
 40
6.0000000000001128
  0
CIRCLE
  5
124
  8
1
 62
     7
 10
356.42278120881929
 20
-498.27550952869092
 30
0.0
 40
6.0
  0
CIRCLE
  5
125
  8
1
 62
     3
 10
330.87503179717828
 20
-513.02550952869092
 30
0.0
 40
3.0
  0
CIRCLE
  5
126
  8
1
 62
     7
 10
330.87503179717828
 20
-513.02550952869092
 30
0.0
 40
2.500000000000008
  0
CIRCLE
  5
127
  8
1
 62
     7
 10
345.1644509596216
 20
-552.27550952869092
 30
0.0
 40
11.00000000000002
  0
CIRCLE
  5
128
  8
1
 62
     7
 10
345.1644509596216
 20
-552.27550952869092
 30
0.0
 40
7.0000000000000817
  0
CIRCLE
  5
129
  8
1
 62
     7
 10
262.89203760009991
 20
-552.27550952869092
 30
0.0
 40
11.00000000000002
  0
CIRCLE
  5
12A
  8
1
 62
     7
 10
262.89203760009991
 20
-552.27550952869092
 30
0.0
 40
6.9999999999999831
  0
CIRCLE
  5
12B
  8
1
 62
     7
 10
304.02824427986081
 20
-481.0255095286908
 30
0.0
 40
11.0
  0
CIRCLE
  5
12C
  8
1
 62
     7
 10
304.02824427986081
 20
-481.0255095286908
 30
0.0
 40
7.0
  0
CIRCLE
  5
12D
  8
1
 62
     7
 10
357.06125286885202
 20
-475.49250093969971
 30
0.0
 40
3.25
  0
CIRCLE
  5
12E
  8
1
 62
     7
 10
250.99523569086961
 20
-475.49250093969971
 30
0.0
 40
3.25
  0
CIRCLE
  5
12F
  8
1
 62
     7
 10
250.99523569086961
 20
-581.55851811768196
 30
0.0
 40
3.25
  0
CIRCLE
  5
130
  8
1
 62
     7
 10
357.06125286885202
 20
-581.55851811768196
 30
0.0
 40
3.25
  0
CIRCLE
  5
131
  8
1
 62
     3
 10
277.18145676254341
 20
-513.02550952869092
 30
0.0
 40
3.0000000000000981
  0
CIRCLE
  5
132
  8
1
 62
     7
 10
277.18145676254341
 20
-513.02550952869092
 30
0.0
 40
2.500000000000008
  0
CIRCLE
  5
133
  8
1
 62
     3
 10
304.02824427986081
 20
-559.5255095286908
 30
0.0
 40
3.0
  0
CIRCLE
  5
134
  8
1
 62
     7
 10
304.02824427986081
 20
-559.5255095286908
 30
0.0
 40
2.5
  0
ARC
  5
135
  8
1
 62
     7
 10
23.367919285999982
 20
-569.02550952869092
 30
0.0
 40
3.0
 50
90.0
 51
180.0
  0
ARC
  5
136
  8
1
 62
     7
 10
17.367919285999982
 20
-570.13866718714132
 30
0.0
 40
3.0
 50
270.0
 51
0.0
  0
ARC
  5
137
  8
1
 62
     7
 10
12.92791928599998
 20
-570.13866718714132
 30
0.0
 40
3.0
 50
180.0
 51
270.0
  0
ARC
  5
138
  8
1
 62
     7
 10
6.9279192859999901
 20
-569.02550952869092
 30
0.0
 40
2.9999999999999978
 50
0.0
 51
90.0
  0
ARC
  5
139
  8
1
 62
     7
 10
167.36791928599999
 20
-569.02550952869092
 30
0.0
 40
3.0
 50
90.0
 51
180.0
  0
ARC
  5
13A
  8
1
 62
     7
 10
161.36791928599999
 20
-570.13866718714132
 30
0.0
 40
3.0
 50
270.0
 51
0.0
  0
ARC
  5
13B
  8
1
 62
     7
 10
156.92791928599991
 20
-570.13866718714132
 30
0.0
 40
3.0
 50
180.0
 51
270.0
  0
ARC
  5
13C
  8
1
 62
     7
 10
150.92791928599999
 20
-569.02550952869092
 30
0.0
 40
3.0
 50
0.0
 51
90.0
  0
TEXT
  5
13D
  8
1
 62
     7
 10
-42.410736875263112
 20
-406.29746596223907
 30
0.0
 40
5.0
  1
VBEHA 5
 41
0.9
  7
SIMPLEX
  0
ENDSEC
  0
EOF
