  0
SECTION
  2
HEADER
  9
$ACADVER
  1
AC1009
  9
$INSBASE
 10
0.0
 20
0.0
 30
0.0
  9
$EXTMIN
 10
-90.9626703535058
 20
-42.5
 30
0.0
  9
$EXTMAX
 10
144.68445126407531
 20
79.541274947535157
 30
0.0
  9
$LIMMIN
 10
-90.9626703535058
 20
-42.5
  9
$LIMMAX
 10
141.63461929013479
 20
79.541274947535157
  9
$ORTHOMODE
 70
     0
  9
$REGENMODE
 70
     1
  9
$FILLMODE
 70
     1
  9
$QTEXTMODE
 70
     0
  9
$MIRRTEXT
 70
     1
  9
$DRAGMODE
 70
     2
  9
$LTSCALE
 40
1.0
  9
$OSMODE
 70
    37
  9
$ATTMODE
 70
     1
  9
$TEXTSIZE
 40
3.5
  9
$TRACEWID
 40
0.5
  9
$TEXTSTYLE
  7
STANDARD
  9
$CLAYER
  8
0
  9
$CELTYPE
  6
BYLAYER
  9
$CECOLOR
 62
   256
  9
$DIMSCALE
 40
1.0
  9
$DIMASZ
 40
0.18
  9
$DIMEXO
 40
0.0625
  9
$DIMDLI
 40
0.38
  9
$DIMRND
 40
0.0
  9
$DIMDLE
 40
0.0
  9
$DIMEXE
 40
0.18
  9
$DIMTP
 40
0.0
  9
$DIMTM
 40
0.0
  9
$DIMTXT
 40
0.18
  9
$DIMCEN
 40
0.09
  9
$DIMTSZ
 40
0.0
  9
$DIMTOL
 70
     0
  9
$DIMLIM
 70
     0
  9
$DIMTIH
 70
     1
  9
$DIMTOH
 70
     1
  9
$DIMSE1
 70
     0
  9
$DIMSE2
 70
     0
  9
$DIMTAD
 70
     0
  9
$DIMZIN
 70
     0
  9
$DIMBLK
  1

  9
$DIMASO
 70
     1
  9
$DIMSHO
 70
     1
  9
$DIMPOST
  1

  9
$DIMAPOST
  1

  9
$DIMALT
 70
     0
  9
$DIMALTD
 70
     2
  9
$DIMALTF
 40
25.399999999999999
  9
$DIMLFAC
 40
1.0
  9
$DIMTOFL
 70
     0
  9
$DIMTVP
 40
0.0
  9
$DIMTIX
 70
     0
  9
$DIMSOXD
 70
     0
  9
$DIMSAH
 70
     0
  9
$DIMBLK1
  1

  9
$DIMBLK2
  1

  9
$DIMSTYLE
  2
STANDARD
  9
$DIMCLRD
 70
     0
  9
$DIMCLRE
 70
     0
  9
$DIMCLRT
 70
     0
  9
$DIMTFAC
 40
1.0
  9
$DIMGAP
 40
0.09
  9
$LUNITS
 70
     2
  9
$LUPREC
 70
     4
  9
$SKETCHINC
 40
0.1
  9
$FILLETRAD
 40
2.0
  9
$AUNITS
 70
     0
  9
$AUPREC
 70
     0
  9
$MENU
  1
ACAD
  9
$ELEVATION
 40
0.0
  9
$PELEVATION
 40
0.0
  9
$THICKNESS
 40
0.0
  9
$LIMCHECK
 70
     0
  9
$BLIPMODE
 70
     0
  9
$CHAMFERA
 40
0.0
  9
$CHAMFERB
 40
0.0
  9
$SKPOLY
 70
     0
  9
$TDCREATE
 40
2452095.374791435
  9
$TDUPDATE
 40
2452095.3752719909
  9
$TDINDWG
 40
0.0004972222
  9
$TDUSRTIMER
 40
0.0004972222
  9
$USRTIMER
 70
     1
  9
$ANGBASE
 50
0.0
  9
$ANGDIR
 70
     0
  9
$PDMODE
 70
     0
  9
$PDSIZE
 40
0.0
  9
$PLINEWID
 40
0.0
  9
$COORDS
 70
     1
  9
$SPLFRAME
 70
     0
  9
$SPLINETYPE
 70
     6
  9
$SPLINESEGS
 70
     8
  9
$ATTDIA
 70
     0
  9
$ATTREQ
 70
     1
  9
$HANDLING
 70
 10241
  9
$HANDSEED
  5
118
  9
$SURFTAB1
 70
     6
  9
$SURFTAB2
 70
     6
  9
$SURFTYPE
 70
     6
  9
$SURFU
 70
     6
  9
$SURFV
 70
     6
  9
$UCSNAME
  2

  9
$UCSORG
 10
0.0
 20
0.0
 30
0.0
  9
$UCSXDIR
 10
1.0
 20
0.0
 30
0.0
  9
$UCSYDIR
 10
0.0
 20
1.0
 30
0.0
  9
$PUCSNAME
  2

  9
$PUCSORG
 10
0.0
 20
0.0
 30
0.0
  9
$PUCSXDIR
 10
1.0
 20
0.0
 30
0.0
  9
$PUCSYDIR
 10
0.0
 20
1.0
 30
0.0
  9
$USERI1
 70
     0
  9
$USERI2
 70
     0
  9
$USERI3
 70
     0
  9
$USERI4
 70
     0
  9
$USERI5
 70
     0
  9
$USERR1
 40
0.0
  9
$USERR2
 40
0.0
  9
$USERR3
 40
0.0
  9
$USERR4
 40
0.0
  9
$USERR5
 40
0.0
  9
$WORLDVIEW
 70
     1
  9
$SHADEDGE
 70
     3
  9
$SHADEDIF
 70
    70
  9
$TILEMODE
 70
     1
  9
$MAXACTVP
 70
    64
  9
$PLIMCHECK
 70
     0
  9
$PEXTMIN
 10
1.0000000000000000E+020
 20
1.0000000000000000E+020
 30
1.0000000000000000E+020
  9
$PEXTMAX
 10
-1.0000000000000000E+020
 20
-1.0000000000000000E+020
 30
-1.0000000000000000E+020
  9
$PLIMMIN
 10
0.0
 20
0.0
  9
$PLIMMAX
 10
12.0
 20
9.0
  9
$UNITMODE
 70
     0
  9
$VISRETAIN
 70
     1
  9
$PLINEGEN
 70
     0
  9
$PSLTSCALE
 70
     1
  0
ENDSEC
  0
SECTION
  2
TABLES
  0
TABLE
  2
VPORT
 70
     2
  0
VPORT
  2
*ACTIVE
 70
     0
 10
0.0
 20
0.0
 11
1.0
 21
1.0
 12
-66.940001375007895
 22
75.283427423423745
 13
0.0
 23
0.0
 14
1.0
 24
1.0
 15
0.0
 25
0.0
 16
0.0
 26
0.0
 36
1.0
 17
0.0
 27
0.0
 37
0.0
 40
8.9999999440536822
 41
2.4144144144144142
 42
50.0
 43
0.0
 44
0.0
 50
0.0
 51
0.0
 71
     0
 72
   100
 73
     1
 74
     1
 75
     0
 76
     0
 77
     0
 78
     0
  0
ENDTAB
  0
TABLE
  2
LTYPE
 70
     9
  0
LTYPE
  2
CONTINUOUS
 70
     0
  3
Solid line
 72
    65
 73
     0
 40
0.0
  0
LTYPE
  2
BORDER
 70
     0
  3
__ __ . __ __ .
 72
    65
 73
     6
 40
10.711717286220299
 49
3.0604906532057981
 49
-1.5302453266028999
 49
3.0604906532057981
 49
-1.5302453266028999
 49
0.0
 49
-1.5302453266028999
  0
LTYPE
  2
CENTER
 70
     0
  3
____ _ ____ _
 72
    65
 73
     4
 40
12.241962612823199
 49
7.6512266330144962
 49
-1.5302453266028999
 49
1.5302453266028999
 49
-1.5302453266028999
  0
LTYPE
  2
DASHDOT
 70
     0
  3
__ . __ . __ .
 72
    65
 73
     4
 40
6.120981306411597
 49
3.0604906532057981
 49
-1.5302453266028999
 49
0.0
 49
-1.5302453266028999
  0
LTYPE
  2
DASHED
 70
     0
  3
__ __ __ __ __
 72
    65
 73
     2
 40
4.5907359798086986
 49
3.0604906532057981
 49
-1.5302453266028999
  0
LTYPE
  2
DIVIDE
 70
     0
  3
__ . . __ . . 
 72
    65
 73
     6
 40
7.6512266330144962
 49
3.0604906532057981
 49
-1.5302453266028999
 49
0.0
 49
-1.5302453266028999
 49
0.0
 49
-1.5302453266028999
  0
LTYPE
  2
DOT
 70
     0
  3
..............
 72
    65
 73
     4
 40
3.0604906532057981
 49
0.0
 49
-1.5302453266028999
 49
0.0
 49
-1.5302453266028999
  0
LTYPE
  2
HIDDEN
 70
     0
  3
_ _ _ _ _ _ _
 72
    65
 73
     2
 40
2.2953679899043489
 49
1.5302453266028999
 49
-0.7651226633014499
  0
LTYPE
  2
PHANTOM
 70
     0
  3
_____ _ _ _____ _ _ 
 72
    65
 73
     6
 40
15.302453266028991
 49
7.6512266330144962
 49
-1.5302453266028999
 49
1.5302453266028999
 49
-1.5302453266028999
 49
1.5302453266028999
 49
-1.5302453266028999
  0
ENDTAB
  0
TABLE
  2
LAYER
 70
     2
  0
LAYER
  2
0
 70
     0
 62
     7
  6
CONTINUOUS
  0
LAYER
  2
1
 70
     0
 62
     7
  6
CONTINUOUS
  0
ENDTAB
  0
TABLE
  2
STYLE
 70
     4
  0
STYLE
  2
STANDARD
 70
     0
 40
0.0
 41
1.0
 50
0.0
 71
     0
 42
3.5
  3
txt
  4

  0
STYLE
  2
SIMPLEX
 70
     0
 40
0.0
 41
1.0
 50
0.0
 71
     0
 42
3.5
  3
simplex
  4

  0
STYLE
  2
COMPLEX
 70
     0
 40
0.0
 41
1.0
 50
0.0
 71
     0
 42
3.5
  3
complex
  4

  0
STYLE
  2
ITALIC
 70
     0
 40
0.0
 41
1.0
 50
0.0
 71
     0
 42
3.5
  3
italic
  4

  0
ENDTAB
  0
TABLE
  2
VIEW
 70
     0
  0
ENDTAB
  0
TABLE
  2
UCS
 70
     0
  0
ENDTAB
  0
TABLE
  2
APPID
 70
     1
  0
APPID
  2
ACAD
 70
     0
  0
ENDTAB
  0
TABLE
  2
DIMSTYLE
 70
     1
  0
DIMSTYLE
  2
STANDARD
 70
     0
  3

  4

  5

  6

  7

 40
1.0
 41
0.18
 42
0.0625
 43
0.38
 44
0.18
 45
0.0
 46
0.0
 47
0.0
 48
0.0
140
0.18
141
0.09
142
0.0
143
25.399999999999999
144
1.0
145
0.0
146
1.0
147
0.09
 71
     0
 72
     0
 73
     1
 74
     1
 75
     0
 76
     0
 77
     0
 78
     0
170
     0
171
     2
172
     0
173
     0
174
     0
175
     0
176
     0
177
     0
178
     0
  0
ENDTAB
  0
ENDSEC
  0
SECTION
  2
BLOCKS
  0
BLOCK
  8
0
  2
$MODEL_SPACE
 70
     0
 10
0.0
 20
0.0
 30
0.0
  3
$MODEL_SPACE
  1

  0
ENDBLK
  5
20
  8
0
  0
BLOCK
 67
     1
  8
0
  2
$PAPER_SPACE
 70
     0
 10
0.0
 20
0.0
 30
0.0
  3
$PAPER_SPACE
  1

  0
ENDBLK
  5
1C
 67
     1
  8
0
  0
ENDSEC
  0
SECTION
  2
ENTITIES
  0
LINE
  5
33
  8
1
 62
     7
 10
-60.044690093213781
 20
33.5
 30
0.0
 11
-60.044690093213781
 21
-33.499999999999993
 31
0.0
  0
LINE
  5
34
  8
1
 62
     7
 10
23.300000000000011
 20
-24.5
 30
0.0
 11
23.300000000000011
 21
-32.75
 31
0.0
  0
LINE
  5
35
  8
1
 62
     7
 10
23.300000000000011
 20
-29.0
 30
0.0
 11
22.899999999999999
 21
-29.0
 31
0.0
  0
LINE
  5
36
  8
1
 62
     7
 10
23.300000000000011
 20
-17.0
 30
0.0
 11
22.899999999999999
 21
-17.0
 31
0.0
  0
LINE
  5
37
  8
1
 62
     7
 10
22.100000000000001
 20
-33.5
 30
0.0
 11
22.100000000000001
 21
-26.25
 31
0.0
  0
LINE
  5
38
  8
1
 62
     7
 10
22.100000000000001
 20
33.5
 30
0.0
 11
22.100000000000001
 21
-19.75
 31
0.0
  0
LINE
  5
39
  8
1
 62
     7
 10
-79.044690093213745
 20
33.0
 30
0.0
 11
-62.944690093213779
 21
33.0
 31
0.0
  0
LINE
  5
3A
  8
1
 62
     7
 10
-58.84469009321375
 20
32.75
 30
0.0
 11
-58.84469009321375
 21
24.545481322062528
 31
0.0
  0
LINE
  5
3B
  8
1
 62
     7
 10
-58.84469009321375
 20
32.75
 30
0.0
 11
-59.244690093213769
 21
32.749999999999993
 31
0.0
  0
LINE
  5
3C
  8
1
 62
     7
 10
-59.244690093213769
 20
-33.5
 30
0.0
 11
-59.244690093213769
 21
33.5
 31
0.0
  0
LINE
  5
3D
  8
1
 62
     7
 10
-57.144690093213747
 20
-19.500000000000011
 30
0.0
 11
-57.144690093213747
 21
-26.500000000000011
 31
0.0
  0
LINE
  5
3E
  8
1
 62
     7
 10
-85.8446900932137
 20
-42.5
 30
0.0
 11
-85.8446900932137
 21
31.0
 31
0.0
  0
LINE
  5
3F
  8
1
 62
     7
 10
-77.644690093213725
 20
33.0
 30
0.0
 11
-77.644690093213725
 21
54.743106806862258
 31
0.0
  0
LINE
  5
40
  8
1
 62
     7
 10
-76.044690093213688
 20
33.0
 30
0.0
 11
-76.044690093213688
 21
54.743106806862258
 31
0.0
  0
LINE
  5
41
  8
1
 62
     7
 10
-76.044690093213688
 20
54.743106806862258
 30
0.0
 11
-77.644690093213725
 21
54.743106806862258
 31
0.0
  0
LINE
  5
42
  8
1
 62
     3
 10
23.939230484541341
 20
-21.499999999999989
 30
0.0
 11
23.939230484541341
 21
-24.5
 31
0.0
  0
LINE
  5
43
  8
1
 62
     3
 10
23.939230484541341
 20
-23.899999999999999
 30
0.0
 11
22.899999999999999
 21
-24.5
 31
0.0
  0
LINE
  5
44
  8
1
 62
     3
 10
30.399999999999999
 20
-23.899999999999999
 30
0.0
 11
23.939230484541341
 21
-23.899999999999999
 31
0.0
  0
LINE
  5
45
  8
1
 62
     3
 10
23.939230484541341
 20
-22.100000000000001
 30
0.0
 11
22.899999999999999
 21
-21.499999999999989
 31
0.0
  0
LINE
  5
46
  8
1
 62
     3
 10
30.399999999999999
 20
-22.100000000000001
 30
0.0
 11
23.939230484541341
 21
-22.100000000000001
 31
0.0
  0
LINE
  5
47
  8
1
 62
     7
 10
29.800000000000001
 20
-21.499999999999989
 30
0.0
 11
29.800000000000001
 21
-24.5
 31
0.0
  0
LINE
  5
48
  8
1
 62
     7
 10
29.800000000000001
 20
-24.5
 30
0.0
 11
22.899999999999999
 21
-24.5
 31
0.0
  0
LINE
  5
49
  8
1
 62
     7
 10
30.399999999999999
 20
-23.899999999999999
 30
0.0
 11
29.800000000000001
 21
-24.5
 31
0.0
  0
LINE
  5
4A
  8
1
 62
     7
 10
30.399999999999999
 20
-22.100000000000001
 30
0.0
 11
30.399999999999999
 21
-23.899999999999999
 31
0.0
  0
LINE
  5
4B
  8
1
 62
     7
 10
29.800000000000001
 20
-21.499999999999989
 30
0.0
 11
30.399999999999999
 21
-22.100000000000001
 31
0.0
  0
LINE
  5
4C
  8
1
 62
     7
 10
22.899999999999999
 20
-21.499999999999989
 30
0.0
 11
29.800000000000001
 21
-21.499999999999989
 31
0.0
  0
LINE
  5
4D
  8
1
 62
     7
 10
20.250000000000011
 20
-21.499999999999989
 30
0.0
 11
20.250000000000011
 21
-24.5
 31
0.0
  0
LINE
  5
4E
  8
1
 62
     7
 10
22.400000000000009
 20
-25.75
 30
0.0
 11
22.400000000000009
 21
-20.249999999999989
 31
0.0
  0
LINE
  5
4F
  8
1
 62
     7
 10
22.000000000000011
 20
-25.75
 30
0.0
 11
22.400000000000009
 21
-25.75
 31
0.0
  0
LINE
  5
50
  8
1
 62
     7
 10
22.000000000000011
 20
-20.249999999999989
 30
0.0
 11
22.000000000000011
 21
-25.75
 31
0.0
  0
LINE
  5
51
  8
1
 62
     7
 10
22.400000000000009
 20
-20.249999999999989
 30
0.0
 11
22.000000000000011
 21
-20.249999999999989
 31
0.0
  0
LINE
  5
52
  8
1
 62
     7
 10
22.400000000000009
 20
-20.249999999999989
 30
0.0
 11
22.899999999999999
 21
-20.249999999999989
 31
0.0
  0
LINE
  5
53
  8
1
 62
     7
 10
22.899999999999999
 20
-25.75
 30
0.0
 11
22.400000000000009
 21
-25.75
 31
0.0
  0
LINE
  5
54
  8
1
 62
     7
 10
4.500000000000056
 20
33.00000000000005
 30
0.0
 11
4.500000000000056
 21
54.743106806862258
 31
0.0
  0
LINE
  5
55
  8
1
 62
     7
 10
6.1000000000000787
 20
54.743106806862258
 30
0.0
 11
4.500000000000056
 21
54.743106806862258
 31
0.0
  0
LINE
  5
56
  8
1
 62
     7
 10
22.899999999999999
 20
33.5
 30
0.0
 11
22.899999999999999
 21
-33.5
 31
0.0
  0
LINE
  5
57
  8
1
 62
     7
 10
-3.6999999999999309
 20
31.0
 30
0.0
 11
-3.6999999999999309
 21
-42.5
 31
0.0
  0
LINE
  5
58
  8
1
 62
     7
 10
108.13461929013491
 20
54.743106806862258
 30
0.0
 11
108.13461929013491
 21
33.499999999999993
 31
0.0
  0
LINE
  5
59
  8
1
 62
     7
 10
139.13461929013471
 20
-12.698425099200479
 30
0.0
 11
139.13461929013491
 21
-29.073183520213281
 31
0.0
  0
LINE
  5
5A
  8
1
 62
     7
 10
95.436194190934657
 20
-31.000000000000011
 30
0.0
 11
79.06143576992163
 21
-31.000000000000011
 31
0.0
  0
LINE
  5
5B
  8
1
 62
     7
 10
77.134619290134907
 20
12.698425099200289
 30
0.0
 11
77.134619290134907
 21
29.073183520213249
 31
0.0
  0
LINE
  5
5C
  8
1
 62
     7
 10
120.8330443893351
 20
31.0
 30
0.0
 11
137.207802810348
 21
31.0
 31
0.0
  0
LINE
  5
5D
  8
1
  6
DASHDOT
 62
     3
 10
-88.676893117636453
 20
-37.5
 30
0.0
 11
-84.743070607928928
 21
-37.5
 31
0.0
  0
LINE
  5
5E
  8
1
  6
DASHDOT
 62
     3
 10
79.14487676247559
 20
28.98974252765932
 30
0.0
 11
84.100987613439827
 21
24.03363167669508
 31
0.0
  0
LINE
  5
5F
  8
1
  6
DASHDOT
 62
     3
 10
79.132661476267415
 20
-29.001957813867431
 30
0.0
 11
83.882267708441475
 21
-24.252351581693372
 31
0.0
  0
LINE
  5
60
  8
1
  6
DASHDOT
 62
     3
 10
132.35423353741061
 20
-24.219614247275821
 30
0.0
 11
137.31034438837469
 21
-29.175725098240001
 31
0.0
  0
LINE
  5
61
  8
1
  6
DASHDOT
 62
     3
 10
132.34201825120249
 20
24.20739896106771
 30
0.0
 11
137.43579884802691
 21
29.301179557891992
 31
0.0
  0
LINE
  5
62
  8
1
 62
     7
 10
109.13487054331441
 20
56.549463805797259
 30
0.0
 11
109.13487054331441
 21
54.743106806862258
 31
0.0
  0
LINE
  5
63
  8
1
 62
     7
 10
108.6172416087534
 20
56.549463805797259
 30
0.0
 11
108.6172416087534
 21
54.743106806862258
 31
0.0
  0
LINE
  5
64
  8
1
 62
     7
 10
107.2584656555304
 20
56.549463805797259
 30
0.0
 11
107.2584656555304
 21
54.743106806862258
 31
0.0
  0
LINE
  5
65
  8
1
 62
     7
 10
107.7437427816815
 20
56.581815614207358
 30
0.0
 11
107.7437427816815
 21
54.743106806862258
 31
0.0
  0
LINE
  5
66
  8
1
  6
DASHDOT
 62
     3
 10
84.210139868362319
 20
13.81280463438206
 30
0.0
 11
92.546162022014997
 21
8.9999999999999876
 31
0.0
  0
LINE
  5
67
  8
1
  6
DASHDOT
 62
     3
 10
123.7230765582546
 20
8.9999999999999876
 30
0.0
 11
132.78903998463159
 21
14.23423642468201
 31
0.0
  0
LINE
  5
68
  8
1
 62
     7
 10
79.06143576992163
 20
31.0
 30
0.0
 11
95.436194190934657
 21
31.0
 31
0.0
  0
LINE
  5
69
  8
1
 62
     7
 10
139.13461929013491
 20
29.073183520213249
 30
0.0
 11
139.13461929013491
 21
12.698425099200289
 31
0.0
  0
LINE
  5
6A
  8
1
 62
     7
 10
137.207802810348
 20
-31.000000000000011
 30
0.0
 11
120.6744564719709
 21
-31.000000000000011
 31
0.0
  0
LINE
  5
6B
  8
1
 62
     7
 10
77.134619290134907
 20
-29.073183520213281
 30
0.0
 11
77.134619290134907
 21
-12.6984250992003
 31
0.0
  0
LINE
  5
6C
  8
1
 62
     7
 10
109.7346192901349
 20
54.743106806862258
 30
0.0
 11
109.7346192901349
 21
33.46176922997347
 31
0.0
  0
LINE
  5
6D
  8
1
 62
     7
 10
106.5346192901347
 20
54.743106806862258
 30
0.0
 11
109.7346192901349
 21
54.743106806862258
 31
0.0
  0
LINE
  5
6E
  8
1
 62
     7
 10
106.5346192901347
 20
54.743106806862258
 30
0.0
 11
106.5346192901347
 21
33.46176922997347
 31
0.0
  0
LINE
  5
6F
  8
1
 62
     7
 10
106.8118374856019
 20
54.743106806862258
 30
0.0
 11
106.8118374856019
 21
56.581815614207358
 31
0.0
  0
LINE
  5
70
  8
1
 62
     7
 10
109.575206880095
 20
54.743106806862258
 30
0.0
 11
109.575206880095
 21
56.568022427975151
 31
0.0
  0
LINE
  5
71
  8
1
  6
DASHDOT
 62
     3
 10
112.64827513151801
 20
-0.0000000000000071
 30
0.0
 11
103.6209634487516
 21
-0.0000000000000071
 31
0.0
  0
LINE
  5
72
  8
1
  6
DASHDOT
 62
     3
 10
108.13461929013491
 20
4.5136558413831187
 30
0.0
 11
108.13461929013491
 21
-4.5136558413831409
 31
0.0
  0
LINE
  5
73
  8
1
  6
DASHDOT
 62
     3
 10
108.13461929013491
 20
-18.357523898940951
 30
0.0
 11
108.13461929013491
 21
-28.125041167379049
 31
0.0
  0
LINE
  5
74
  8
1
 62
     7
 10
-76.982055959881194
 20
56.242121625901653
 30
0.0
 11
-76.982055959881194
 21
54.743106806862258
 31
0.0
  0
LINE
  5
75
  8
1
 62
     7
 10
-76.661773056621513
 20
56.213004998332551
 30
0.0
 11
-76.661773056621513
 21
54.743106806862258
 31
0.0
  0
LINE
  5
76
  8
1
 62
     7
 10
-76.39972340849998
 20
56.183888370763462
 30
0.0
 11
-76.39972340849998
 21
54.743106806862258
 31
0.0
  0
LINE
  5
77
  8
1
 62
     7
 10
-77.244105608002741
 20
56.213004998332551
 30
0.0
 11
-77.244105608002741
 21
54.743106806862258
 31
0.0
  0
LINE
  5
78
  8
1
 62
     7
 10
-62.944690093213779
 20
33.0
 30
0.0
 11
-62.944690093213779
 21
-33.000000000000028
 31
0.0
  0
LINE
  5
79
  8
1
 62
     7
 10
-87.644690093213796
 20
-42.5
 30
0.0
 11
-85.8446900932137
 21
-42.5
 31
0.0
  0
LINE
  5
7A
  8
1
 62
     7
 10
-87.644690093213796
 20
31.0
 30
0.0
 11
-85.8446900932137
 21
31.0
 31
0.0
  0
LINE
  5
7B
  8
1
 62
     7
 10
-87.644690093213796
 20
31.0
 30
0.0
 11
-87.644690093213796
 21
-42.5
 31
0.0
  0
LINE
  5
7C
  8
1
 62
     7
 10
-79.345844559217113
 20
-33.000000000000028
 30
0.0
 11
-62.944690093213779
 21
-33.000000000000028
 31
0.0
  0
LINE
  5
7D
  8
1
 62
     7
 10
-57.544690093213752
 20
26.0
 30
0.0
 11
-57.244690093213777
 21
26.300000000000001
 31
0.0
  0
LINE
  5
7E
  8
1
 62
     7
 10
-57.544690093213752
 20
32.0
 30
0.0
 11
-57.244690093213777
 21
31.699999999999989
 31
0.0
  0
LINE
  5
7F
  8
1
 62
     7
 10
-58.84469009321375
 20
32.0
 30
0.0
 11
-57.544690093213752
 21
32.0
 31
0.0
  0
LINE
  5
80
  8
1
 62
     7
 10
-58.344690093213757
 20
26.0
 30
0.0
 11
-58.344690093213757
 21
32.0
 31
0.0
  0
LINE
  5
81
  8
1
 62
     7
 10
-58.84469009321375
 20
26.0
 30
0.0
 11
-57.544690093213752
 21
26.0
 31
0.0
  0
LINE
  5
82
  8
1
 62
     7
 10
-57.244690093213777
 20
31.699999999999989
 30
0.0
 11
-57.244690093213777
 21
26.300000000000001
 31
0.0
  0
LINE
  5
83
  8
1
 62
     7
 10
-62.744690093213777
 20
-33.5
 30
0.0
 11
-59.244690093213769
 21
-33.5
 31
0.0
  0
LINE
  5
84
  8
1
 62
     7
 10
-62.744690093213777
 20
33.5
 30
0.0
 11
-62.744690093213777
 21
-33.5
 31
0.0
  0
LINE
  5
85
  8
1
 62
     7
 10
-58.84469009321375
 20
23.0
 30
0.0
 11
-58.84469009321375
 21
-32.75
 31
0.0
  0
LINE
  5
86
  8
1
 62
     7
 10
-62.744690093213777
 20
33.5
 30
0.0
 11
-59.244690093213769
 21
33.5
 31
0.0
  0
LINE
  5
87
  8
1
 62
     7
 10
-58.84469009321375
 20
24.545481322062528
 30
0.0
 11
-58.444690093213737
 21
23.10352761804101
 31
0.0
  0
LINE
  5
88
  8
1
 62
     7
 10
-58.84469009321375
 20
24.545481322062528
 30
0.0
 11
-58.444690093213737
 21
23.10352761804101
 31
0.0
  0
LINE
  5
89
  8
1
 62
     7
 10
-58.444690093213751
 20
-32.75
 30
0.0
 11
-58.444690093213737
 21
23.10352761804101
 31
0.0
  0
LINE
  5
8A
  8
1
 62
     7
 10
-58.84469009321375
 20
23.0
 30
0.0
 11
-59.244690093213769
 21
24.492820323027541
 31
0.0
  0
LINE
  5
8B
  8
1
 62
     3
 10
-51.744690093213748
 20
-22.000000000000011
 30
0.0
 11
-57.144690093213747
 21
-22.000000000000011
 31
0.0
  0
LINE
  5
8C
  8
1
 62
     3
 10
-51.744690093213748
 20
-24.000000000000011
 30
0.0
 11
-57.144690093213747
 21
-24.000000000000011
 31
0.0
  0
LINE
  5
8D
  8
1
 62
     7
 10
-52.244690093213748
 20
-24.500000000000011
 30
0.0
 11
-57.144690093213747
 21
-24.500000000000011
 31
0.0
  0
LINE
  5
8E
  8
1
 62
     7
 10
-52.244690093213748
 20
-24.500000000000011
 30
0.0
 11
-51.744690093213748
 21
-24.000000000000011
 31
0.0
  0
LINE
  5
8F
  8
1
 62
     7
 10
-51.744690093213748
 20
-24.000000000000011
 30
0.0
 11
-51.744690093213748
 21
-22.000000000000011
 31
0.0
  0
LINE
  5
90
  8
1
 62
     7
 10
-51.744690093213748
 20
-22.000000000000011
 30
0.0
 11
-52.244690093213748
 21
-21.500000000000011
 31
0.0
  0
LINE
  5
91
  8
1
 62
     7
 10
-52.244690093213748
 20
-21.500000000000011
 30
0.0
 11
-57.144690093213747
 21
-21.500000000000011
 31
0.0
  0
LINE
  5
92
  8
1
 62
     7
 10
-52.244690093213748
 20
-24.500000000000011
 30
0.0
 11
-52.244690093213748
 21
-21.500000000000011
 31
0.0
  0
LINE
  5
93
  8
1
 62
     7
 10
-58.84469009321375
 20
-32.75
 30
0.0
 11
-58.444690093213751
 21
-32.75
 31
0.0
  0
LINE
  5
94
  8
1
 62
     7
 10
-58.444690093213751
 20
-26.500000000000011
 30
0.0
 11
-57.144690093213747
 21
-26.500000000000011
 31
0.0
  0
LINE
  5
95
  8
1
 62
     7
 10
-58.444690093213751
 20
-19.500000000000011
 30
0.0
 11
-57.144690093213747
 21
-19.500000000000011
 31
0.0
  0
LINE
  5
96
  8
1
  6
DASHDOT
 62
     3
 10
-87.644690093213796
 20
-0.0000000000000071
 30
0.0
 11
-90.9626703535058
 21
-0.0000000000000071
 31
0.0
  0
LINE
  5
97
  8
1
  6
DASHDOT
 62
     3
 10
-58.444690093213751
 20
-0.0000000000000071
 30
0.0
 11
-55.29587713141764
 21
-0.0000000000000071
 31
0.0
  0
LINE
  5
98
  8
1
  6
DASHDOT
 62
     3
 10
-60.545329057988077
 20
-23.000000000000011
 30
0.0
 11
-50.831372517310641
 21
-23.000000000000011
 31
0.0
  0
LINE
  5
99
  8
1
 62
     7
 10
25.0
 20
-19.5
 30
0.0
 11
25.0
 21
-21.499999999999989
 31
0.0
  0
LINE
  5
9A
  8
1
 62
     7
 10
23.700000000000021
 20
-19.5
 30
0.0
 11
25.0
 21
-19.5
 31
0.0
  0
LINE
  5
9B
  8
1
 62
     7
 10
23.700000000000021
 20
-26.5
 30
0.0
 11
25.0
 21
-26.5
 31
0.0
  0
LINE
  5
9C
  8
1
 62
     7
 10
25.0
 20
-24.5
 30
0.0
 11
25.0
 21
-26.5
 31
0.0
  0
LINE
  5
9D
  8
1
  6
DASHDOT
 62
     3
 10
19.41137160241076
 20
-23.0
 30
0.0
 11
31.713317575903108
 21
-23.0
 31
0.0
  0
LINE
  5
9E
  8
1
 62
     7
 10
23.300000000000011
 20
-18.0
 30
0.0
 11
23.700000000000021
 21
-18.0
 31
0.0
  0
LINE
  5
9F
  8
1
 62
     7
 10
23.700000000000021
 20
-24.5
 30
0.0
 11
23.700000000000021
 21
-32.75
 31
0.0
  0
LINE
  5
A0
  8
1
 62
     7
 10
23.300000000000011
 20
-32.75
 30
0.0
 11
23.700000000000021
 21
-32.75
 31
0.0
  0
LINE
  5
A1
  8
1
 62
     7
 10
19.400000000000009
 20
-26.25
 30
0.0
 11
22.899999999999999
 21
-26.25
 31
0.0
  0
LINE
  5
A2
  8
1
 62
     7
 10
19.400000000000009
 20
-19.75
 30
0.0
 11
22.899999999999999
 21
-19.75
 31
0.0
  0
LINE
  5
A3
  8
1
 62
     7
 10
22.899999999999999
 20
25.25
 30
0.0
 11
23.300000000000011
 21
25.25
 31
0.0
  0
LINE
  5
A4
  8
1
 62
     7
 10
23.300000000000011
 20
23.0
 30
0.0
 11
22.899999999999999
 21
24.492820323027541
 31
0.0
  0
LINE
  5
A5
  8
1
 62
     7
 10
23.700000000000021
 20
18.0
 30
0.0
 11
23.300000000000011
 21
18.0
 31
0.0
  0
LINE
  5
A6
  8
1
 62
     7
 10
23.700000000000021
 20
-21.499999999999989
 30
0.0
 11
23.700000000000021
 21
23.10352761804101
 31
0.0
  0
LINE
  5
A7
  8
1
 62
     7
 10
23.300000000000011
 20
24.545481322062528
 30
0.0
 11
23.700000000000021
 21
23.10352761804101
 31
0.0
  0
LINE
  5
A8
  8
1
 62
     7
 10
23.300000000000011
 20
24.545481322062528
 30
0.0
 11
23.700000000000021
 21
23.10352761804101
 31
0.0
  0
LINE
  5
A9
  8
1
 62
     7
 10
23.300000000000011
 20
32.75
 30
0.0
 11
23.300000000000011
 21
24.545481322062528
 31
0.0
  0
LINE
  5
AA
  8
1
 62
     7
 10
22.899999999999999
 20
32.75
 30
0.0
 11
23.300000000000011
 21
32.75
 31
0.0
  0
LINE
  5
AB
  8
1
 62
     7
 10
22.899999999999999
 20
32.75
 30
0.0
 11
23.300000000000011
 21
32.75
 31
0.0
  0
LINE
  5
AC
  8
1
 62
     7
 10
22.899999999999999
 20
32.75
 30
0.0
 11
23.300000000000011
 21
32.75
 31
0.0
  0
LINE
  5
AD
  8
1
 62
     7
 10
19.400000000000009
 20
33.5
 30
0.0
 11
22.899999999999999
 21
33.5
 31
0.0
  0
LINE
  5
AE
  8
1
 62
     7
 10
23.300000000000011
 20
23.0
 30
0.0
 11
23.300000000000011
 21
-21.499999999999989
 31
0.0
  0
LINE
  5
AF
  8
1
 62
     7
 10
19.400000000000009
 20
33.5
 30
0.0
 11
19.400000000000009
 21
-33.5
 31
0.0
  0
LINE
  5
B0
  8
1
 62
     7
 10
19.400000000000009
 20
17.5
 30
0.0
 11
22.899999999999999
 21
17.5
 31
0.0
  0
LINE
  5
B1
  8
1
 62
     7
 10
19.400000000000009
 20
-33.5
 30
0.0
 11
22.899999999999999
 21
-33.5
 31
0.0
  0
LINE
  5
B2
  8
1
 62
     7
 10
19.400000000000009
 20
-17.5
 30
0.0
 11
22.899999999999999
 21
-17.5
 31
0.0
  0
LINE
  5
B3
  8
1
 62
     7
 10
24.900000000000009
 20
31.699999999999989
 30
0.0
 11
24.900000000000009
 21
26.300000000000001
 31
0.0
  0
LINE
  5
B4
  8
1
 62
     7
 10
23.300000000000011
 20
26.0
 30
0.0
 11
24.600000000000001
 21
26.0
 31
0.0
  0
LINE
  5
B5
  8
1
 62
     7
 10
23.800000000000018
 20
26.0
 30
0.0
 11
23.800000000000018
 21
32.0
 31
0.0
  0
LINE
  5
B6
  8
1
 62
     7
 10
23.300000000000011
 20
32.0
 30
0.0
 11
24.600000000000001
 21
32.0
 31
0.0
  0
LINE
  5
B7
  8
1
 62
     7
 10
24.600000000000001
 20
32.0
 30
0.0
 11
24.900000000000009
 21
31.699999999999989
 31
0.0
  0
LINE
  5
B8
  8
1
 62
     7
 10
24.600000000000001
 20
26.0
 30
0.0
 11
24.900000000000009
 21
26.300000000000001
 31
0.0
  0
LINE
  5
B9
  8
1
 62
     7
 10
2.798845533996654
 20
-33.000000000000057
 30
0.0
 11
19.199999999999989
 21
-33.000000000000028
 31
0.0
  0
LINE
  5
BA
  8
1
 62
     7
 10
-5.5
 20
-35.25
 30
0.0
 11
-3.6999999999999309
 21
-35.25
 31
0.0
  0
LINE
  5
BB
  8
1
 62
     7
 10
-5.5
 20
-17.500000000000021
 30
0.0
 11
-3.6999999999999309
 21
-17.500000000000021
 31
0.0
  0
LINE
  5
BC
  8
1
 62
     7
 10
-5.5
 20
17.5
 30
0.0
 11
-3.6999999999999309
 21
17.5
 31
0.0
  0
LINE
  5
BD
  8
1
 62
     7
 10
-5.5
 20
31.0
 30
0.0
 11
-5.5
 21
-42.5
 31
0.0
  0
LINE
  5
BE
  8
1
 62
     7
 10
-5.5
 20
31.0
 30
0.0
 11
-3.6999999999999309
 21
31.0
 31
0.0
  0
LINE
  5
BF
  8
1
 62
     7
 10
-5.5
 20
-42.5
 30
0.0
 11
-3.6999999999999309
 21
-42.5
 31
0.0
  0
LINE
  5
C0
  8
1
  6
DASHDOT
 62
     3
 10
-6.8333036592308654
 20
-37.5
 30
0.0
 11
-2.04298017700944
 21
-37.5
 31
0.0
  0
LINE
  5
C1
  8
1
 62
     7
 10
-0.9287908054004674
 20
18.09999999999998
 30
0.0
 11
19.199999999999989
 21
18.09999999999998
 31
0.0
  0
LINE
  5
C2
  8
1
 62
     7
 10
19.199999999999989
 20
-18.10000000000003
 30
0.0
 11
-0.9287908054004699
 21
-18.10000000000003
 31
0.0
  0
LINE
  5
C3
  8
1
 62
     7
 10
19.199999999999989
 20
33.0
 30
0.0
 11
19.199999999999989
 21
-33.000000000000028
 31
0.0
  0
LINE
  5
C4
  8
1
 62
     7
 10
4.9005844852110272
 20
56.213004998332551
 30
0.0
 11
4.9005844852110272
 21
54.743106806862258
 31
0.0
  0
LINE
  5
C5
  8
1
 62
     7
 10
5.744966684713801
 20
56.183888370763462
 30
0.0
 11
5.744966684713801
 21
54.743106806862258
 31
0.0
  0
LINE
  5
C6
  8
1
 62
     7
 10
5.482917036592255
 20
56.213004998332551
 30
0.0
 11
5.482917036592255
 21
54.743106806862258
 31
0.0
  0
LINE
  5
C7
  8
1
 62
     7
 10
5.162634133332574
 20
56.242121625901653
 30
0.0
 11
5.162634133332574
 21
54.743106806862258
 31
0.0
  0
LINE
  5
C8
  8
1
 62
     7
 10
6.1000000000000787
 20
54.743106806862258
 30
0.0
 11
6.1000000000000787
 21
33.0
 31
0.0
  0
LINE
  5
C9
  8
1
 62
     7
 10
19.199999999999989
 20
33.0
 30
0.0
 11
2.7988455339966558
 21
33.000000000000057
 31
0.0
  0
LINE
  5
CA
  8
1
  6
DASHDOT
 62
     3
 10
23.700000000000021
 20
0.0
 30
0.0
 11
26.597721700294802
 21
0.0
 31
0.0
  0
LINE
  5
CB
  8
1
  6
DASHDOT
 62
     3
 10
-5.5
 20
0.0
 30
0.0
 11
-8.4112844331425816
 21
0.0
 31
0.0
  0
LINE
  5
CC
  8
1
 62
     7
 10
-5.5
 20
-39.75
 30
0.0
 11
-3.6999999999999309
 21
-39.75
 31
0.0
  0
LINE
  5
CD
  8
1
 62
     7
 10
-58.844690093213742
 20
-17.0
 30
0.0
 11
-59.244690093213769
 21
-17.0
 31
0.0
  0
LINE
  5
CE
  8
1
 62
     7
 10
-58.844690093213742
 20
-29.0
 30
0.0
 11
-59.244690093213769
 21
-29.0
 31
0.0
  0
ARC
  5
CF
  8
1
 62
     7
 10
22.752856117886509
 20
-22.84600143495889
 30
0.0
 40
2.9999999999999818
 50
213.4585005244443
 51
255.46614389160689
  0
ARC
  5
D0
  8
1
 62
     7
 10
22.752856117886509
 20
-23.1539985650411
 30
0.0
 40
2.9999999999999818
 50
104.5338561083931
 51
146.5414994755555
  0
ARC
  5
D1
  8
1
 62
     7
 10
2.798845533996654
 20
25.50000000000006
 30
0.0
 40
7.4999999999999956
 50
90.0
 51
150.0558915983481
  0
ARC
  5
D2
  8
1
 62
     7
 10
-79.345844559217113
 20
-25.50000000000005
 30
0.0
 40
7.4999999999999476
 50
209.9441084016517
 51
270.0
  0
ARC
  5
D3
  8
1
 62
     7
 10
-79.044690093213703
 20
26.199999999999999
 30
0.0
 40
6.8000000000000007
 50
90.0
 51
180.0
  0
ARC
  5
D4
  8
1
 62
     7
 10
1.7988455339966549
 20
24.0
 30
0.0
 40
6.4999999999999591
 50
212.22331716919419
 51
245.18836849742951
  0
ARC
  5
D5
  8
1
 62
     7
 10
2.798845533996654
 20
-25.50000000000006
 30
0.0
 40
7.4999999999999476
 50
209.9441084016517
 51
270.0
  0
ARC
  5
D6
  8
1
 62
     7
 10
1.7988455339966549
 20
-24.000000000000028
 30
0.0
 40
6.4999999999999813
 50
114.81163150257051
 51
147.77668283080601
  0
ARC
  5
D7
  8
1
  6
DASHDOT
 62
     3
 10
108.13461929013491
 20
-0.0000000000000071
 30
0.0
 40
23.000000000000028
 50
257.00846169120649
 51
283.10650988569631
  0
ARC
  5
D8
  8
1
  6
DASHDOT
 62
     3
 10
108.13461929013491
 20
-0.0000000000000071
 30
0.0
 40
22.999999999999979
 50
15.176642130117919
 51
43.22076237263817
  0
ARC
  5
D9
  8
1
  6
DASHDOT
 62
     3
 10
108.13461929013491
 20
-0.0000000000000071
 30
0.0
 40
23.000000000000028
 50
137.23497195376541
 51
163.34289586600639
  0
ARC
  5
DA
  8
1
  6
DASHDOT
 62
     3
 10
108.13461929013491
 20
-0.0000000000000071
 30
0.0
 40
37.499999999999957
 50
37.556271808497449
 51
52.732836364661068
  0
ARC
  5
DB
  8
1
  6
DASHDOT
 62
     3
 10
108.13461929013491
 20
-0.0000000000000071
 30
0.0
 40
37.5
 50
307.18253711006082
 51
322.20324195991333
  0
ARC
  5
DC
  8
1
  6
DASHDOT
 62
     3
 10
108.13461929013491
 20
-0.0000000000000071
 30
0.0
 40
37.50000000000005
 50
217.6284581497313
 51
232.28861492916849
  0
ARC
  5
DD
  8
1
  6
DASHDOT
 62
     3
 10
108.13461929013491
 20
-0.0000000000000071
 30
0.0
 40
37.500000000000028
 50
126.2492675313012
 51
143.58373023539929
  0
ARC
  5
DE
  8
1
 62
     7
 10
90.384619290134907
 20
-0.0000000000000142
 30
0.0
 40
15.0
 50
124.4120724133555
 51
180.00000000000011
  0
ARC
  5
DF
  8
1
 62
     7
 10
77.540421171461531
 20
17.663568519456771
 30
0.0
 40
6.8586641895494918
 50
309.54806916653268
 51
350.45193083346771
  0
ARC
  5
E0
  8
1
 62
     7
 10
90.384619290134907
 20
-0.0000000000000142
 30
0.0
 40
15.0
 50
124.4120724133555
 51
180.00000000000011
  0
ARC
  5
E1
  8
1
 62
     7
 10
138.7288174088082
 20
17.663568519456749
 30
0.0
 40
6.8586641895494651
 50
189.548069166532
 51
230.4519308334678
  0
ARC
  5
E2
  8
1
 62
     7
 10
108.13461929013491
 20
-35.327137038913563
 30
0.0
 40
6.8586641895494367
 50
69.5480691665325
 51
110.4519308334683
  0
ARC
  5
E3
  8
1
 62
     7
 10
108.13461929013491
 20
-0.0000000000000071
 30
0.0
 40
17.99999999999994
 50
21.123609612616939
 51
38.876390387382813
  0
ARC
  5
E4
  8
1
 62
     7
 10
108.13461929013491
 20
-0.0000000000000071
 30
0.0
 40
18.000000000000011
 50
261.12360961261692
 51
278.87639038738263
  0
ARC
  5
E5
  8
1
 62
     7
 10
108.13461929013491
 20
-0.0000000000000071
 30
0.0
 40
18.000000000000011
 50
141.12360961261729
 51
158.87639038738271
  0
ARC
  5
E6
  8
1
 62
     7
 10
108.13461929013491
 20
-0.0000000000000071
 30
0.0
 40
32.750000000000028
 50
299.99999999999989
 51
359.99999999999977
  0
ARC
  5
E7
  8
1
 62
     7
 10
108.13461929013491
 20
-0.0000000000000071
 30
0.0
 40
32.75
 50
180.0
 51
239.99999999999989
  0
ARC
  5
E8
  8
1
 62
     7
 10
108.13461929013491
 20
-0.0000000000000071
 30
0.0
 40
25.249999999999961
 50
305.0
 51
354.99999999999977
  0
ARC
  5
E9
  8
1
 62
     7
 10
108.13461929013491
 20
-0.0000000000000071
 30
0.0
 40
25.249999999999961
 50
185.0
 51
235.0
  0
ARC
  5
EA
  8
1
 62
     7
 10
108.13461929013491
 20
-0.0000000000000071
 30
0.0
 40
25.250000000000011
 50
64.999999999999957
 51
115.0
  0
ARC
  5
EB
  8
1
 62
     7
 10
108.13461929013491
 20
-0.0000000000000071
 30
0.0
 40
32.75
 50
60.0
 51
119.9999999999999
  0
ARC
  5
EC
  8
1
 62
     7
 10
117.00961929013491
 20
15.371950917173811
 30
0.0
 40
14.99999999999997
 50
4.4120724133554026
 51
59.999999999999922
  0
ARC
  5
ED
  8
1
 62
     7
 10
125.88461929013491
 20
0.0
 30
0.0
 40
15.0
 50
359.99999999999977
 51
55.58792758664449
  0
ARC
  5
EE
  8
1
 62
     7
 10
125.3189778322175
 20
-1.5034365623971191
 30
0.0
 40
7.9999999999999307
 50
354.99999999999977
 51
92.822001862898233
  0
ARC
  5
EF
  8
1
 62
     7
 10
115.42478430516189
 20
15.63380932638222
 30
0.0
 40
7.9999999999999876
 50
327.17799813710161
 51
65.000000000000028
  0
ARC
  5
F0
  8
1
 62
     7
 10
99.259619290134921
 20
-15.37195091717378
 30
0.0
 40
15.0
 50
239.99999999999989
 51
295.58792758664418
  0
ARC
  5
F1
  8
1
 62
     7
 10
98.240425763079315
 20
-14.130372763985109
 30
0.0
 40
7.9999999999999591
 50
235.0000000000004
 51
332.82200186289799
  0
ARC
  5
F2
  8
1
 62
     7
 10
117.00961929013491
 20
-15.371950917173811
 30
0.0
 40
15.0
 50
244.41207241335539
 51
299.99999999999989
  0
ARC
  5
F3
  8
1
 62
     7
 10
118.0288128171903
 20
-14.130372763985109
 30
0.0
 40
7.9999999999999813
 50
207.17799813710181
 51
305.00000000000023
  0
ARC
  5
F4
  8
1
 62
     7
 10
90.950260748052315
 20
-1.5034365623971051
 30
0.0
 40
7.999999999999992
 50
87.17799813710181
 51
185.00000000000011
  0
ARC
  5
F5
  8
1
 62
     7
 10
108.13461929013491
 20
-0.0000000000000071
 30
0.0
 40
42.5
 50
223.16289714029159
 51
226.8371028597083
  0
ARC
  5
F6
  8
1
 62
     7
 10
108.13461929013491
 20
-0.0000000000000071
 30
0.0
 40
42.500000000000028
 50
133.1628971402917
 51
136.8371028597083
  0
ARC
  5
F7
  8
1
 62
     7
 10
108.13461929013491
 20
-0.0000000000000071
 30
0.0
 40
42.5
 50
43.162897140291662
 51
46.837102859708409
  0
ARC
  5
F8
  8
1
 62
     7
 10
108.13461929013491
 20
-0.0000000000000071
 30
0.0
 40
42.499999999999957
 50
313.16289714029159
 51
316.8371028597083
  0
ARC
  5
F9
  8
1
 62
     7
 10
100.84445427510779
 20
15.63380932638221
 30
0.0
 40
7.999999999999992
 50
114.9999999999997
 51
212.82200186289839
  0
ARC
  5
FA
  8
1
 62
     7
 10
99.259619290134921
 20
15.37195091717378
 30
0.0
 40
15.0
 50
119.9999999999999
 51
175.5879275866445
  0
ARC
  5
FB
  8
1
  6
DASHDOT
 62
     3
 10
108.13461929013491
 20
-0.0000000000000071
 30
0.0
 40
22.999999999999979
 50
15.176642130117919
 51
43.22076237263817
  0
CIRCLE
  5
FC
  8
1
 62
     7
 10
108.13461929013491
 20
-0.0000000000000071
 30
0.0
 40
33.5
  0
CIRCLE
  5
FD
  8
1
 62
     7
 10
108.13461929013491
 20
-23.000000000000011
 30
0.0
 40
3.5
  0
CIRCLE
  5
FE
  8
1
 62
     7
 10
88.216035003092827
 20
11.499999999999989
 30
0.0
 40
3.5
  0
CIRCLE
  5
FF
  8
1
 62
     7
 10
128.0532035771769
 20
11.499999999999989
 30
0.0
 40
3.5
  0
CIRCLE
  5
100
  8
1
 62
     7
 10
128.0532035771769
 20
11.499999999999989
 30
0.0
 40
3.5
  0
CIRCLE
  5
101
  8
1
 62
     7
 10
108.13461929013491
 20
-0.0000000000000071
 30
0.0
 40
17.5
  0
CIRCLE
  5
102
  8
1
 62
     7
 10
134.6511235846304
 20
26.516504294495508
 30
0.0
 40
2.25
  0
CIRCLE
  5
103
  8
1
 62
     7
 10
81.618114995639331
 20
26.516504294495508
 30
0.0
 40
2.25
  0
CIRCLE
  5
104
  8
1
 62
     7
 10
81.618114995639331
 20
-26.516504294495551
 30
0.0
 40
2.25
  0
CIRCLE
  5
105
  8
1
 62
     7
 10
134.6511235846304
 20
-26.516504294495551
 30
0.0
 40
2.25
  0
CIRCLE
  5
106
  8
1
 62
     7
 10
108.13461929013491
 20
28.999999999999979
 30
0.0
 40
3.0
  0
CIRCLE
  5
107
  8
1
 62
     7
 10
83.019882580386096
 20
-14.5
 30
0.0
 40
3.0
  0
CIRCLE
  5
108
  8
1
 62
     7
 10
108.13461929013491
 20
-23.000000000000011
 30
0.0
 40
1.5
  0
CIRCLE
  5
109
  8
1
 62
     7
 10
108.13461929013491
 20
-23.000000000000011
 30
0.0
 40
1.0999999999999941
  0
CIRCLE
  5
10A
  8
1
 62
     7
 10
133.24935599988351
 20
-14.500000000000011
 30
0.0
 40
3.0
  0
CIRCLE
  5
10B
  8
1
 62
     7
 10
128.0532035771769
 20
11.499999999999989
 30
0.0
 40
1.0999999999999091
  0
CIRCLE
  5
10C
  8
1
 62
     7
 10
128.0532035771769
 20
11.499999999999989
 30
0.0
 40
1.5
  0
CIRCLE
  5
10D
  8
1
 62
     7
 10
88.216035003092827
 20
11.499999999999989
 30
0.0
 40
1.100000000000009
  0
CIRCLE
  5
10E
  8
1
 62
     7
 10
88.216035003092827
 20
11.499999999999989
 30
0.0
 40
1.5
  0
TEXT
  5
110
  8
1
 62
     7
 10
-85.65695806535831
 20
76.041274947535157
 30
0.0
 40
3.5
  1
VBSH 0.6
 41
0.9
  7
SIMPLEX
  0
ENDSEC
  0
EOF
