  0
SECTION
  2
HEADER
  9
$ACADVER
  1
AC1009
  9
$INSBASE
 10
0.0
 20
0.0
 30
0.0
  9
$EXTMIN
 10
-119.67847008229749
 20
-67.499999999999986
 30
0.0
  9
$EXTMAX
 10
201.57912280645081
 20
112.94615650797201
 30
0.0
  9
$LIMMIN
 10
-119.67847008229749
 20
-67.499999999999986
  9
$LIMMAX
 10
196.4297764058756
 20
112.94615650797191
  9
$ORTHOMODE
 70
     0
  9
$REGENMODE
 70
     1
  9
$FILLMODE
 70
     1
  9
$QTEXTMODE
 70
     0
  9
$MIRRTEXT
 70
     1
  9
$DRAGMODE
 70
     2
  9
$LTSCALE
 40
1.0
  9
$OSMODE
 70
    37
  9
$ATTMODE
 70
     1
  9
$TEXTSIZE
 40
3.5
  9
$TRACEWID
 40
0.5
  9
$TEXTSTYLE
  7
STANDARD
  9
$CLAYER
  8
0
  9
$CELTYPE
  6
BYLAYER
  9
$CECOLOR
 62
   256
  9
$DIMSCALE
 40
1.0
  9
$DIMASZ
 40
0.18
  9
$DIMEXO
 40
0.0625
  9
$DIMDLI
 40
0.38
  9
$DIMRND
 40
0.0
  9
$DIMDLE
 40
0.0
  9
$DIMEXE
 40
0.18
  9
$DIMTP
 40
0.0
  9
$DIMTM
 40
0.0
  9
$DIMTXT
 40
0.18
  9
$DIMCEN
 40
0.09
  9
$DIMTSZ
 40
0.0
  9
$DIMTOL
 70
     0
  9
$DIMLIM
 70
     0
  9
$DIMTIH
 70
     1
  9
$DIMTOH
 70
     1
  9
$DIMSE1
 70
     0
  9
$DIMSE2
 70
     0
  9
$DIMTAD
 70
     0
  9
$DIMZIN
 70
     0
  9
$DIMBLK
  1

  9
$DIMASO
 70
     1
  9
$DIMSHO
 70
     1
  9
$DIMPOST
  1

  9
$DIMAPOST
  1

  9
$DIMALT
 70
     0
  9
$DIMALTD
 70
     2
  9
$DIMALTF
 40
25.399999999999999
  9
$DIMLFAC
 40
1.0
  9
$DIMTOFL
 70
     0
  9
$DIMTVP
 40
0.0
  9
$DIMTIX
 70
     0
  9
$DIMSOXD
 70
     0
  9
$DIMSAH
 70
     0
  9
$DIMBLK1
  1

  9
$DIMBLK2
  1

  9
$DIMSTYLE
  2
STANDARD
  9
$DIMCLRD
 70
     0
  9
$DIMCLRE
 70
     0
  9
$DIMCLRT
 70
     0
  9
$DIMTFAC
 40
1.0
  9
$DIMGAP
 40
0.09
  9
$LUNITS
 70
     2
  9
$LUPREC
 70
     4
  9
$SKETCHINC
 40
0.1
  9
$FILLETRAD
 40
2.0
  9
$AUNITS
 70
     0
  9
$AUPREC
 70
     0
  9
$MENU
  1
ACAD
  9
$ELEVATION
 40
0.0
  9
$PELEVATION
 40
0.0
  9
$THICKNESS
 40
0.0
  9
$LIMCHECK
 70
     0
  9
$BLIPMODE
 70
     0
  9
$CHAMFERA
 40
0.0
  9
$CHAMFERB
 40
0.0
  9
$SKPOLY
 70
     0
  9
$TDCREATE
 40
2452095.3763590269
  9
$TDUPDATE
 40
2452095.3768078699
  9
$TDINDWG
 40
0.0004659722
  9
$TDUSRTIMER
 40
0.0004659722
  9
$USRTIMER
 70
     1
  9
$ANGBASE
 50
0.0
  9
$ANGDIR
 70
     0
  9
$PDMODE
 70
     0
  9
$PDSIZE
 40
0.0
  9
$PLINEWID
 40
0.0
  9
$COORDS
 70
     1
  9
$SPLFRAME
 70
     0
  9
$SPLINETYPE
 70
     6
  9
$SPLINESEGS
 70
     8
  9
$ATTDIA
 70
     0
  9
$ATTREQ
 70
     1
  9
$HANDLING
 70
 10241
  9
$HANDSEED
  5
113
  9
$SURFTAB1
 70
     6
  9
$SURFTAB2
 70
     6
  9
$SURFTYPE
 70
     6
  9
$SURFU
 70
     6
  9
$SURFV
 70
     6
  9
$UCSNAME
  2

  9
$UCSORG
 10
0.0
 20
0.0
 30
0.0
  9
$UCSXDIR
 10
1.0
 20
0.0
 30
0.0
  9
$UCSYDIR
 10
0.0
 20
1.0
 30
0.0
  9
$PUCSNAME
  2

  9
$PUCSORG
 10
0.0
 20
0.0
 30
0.0
  9
$PUCSXDIR
 10
1.0
 20
0.0
 30
0.0
  9
$PUCSYDIR
 10
0.0
 20
1.0
 30
0.0
  9
$USERI1
 70
     0
  9
$USERI2
 70
     0
  9
$USERI3
 70
     0
  9
$USERI4
 70
     0
  9
$USERI5
 70
     0
  9
$USERR1
 40
0.0
  9
$USERR2
 40
0.0
  9
$USERR3
 40
0.0
  9
$USERR4
 40
0.0
  9
$USERR5
 40
0.0
  9
$WORLDVIEW
 70
     1
  9
$SHADEDGE
 70
     3
  9
$SHADEDIF
 70
    70
  9
$TILEMODE
 70
     1
  9
$MAXACTVP
 70
    64
  9
$PLIMCHECK
 70
     0
  9
$PEXTMIN
 10
1.0000000000000000E+020
 20
1.0000000000000000E+020
 30
1.0000000000000000E+020
  9
$PEXTMAX
 10
-1.0000000000000000E+020
 20
-1.0000000000000000E+020
 30
-1.0000000000000000E+020
  9
$PLIMMIN
 10
0.0
 20
0.0
  9
$PLIMMAX
 10
12.0
 20
9.0
  9
$UNITMODE
 70
     0
  9
$VISRETAIN
 70
     1
  9
$PLINEGEN
 70
     0
  9
$PSLTSCALE
 70
     1
  0
ENDSEC
  0
SECTION
  2
TABLES
  0
TABLE
  2
VPORT
 70
     2
  0
VPORT
  2
*ACTIVE
 70
     0
 10
0.0
 20
0.0
 11
1.0
 21
1.0
 12
-90.304983325319228
 22
108.688308549439
 13
0.0
 23
0.0
 14
1.0
 24
1.0
 15
0.0
 25
0.0
 16
0.0
 26
0.0
 36
1.0
 17
0.0
 27
0.0
 37
0.0
 40
9.0000002000319892
 41
2.4144144144144142
 42
50.0
 43
0.0
 44
0.0
 50
0.0
 51
0.0
 71
     0
 72
   100
 73
     1
 74
     1
 75
     0
 76
     0
 77
     0
 78
     0
  0
ENDTAB
  0
TABLE
  2
LTYPE
 70
     9
  0
LTYPE
  2
CONTINUOUS
 70
     0
  3
Solid line
 72
    65
 73
     0
 40
0.0
  0
LTYPE
  2
BORDER
 70
     0
  3
__ __ . __ __ .
 72
    65
 73
     6
 40
14.557616614586919
 49
4.159319032739119
 49
-2.079659516369559
 49
4.159319032739119
 49
-2.079659516369559
 49
0.0
 49
-2.079659516369559
  0
LTYPE
  2
CENTER
 70
     0
  3
____ _ ____ _
 72
    65
 73
     4
 40
16.637276130956469
 49
10.3982975818478
 49
-2.079659516369559
 49
2.079659516369559
 49
-2.079659516369559
  0
LTYPE
  2
DASHDOT
 70
     0
  3
__ . __ . __ .
 72
    65
 73
     4
 40
8.3186380654782397
 49
4.159319032739119
 49
-2.079659516369559
 49
0.0
 49
-2.079659516369559
  0
LTYPE
  2
DASHED
 70
     0
  3
__ __ __ __ __
 72
    65
 73
     2
 40
6.238978549108678
 49
4.159319032739119
 49
-2.079659516369559
  0
LTYPE
  2
DIVIDE
 70
     0
  3
__ . . __ . . 
 72
    65
 73
     6
 40
10.3982975818478
 49
4.159319032739119
 49
-2.079659516369559
 49
0.0
 49
-2.079659516369559
 49
0.0
 49
-2.079659516369559
  0
LTYPE
  2
DOT
 70
     0
  3
..............
 72
    65
 73
     4
 40
4.159319032739119
 49
0.0
 49
-2.079659516369559
 49
0.0
 49
-2.079659516369559
  0
LTYPE
  2
HIDDEN
 70
     0
  3
_ _ _ _ _ _ _
 72
    65
 73
     2
 40
3.119489274554339
 49
2.079659516369559
 49
-1.0398297581847791
  0
LTYPE
  2
PHANTOM
 70
     0
  3
_____ _ _ _____ _ _ 
 72
    65
 73
     6
 40
20.796595163695599
 49
10.3982975818478
 49
-2.079659516369559
 49
2.079659516369559
 49
-2.079659516369559
 49
2.079659516369559
 49
-2.079659516369559
  0
ENDTAB
  0
TABLE
  2
LAYER
 70
     2
  0
LAYER
  2
0
 70
     0
 62
     7
  6
CONTINUOUS
  0
LAYER
  2
1
 70
     0
 62
     7
  6
CONTINUOUS
  0
ENDTAB
  0
TABLE
  2
STYLE
 70
     4
  0
STYLE
  2
STANDARD
 70
     0
 40
0.0
 41
1.0
 50
0.0
 71
     0
 42
3.5
  3
txt
  4

  0
STYLE
  2
SIMPLEX
 70
     0
 40
0.0
 41
1.0
 50
0.0
 71
     0
 42
3.5
  3
simplex
  4

  0
STYLE
  2
COMPLEX
 70
     0
 40
0.0
 41
1.0
 50
0.0
 71
     0
 42
3.5
  3
complex
  4

  0
STYLE
  2
ITALIC
 70
     0
 40
0.0
 41
1.0
 50
0.0
 71
     0
 42
3.5
  3
italic
  4

  0
ENDTAB
  0
TABLE
  2
VIEW
 70
     0
  0
ENDTAB
  0
TABLE
  2
UCS
 70
     0
  0
ENDTAB
  0
TABLE
  2
APPID
 70
     1
  0
APPID
  2
ACAD
 70
     0
  0
ENDTAB
  0
TABLE
  2
DIMSTYLE
 70
     1
  0
DIMSTYLE
  2
STANDARD
 70
     0
  3

  4

  5

  6

  7

 40
1.0
 41
0.18
 42
0.0625
 43
0.38
 44
0.18
 45
0.0
 46
0.0
 47
0.0
 48
0.0
140
0.18
141
0.09
142
0.0
143
25.399999999999999
144
1.0
145
0.0
146
1.0
147
0.09
 71
     0
 72
     0
 73
     1
 74
     1
 75
     0
 76
     0
 77
     0
 78
     0
170
     0
171
     2
172
     0
173
     0
174
     0
175
     0
176
     0
177
     0
178
     0
  0
ENDTAB
  0
ENDSEC
  0
SECTION
  2
BLOCKS
  0
BLOCK
  8
0
  2
$MODEL_SPACE
 70
     0
 10
0.0
 20
0.0
 30
0.0
  3
$MODEL_SPACE
  1

  0
ENDBLK
  5
20
  8
0
  0
BLOCK
 67
     1
  8
0
  2
$PAPER_SPACE
 70
     0
 10
0.0
 20
0.0
 30
0.0
  3
$PAPER_SPACE
  1

  0
ENDBLK
  5
1C
 67
     1
  8
0
  0
ENDSEC
  0
SECTION
  2
ENTITIES
  0
LINE
  5
33
  8
1
 62
     7
 10
-79.958745925178775
 20
-46.999999999999993
 30
0.0
 11
-80.558745925178783
 21
-47.0
 31
0.0
  0
LINE
  5
34
  8
1
 62
     7
 10
-79.958745925178775
 20
-28.999999999999979
 30
0.0
 11
-80.558745925178783
 21
-29.0
 31
0.0
  0
LINE
  5
35
  8
1
 62
     7
 10
-81.858745925178795
 20
54.0
 30
0.0
 11
-81.858745925178795
 21
-54.0
 31
0.0
  0
LINE
  5
36
  8
1
 62
     7
 10
29.199999999999861
 20
-35.499999999999993
 30
0.0
 11
29.199999999999861
 21
38.0
 31
0.0
  0
LINE
  5
37
  8
1
 62
     7
 10
29.199999999999861
 20
-46.999999999999993
 30
0.0
 11
28.599999999999859
 21
-46.999999999999993
 31
0.0
  0
LINE
  5
38
  8
1
 62
     7
 10
29.199999999999861
 20
-28.999999999999979
 30
0.0
 11
28.599999999999859
 21
-29.0
 31
0.0
  0
LINE
  5
39
  8
1
 62
     7
 10
27.299999999999859
 20
-54.0
 30
0.0
 11
27.299999999999859
 21
-43.249999999999993
 31
0.0
  0
LINE
  5
3A
  8
1
 62
     7
 10
27.299999999999859
 20
54.0
 30
0.0
 11
27.299999999999859
 21
-32.749999999999993
 31
0.0
  0
LINE
  5
3B
  8
1
 62
     7
 10
-85.7587459251788
 20
53.5
 30
0.0
 11
-107.2587459251788
 21
53.5
 31
0.0
  0
LINE
  5
3C
  8
1
 62
     7
 10
-115.65874592517871
 20
-67.499999999999986
 30
0.0
 11
-115.65874592517871
 21
50.0
 31
0.0
  0
LINE
  5
3D
  8
1
 62
     7
 10
-113.2587459251787
 20
50.0
 30
0.0
 11
-113.2587459251787
 21
-67.499999999999986
 31
0.0
  0
LINE
  5
3E
  8
1
 62
     7
 10
-80.558745925178783
 20
54.0
 30
0.0
 11
-80.558745925178783
 21
-53.999999999999993
 31
0.0
  0
LINE
  5
3F
  8
1
 62
     7
 10
7.9499999999999167
 20
80.558619135096734
 30
0.0
 11
5.4499999999999167
 21
80.558619135096734
 31
0.0
  0
LINE
  5
40
  8
1
 62
     7
 10
7.9499999999999167
 20
53.5
 30
0.0
 11
7.9499999999999167
 21
80.558619135096734
 31
0.0
  0
LINE
  5
41
  8
1
  6
DASHDOT
 62
     3
 10
-116.8242136836119
 20
-60.999999999999993
 30
0.0
 11
-111.9912357203999
 21
-60.999999999999993
 31
0.0
  0
LINE
  5
42
  8
1
  6
DASHDOT
 62
     3
 10
22.386822130096949
 20
-37.999999999999993
 30
0.0
 11
43.531120992582352
 21
-37.999999999999993
 31
0.0
  0
LINE
  5
43
  8
1
 62
     7
 10
23.399999999999899
 20
53.5
 30
0.0
 11
23.399999999999899
 21
-53.499999999999893
 31
0.0
  0
LINE
  5
44
  8
1
 62
     7
 10
1.899999999999916
 20
-53.499999999999893
 30
0.0
 11
23.399999999999899
 21
-53.499999999999893
 31
0.0
  0
LINE
  5
45
  8
1
 62
     7
 10
1.899999999999916
 20
-26.999999999999972
 30
0.0
 11
23.400000000000009
 21
-26.999999999999972
 31
0.0
  0
LINE
  5
46
  8
1
 62
     7
 10
23.400000000000009
 20
27.0
 30
0.0
 11
1.899999999999916
 21
27.0
 31
0.0
  0
LINE
  5
47
  8
1
 62
     7
 10
23.399999999999899
 20
53.5
 30
0.0
 11
1.8999999999999191
 21
53.5
 31
0.0
  0
LINE
  5
48
  8
1
 62
     7
 10
-6.5000000000000888
 20
50.0
 30
0.0
 11
-4.1000000000000831
 21
50.0
 31
0.0
  0
LINE
  5
49
  8
1
 62
     7
 10
-6.5000000000000888
 20
26.0
 30
0.0
 11
-4.1000000000000831
 21
26.0
 31
0.0
  0
LINE
  5
4A
  8
1
 62
     7
 10
-4.1000000000000831
 20
-26.000000000000011
 30
0.0
 11
-6.5000000000000888
 21
-26.000000000000011
 31
0.0
  0
LINE
  5
4B
  8
1
 62
     7
 10
-6.5000000000000888
 20
-57.749999999999993
 30
0.0
 11
-4.1000000000000831
 21
-57.749999999999993
 31
0.0
  0
LINE
  5
4C
  8
1
 62
     7
 10
-6.5000000000000888
 20
-64.249999999999986
 30
0.0
 11
-4.1000000000000831
 21
-64.249999999999986
 31
0.0
  0
LINE
  5
4D
  8
1
 62
     7
 10
-6.5000000000000888
 20
-67.499999999999986
 30
0.0
 11
-4.1000000000000831
 21
-67.499999999999986
 31
0.0
  0
LINE
  5
4E
  8
1
  6
DASHDOT
 62
     3
 10
-8.2749045346598855
 20
-60.999999999999993
 30
0.0
 11
-1.393028534449688
 21
-60.999999999999993
 31
0.0
  0
LINE
  5
4F
  8
1
  6
DASHDOT
 62
     3
 10
168.41053851940879
 20
14.99999999999997
 30
0.0
 11
181.53786478422239
 21
22.579065352730218
 31
0.0
  0
LINE
  5
50
  8
1
 62
     7
 10
6.3137962140353183
 20
80.558619135096734
 30
0.0
 11
6.3137962140353183
 21
85.558619135096734
 31
0.0
  0
LINE
  5
51
  8
1
 62
     7
 10
5.7741308102637063
 20
80.558619135096734
 30
0.0
 11
5.7741308102637063
 21
85.558619135096734
 31
0.0
  0
LINE
  5
52
  8
1
 62
     7
 10
7.6258691897361173
 20
85.558619135096734
 30
0.0
 11
7.6258691897361173
 21
80.558619135096734
 31
0.0
  0
LINE
  5
53
  8
1
 62
     7
 10
7.086203785964508
 20
85.558619135096734
 30
0.0
 11
7.086203785964508
 21
80.558619135096734
 31
0.0
  0
LINE
  5
54
  8
1
 62
     7
 10
141.76134331089
 20
80.558619135096734
 30
0.0
 11
141.76134331089
 21
85.558619135096734
 31
0.0
  0
LINE
  5
55
  8
1
 62
     7
 10
141.20909095892529
 20
80.558619135096734
 30
0.0
 11
141.20909095892529
 21
85.558619135096734
 31
0.0
  0
LINE
  5
56
  8
1
 62
     7
 10
140.6568386069608
 20
80.558619135096734
 30
0.0
 11
140.6568386069608
 21
85.558619135096734
 31
0.0
  0
LINE
  5
57
  8
1
 62
     7
 10
144.20271420479031
 20
85.558619135096734
 30
0.0
 11
144.20271420479031
 21
80.558619135096734
 31
0.0
  0
LINE
  5
58
  8
1
 62
     7
 10
143.6504618528256
 20
85.558619135096734
 30
0.0
 11
143.6504618528256
 21
80.558619135096734
 31
0.0
  0
LINE
  5
59
  8
1
 62
     7
 10
143.09820950086109
 20
85.558619135096734
 30
0.0
 11
143.09820950086109
 21
80.558619135096734
 31
0.0
  0
LINE
  5
5A
  8
1
 62
     7
 10
144.9297764058756
 20
53.942098587281542
 30
0.0
 11
144.9297764058756
 21
80.558619135096734
 31
0.0
  0
LINE
  5
5B
  8
1
 62
     7
 10
139.9297764058756
 20
53.942098587281521
 30
0.0
 11
139.9297764058756
 21
80.558619135096734
 31
0.0
  0
LINE
  5
5C
  8
1
 62
     7
 10
92.429776405875572
 20
45.345892868042633
 30
0.0
 11
92.429776405875572
 21
20.39607805437112
 31
0.0
  0
LINE
  5
5D
  8
1
 62
     7
 10
92.429776405875572
 20
-20.396078054371149
 30
0.0
 11
92.429776405875572
 21
-45.345892868042597
 31
0.0
  0
LINE
  5
5E
  8
1
 62
     7
 10
97.083883537832946
 20
-50.0
 30
0.0
 11
122.0336983515043
 21
-50.0
 31
0.0
  0
LINE
  5
5F
  8
1
 62
     7
 10
162.8258544602466
 20
-50.0
 30
0.0
 11
187.7756692739182
 21
-50.0
 31
0.0
  0
LINE
  5
60
  8
1
 62
     7
 10
192.42977640587549
 20
-20.396078054371149
 30
0.0
 11
192.42977640587549
 21
-45.345892868042597
 31
0.0
  0
LINE
  5
61
  8
1
 62
     7
 10
192.42977640587549
 20
45.345892868042633
 30
0.0
 11
192.42977640587549
 21
20.39607805437112
 31
0.0
  0
LINE
  5
62
  8
1
 62
     7
 10
162.8258544602466
 20
50.0
 30
0.0
 11
187.7756692739182
 21
50.0
 31
0.0
  0
LINE
  5
63
  8
1
 62
     7
 10
97.083883537832946
 20
50.0
 30
0.0
 11
122.0336983515043
 21
50.0
 31
0.0
  0
LINE
  5
64
  8
1
  6
DASHDOT
 62
     3
 10
95.783285632791774
 20
46.646490773083777
 30
0.0
 11
103.5146686022275
 21
38.915107803648048
 31
0.0
  0
LINE
  5
65
  8
1
  6
DASHDOT
 62
     3
 10
96.185098958929373
 20
-46.244677446946177
 30
0.0
 11
103.3720183389682
 21
-39.05775806690739
 31
0.0
  0
LINE
  5
66
  8
1
  6
DASHDOT
 62
     3
 10
181.91742547537891
 20
-39.487649069503291
 30
0.0
 11
189.53991572693531
 21
-47.110139321059677
 31
0.0
  0
LINE
  5
67
  8
1
  6
DASHDOT
 62
     3
 10
181.77477521211961
 20
39.344998806244043
 30
0.0
 11
189.07058731003789
 21
46.640810904162286
 31
0.0
  0
LINE
  5
68
  8
1
  6
DASHDOT
 62
     3
 10
103.1498291473274
 20
22.67828812347706
 30
0.0
 11
116.4490142923424
 21
15.0
 31
0.0
  0
LINE
  5
69
  8
1
 62
     7
 10
23.599999999999859
 20
54.0
 30
0.0
 11
28.599999999999859
 21
54.0
 31
0.0
  0
LINE
  5
6A
  8
1
 62
     7
 10
23.599999999999859
 20
26.5
 30
0.0
 11
28.599999999999859
 21
26.5
 31
0.0
  0
LINE
  5
6B
  8
1
 62
     7
 10
28.599999999999859
 20
53.0
 30
0.0
 11
29.199999999999861
 21
53.0
 31
0.0
  0
LINE
  5
6C
  8
1
 62
     7
 10
29.199999999999861
 20
53.0
 30
0.0
 11
29.199999999999861
 21
40.54136836602153
 31
0.0
  0
LINE
  5
6D
  8
1
 62
     7
 10
29.199999999999861
 20
40.54136836602153
 30
0.0
 11
29.799999999999869
 21
38.0
 31
0.0
  0
LINE
  5
6E
  8
1
 62
     7
 10
28.599999999999859
 20
40.612435565298199
 30
0.0
 11
29.199999999999861
 21
38.0
 31
0.0
  0
LINE
  5
6F
  8
1
 62
     7
 10
31.499999999999861
 20
51.5
 30
0.0
 11
31.499999999999861
 21
43.5
 31
0.0
  0
LINE
  5
70
  8
1
 62
     7
 10
29.199999999999861
 20
43.0
 30
0.0
 11
30.999999999999861
 21
43.0
 31
0.0
  0
LINE
  5
71
  8
1
 62
     7
 10
29.19999999999985
 20
52.0
 30
0.0
 11
30.999999999999861
 21
52.0
 31
0.0
  0
LINE
  5
72
  8
1
 62
     7
 10
29.899999999999849
 20
52.0
 30
0.0
 11
29.899999999999871
 21
43.0
 31
0.0
  0
LINE
  5
73
  8
1
 62
     7
 10
31.499999999999861
 20
51.5
 30
0.0
 11
30.999999999999861
 21
52.0
 31
0.0
  0
LINE
  5
74
  8
1
 62
     7
 10
31.499999999999861
 20
43.5
 30
0.0
 11
30.999999999999861
 21
43.0
 31
0.0
  0
LINE
  5
75
  8
1
 62
     7
 10
28.599999999999859
 20
42.0
 30
0.0
 11
29.199999999999878
 21
42.0
 31
0.0
  0
LINE
  5
76
  8
1
 62
     7
 10
29.799999999999869
 20
38.0
 30
0.0
 11
29.799999999999869
 21
-35.499999999999993
 31
0.0
  0
LINE
  5
77
  8
1
 62
     7
 10
29.199999999999861
 20
-52.999999999999993
 30
0.0
 11
29.199999999999861
 21
-40.499999999999993
 31
0.0
  0
LINE
  5
78
  8
1
 62
     7
 10
28.599999999999881
 20
-26.500000000000011
 30
0.0
 11
23.599999999999859
 21
-26.500000000000011
 31
0.0
  0
LINE
  5
79
  8
1
 62
     7
 10
28.599999999999859
 20
-53.999999999999993
 30
0.0
 11
23.599999999999859
 21
-53.999999999999993
 31
0.0
  0
LINE
  5
7A
  8
1
 62
     7
 10
23.599999999999859
 20
54.0
 30
0.0
 11
23.599999999999859
 21
-53.999999999999993
 31
0.0
  0
LINE
  5
7B
  8
1
 62
     7
 10
29.199999999999861
 20
-52.999999999999993
 30
0.0
 11
29.799999999999869
 21
-52.999999999999993
 31
0.0
  0
LINE
  5
7C
  8
1
 62
     7
 10
23.599999999999859
 20
-32.749999999999993
 30
0.0
 11
28.599999999999859
 21
-32.749999999999993
 31
0.0
  0
LINE
  5
7D
  8
1
 62
     7
 10
23.599999999999859
 20
-43.249999999999993
 30
0.0
 11
28.599999999999859
 21
-43.249999999999993
 31
0.0
  0
LINE
  5
7E
  8
1
 62
     7
 10
29.799999999999869
 20
-40.499999999999993
 30
0.0
 11
29.799999999999869
 21
-52.999999999999993
 31
0.0
  0
LINE
  5
7F
  8
1
 62
     7
 10
29.799999999999869
 20
-32.499999999999993
 30
0.0
 11
32.399999999999892
 21
-32.499999999999993
 31
0.0
  0
LINE
  5
80
  8
1
 62
     7
 10
29.799999999999869
 20
-43.499999999999993
 30
0.0
 11
32.399999999999892
 21
-43.499999999999993
 31
0.0
  0
LINE
  5
81
  8
1
 62
     7
 10
29.199999999999861
 20
-30.000000000000028
 30
0.0
 11
29.799999999999851
 21
-30.000000000000028
 31
0.0
  0
LINE
  5
82
  8
1
 62
     7
 10
5.4499999999999167
 20
80.558619135096734
 30
0.0
 11
5.4499999999999167
 21
53.5
 31
0.0
  0
LINE
  5
83
  8
1
  6
DASHDOT
 62
     3
 10
146.96191845954289
 20
0.0
 30
0.0
 11
137.8976343522082
 21
0.0
 31
0.0
  0
LINE
  5
84
  8
1
  6
DASHDOT
 62
     3
 10
142.42977640587549
 20
4.5321420536673278
 30
0.0
 11
142.42977640587549
 21
-4.5321420536673278
 31
0.0
  0
LINE
  5
85
  8
1
  6
DASHDOT
 62
     3
 10
142.4297764058754
 20
-45.453684244032878
 30
0.0
 11
142.42977640587549
 21
-28.99579470279129
 31
0.0
  0
LINE
  5
86
  8
1
 62
     7
 10
142.44054210408311
 20
80.558619135096734
 30
0.0
 11
142.44054210408311
 21
54.067112911061912
 31
0.0
  0
LINE
  5
87
  8
1
 62
     7
 10
6.6937021513181181
 20
80.558619135096734
 30
0.0
 11
6.6937021513181181
 21
85.539185482450904
 31
0.0
  0
LINE
  5
88
  8
1
  6
DASHDOT
 62
     3
 10
-6.5000000000000888
 20
0.0
 30
0.0
 11
-10.51972415711889
 21
0.0
 31
0.0
  0
LINE
  5
89
  8
1
  6
DASHDOT
 62
     3
 10
29.799999999999869
 20
0.0
 30
0.0
 11
33.587236651079103
 21
0.0
 31
0.0
  0
LINE
  5
8A
  8
1
 62
     7
 10
-69.958745925178775
 20
-35.499999999999993
 30
0.0
 11
-69.958745925178775
 21
-40.499999999999993
 31
0.0
  0
LINE
  5
8B
  8
1
 62
     7
 10
-69.158745925178764
 20
-36.29999999999999
 30
0.0
 11
-69.158745925178764
 21
-39.699999999999982
 31
0.0
  0
LINE
  5
8C
  8
1
 62
     3
 10
-69.158745925178764
 20
-39.699999999999982
 30
0.0
 11
-76.7587459251788
 21
-39.699999999999982
 31
0.0
  0
LINE
  5
8D
  8
1
 62
     3
 10
-69.158745925178764
 20
-36.29999999999999
 30
0.0
 11
-76.7587459251788
 21
-36.29999999999999
 31
0.0
  0
LINE
  5
8E
  8
1
 62
     7
 10
-76.7587459251788
 20
-32.499999999999993
 30
0.0
 11
-76.7587459251788
 21
-43.499999999999993
 31
0.0
  0
LINE
  5
8F
  8
1
 62
     7
 10
-107.2587459251788
 20
-53.499999999999893
 30
0.0
 11
-85.7587459251788
 21
-53.499999999999893
 31
0.0
  0
LINE
  5
90
  8
1
 62
     7
 10
-85.7587459251788
 20
53.5
 30
0.0
 11
-85.7587459251788
 21
-53.499999999999893
 31
0.0
  0
LINE
  5
91
  8
1
 62
     7
 10
-115.65874592517871
 20
50.0
 30
0.0
 11
-113.2587459251787
 21
50.0
 31
0.0
  0
LINE
  5
92
  8
1
 62
     7
 10
-115.65874592517871
 20
-67.499999999999986
 30
0.0
 11
-113.2587459251787
 21
-67.499999999999986
 31
0.0
  0
LINE
  5
93
  8
1
 62
     7
 10
-102.8449497111433
 20
80.558619135096734
 30
0.0
 11
-102.8449497111433
 21
85.558619135096734
 31
0.0
  0
LINE
  5
94
  8
1
 62
     7
 10
-103.38461511491499
 20
80.558619135096734
 30
0.0
 11
-103.38461511491499
 21
85.558619135096734
 31
0.0
  0
LINE
  5
95
  8
1
 62
     7
 10
-101.5328767354426
 20
85.558619135096734
 30
0.0
 11
-101.5328767354426
 21
80.558619135096734
 31
0.0
  0
LINE
  5
96
  8
1
 62
     7
 10
-102.07254213921421
 20
85.558619135096734
 30
0.0
 11
-102.07254213921421
 21
80.558619135096734
 31
0.0
  0
LINE
  5
97
  8
1
 62
     7
 10
-103.7087459251787
 20
80.558619135096734
 30
0.0
 11
-101.2087459251787
 21
80.558619135096734
 31
0.0
  0
LINE
  5
98
  8
1
 62
     7
 10
-101.2087459251787
 20
80.558619135096734
 30
0.0
 11
-101.2087459251787
 21
53.5
 31
0.0
  0
LINE
  5
99
  8
1
 62
     7
 10
-85.558745925178783
 20
54.0
 30
0.0
 11
-85.558745925178783
 21
-53.999999999999993
 31
0.0
  0
LINE
  5
9A
  8
1
 62
     7
 10
-85.558745925178783
 20
54.0
 30
0.0
 11
-80.558745925178783
 21
54.0
 31
0.0
  0
LINE
  5
9B
  8
1
 62
     7
 10
-79.958745925178775
 20
38.0
 30
0.0
 11
-79.958745925178775
 21
-52.999999999999993
 31
0.0
  0
LINE
  5
9C
  8
1
 62
     7
 10
-80.558745925178783
 20
53.0
 30
0.0
 11
-79.958745925178775
 21
53.0
 31
0.0
  0
LINE
  5
9D
  8
1
 62
     7
 10
-79.958745925178775
 20
40.54136836602153
 30
0.0
 11
-79.358745925178781
 21
38.0
 31
0.0
  0
LINE
  5
9E
  8
1
 62
     7
 10
-80.558745925178783
 20
40.612435565298199
 30
0.0
 11
-79.958745925178775
 21
38.0
 31
0.0
  0
LINE
  5
9F
  8
1
 62
     7
 10
-79.958745925178775
 20
53.0
 30
0.0
 11
-79.958745925178775
 21
40.54136836602153
 31
0.0
  0
LINE
  5
A0
  8
1
 62
     7
 10
-79.2587459251788
 20
52.0
 30
0.0
 11
-79.2587459251788
 21
42.999999999999993
 31
0.0
  0
LINE
  5
A1
  8
1
 62
     7
 10
-79.958745925178775
 20
52.0
 30
0.0
 11
-78.158745925178792
 21
52.0
 31
0.0
  0
LINE
  5
A2
  8
1
 62
     7
 10
-77.658745925178792
 20
51.5
 30
0.0
 11
-78.158745925178792
 21
52.0
 31
0.0
  0
LINE
  5
A3
  8
1
 62
     7
 10
-79.858745925178781
 20
43.0
 30
0.0
 11
-78.158745925178792
 21
43.0
 31
0.0
  0
LINE
  5
A4
  8
1
 62
     7
 10
-77.658745925178792
 20
51.5
 30
0.0
 11
-77.658745925178792
 21
43.5
 31
0.0
  0
LINE
  5
A5
  8
1
 62
     7
 10
-77.658745925178792
 20
43.5
 30
0.0
 11
-78.158745925178792
 21
43.0
 31
0.0
  0
LINE
  5
A6
  8
1
 62
     7
 10
-79.358745925178781
 20
38.0
 30
0.0
 11
-79.358745925178781
 21
-52.999999999999993
 31
0.0
  0
LINE
  5
A7
  8
1
 62
     7
 10
-80.558745925178783
 20
-53.999999999999993
 30
0.0
 11
-85.558745925178783
 21
-53.999999999999993
 31
0.0
  0
LINE
  5
A8
  8
1
 62
     7
 10
-79.958745925178775
 20
-52.999999999999993
 30
0.0
 11
-79.358745925178781
 21
-52.999999999999993
 31
0.0
  0
LINE
  5
A9
  8
1
 62
     7
 10
-69.958745925178775
 20
-40.499999999999993
 30
0.0
 11
-69.158745925178764
 21
-39.699999999999982
 31
0.0
  0
LINE
  5
AA
  8
1
 62
     7
 10
-69.158745925178764
 20
-36.29999999999999
 30
0.0
 11
-69.958745925178775
 21
-35.499999999999993
 31
0.0
  0
LINE
  5
AB
  8
1
 62
     7
 10
-79.358745925178781
 20
-32.499999999999993
 30
0.0
 11
-76.7587459251788
 21
-32.499999999999993
 31
0.0
  0
LINE
  5
AC
  8
1
 62
     7
 10
-79.358745925178781
 20
-43.499999999999993
 30
0.0
 11
-76.7587459251788
 21
-43.499999999999993
 31
0.0
  0
LINE
  5
AD
  8
1
 62
     7
 10
-103.7087459251787
 20
80.558619135096734
 30
0.0
 11
-103.7087459251787
 21
53.5
 31
0.0
  0
LINE
  5
AE
  8
1
 62
     7
 10
-102.4650437738605
 20
80.558619135096734
 30
0.0
 11
-102.4650437738605
 21
85.539185482450904
 31
0.0
  0
LINE
  5
AF
  8
1
  6
DASHDOT
 62
     3
 10
-115.65874592517871
 20
0.0
 30
0.0
 11
-119.67847008229749
 21
0.0
 31
0.0
  0
LINE
  5
B0
  8
1
  6
DASHDOT
 62
     3
 10
-79.358745925178781
 20
0.0
 30
0.0
 11
-75.571509274099554
 21
0.0
 31
0.0
  0
LINE
  5
B1
  8
1
 62
     7
 10
-76.7587459251788
 20
-35.499999999999993
 30
0.0
 11
-69.958745925178775
 21
-35.499999999999993
 31
0.0
  0
LINE
  5
B2
  8
1
  6
DASHDOT
 62
     3
 10
-80.910542717405804
 20
-37.999999999999993
 30
0.0
 11
-66.327624932596251
 21
-37.999999999999993
 31
0.0
  0
LINE
  5
B3
  8
1
 62
     7
 10
-76.7587459251788
 20
-40.499999999999993
 30
0.0
 11
-69.958745925178775
 21
-40.499999999999993
 31
0.0
  0
LINE
  5
B4
  8
1
 62
     7
 10
32.399999999999892
 20
-32.499999999999993
 30
0.0
 11
32.399999999999892
 21
-35.499999999999993
 31
0.0
  0
LINE
  5
B5
  8
1
 62
     7
 10
32.399999999999892
 20
-40.499999999999993
 30
0.0
 11
32.399999999999892
 21
-43.499999999999993
 31
0.0
  0
LINE
  5
B6
  8
1
 62
     7
 10
139.9297764058756
 20
80.558619135096734
 30
0.0
 11
144.9297764058756
 21
80.558619135096734
 31
0.0
  0
LINE
  5
B7
  8
1
 62
     7
 10
-4.1000000000000831
 20
50.0
 30
0.0
 11
-4.1000000000000831
 21
-67.499999999999986
 31
0.0
  0
LINE
  5
B8
  8
1
 62
     7
 10
-6.5000000000000888
 20
-67.499999999999986
 30
0.0
 11
-6.5000000000000888
 21
50.0
 31
0.0
  0
LINE
  5
B9
  8
1
 62
     7
 10
28.599999999999859
 20
54.0
 30
0.0
 11
28.599999999999859
 21
-53.999999999999993
 31
0.0
  0
LINE
  5
BA
  8
1
 62
     7
 10
28.599999999999859
 20
-42.499999999999993
 30
0.0
 11
27.999999999999869
 21
-42.499999999999993
 31
0.0
  0
LINE
  5
BB
  8
1
 62
     7
 10
27.999999999999861
 20
-33.499999999999993
 30
0.0
 11
28.599999999999859
 21
-33.499999999999993
 31
0.0
  0
LINE
  5
BC
  8
1
 62
     7
 10
27.999999999999861
 20
-33.249999999999993
 30
0.0
 11
27.499999999999861
 21
-33.249999999999993
 31
0.0
  0
LINE
  5
BD
  8
1
 62
     7
 10
27.499999999999861
 20
-33.249999999999993
 30
0.0
 11
27.499999999999861
 21
-42.749999999999993
 31
0.0
  0
LINE
  5
BE
  8
1
 62
     7
 10
27.499999999999861
 20
-42.749999999999993
 30
0.0
 11
27.999999999999861
 21
-42.749999999999993
 31
0.0
  0
LINE
  5
BF
  8
1
 62
     7
 10
27.999999999999861
 20
-42.749999999999993
 30
0.0
 11
27.999999999999861
 21
-33.249999999999993
 31
0.0
  0
LINE
  5
C0
  8
1
 62
     7
 10
24.449999999999861
 20
-35.499999999999993
 30
0.0
 11
24.449999999999861
 21
-40.499999999999993
 31
0.0
  0
LINE
  5
C1
  8
1
 62
     7
 10
39.399999999999856
 20
-35.499999999999993
 30
0.0
 11
39.999999999999837
 21
-36.09999999999998
 31
0.0
  0
LINE
  5
C2
  8
1
 62
     7
 10
39.999999999999837
 20
-36.09999999999998
 30
0.0
 11
39.999999999999837
 21
-39.899999999999991
 31
0.0
  0
LINE
  5
C3
  8
1
 62
     7
 10
39.999999999999837
 20
-39.899999999999991
 30
0.0
 11
39.399999999999856
 21
-40.499999999999993
 31
0.0
  0
LINE
  5
C4
  8
1
 62
     7
 10
39.399999999999856
 20
-40.499999999999993
 30
0.0
 11
28.599999999999859
 21
-40.499999999999993
 31
0.0
  0
LINE
  5
C5
  8
1
 62
     7
 10
39.399999999999856
 20
-35.499999999999993
 30
0.0
 11
39.399999999999856
 21
-40.499999999999993
 31
0.0
  0
LINE
  5
C6
  8
1
 62
     3
 10
39.999999999999837
 20
-36.09999999999998
 30
0.0
 11
29.539230484541189
 21
-36.09999999999998
 31
0.0
  0
LINE
  5
C7
  8
1
 62
     3
 10
29.539230484541189
 20
-36.09999999999998
 30
0.0
 11
28.599999999999859
 21
-35.557735026918962
 31
0.0
  0
LINE
  5
C8
  8
1
 62
     3
 10
39.999999999999837
 20
-39.899999999999991
 30
0.0
 11
29.539230484541189
 21
-39.899999999999991
 31
0.0
  0
LINE
  5
C9
  8
1
 62
     3
 10
29.539230484541189
 20
-39.899999999999991
 30
0.0
 11
28.599999999999859
 21
-40.442264973081031
 31
0.0
  0
LINE
  5
CA
  8
1
 62
     3
 10
29.539230484541189
 20
-35.499999999999993
 30
0.0
 11
29.539230484541189
 21
-40.499999999999993
 31
0.0
  0
LINE
  5
CB
  8
1
 62
     7
 10
28.599999999999859
 20
-35.499999999999993
 30
0.0
 11
39.399999999999856
 21
-35.499999999999993
 31
0.0
  0
ARC
  5
CC
  8
1
  6
DASHDOT
 62
     3
 10
142.42977640587549
 20
0.0000000000000142
 30
0.0
 40
37.999999999999957
 50
16.415565076992891
 51
42.098091029105447
  0
ARC
  5
CD
  8
1
  6
DASHDOT
 62
     3
 10
142.42977640587549
 20
0.0000000000000142
 30
0.0
 40
38.00000000000005
 50
256.6624017185872
 51
283.09931326057563
  0
ARC
  5
CE
  8
1
  6
DASHDOT
 62
     3
 10
142.42977640587549
 20
0.0000000000000142
 30
0.0
 40
38.000000000000021
 50
136.90394874184091
 51
164.73035821342751
  0
ARC
  5
CF
  8
1
 62
     7
 10
130.17384681539519
 20
26.28292582406285
 30
0.0
 40
13.0
 50
115.0
 51
213.3887390878742
  0
ARC
  5
D0
  8
1
 62
     7
 10
142.42977640587549
 20
0.0000000000000142
 30
0.0
 40
30.0
 50
140.3849039049262
 51
159.6150960950738
  0
ARC
  5
D1
  8
1
 62
     7
 10
142.42977640587549
 20
0.0000000000000142
 30
0.0
 40
52.999999999999993
 50
60.0
 51
119.9999999999999
  0
ARC
  5
D2
  8
1
 62
     7
 10
125.7960597516951
 20
-23.755409284380772
 30
0.0
 40
13.0
 50
235.0
 51
333.38873908787423
  0
ARC
  5
D3
  8
1
 62
     7
 10
142.42977640587549
 20
0.0000000000000142
 30
0.0
 40
30.000000000000071
 50
260.38490390492609
 51
279.61509609507351
  0
ARC
  5
D4
  8
1
 62
     7
 10
142.42977640587549
 20
0.0000000000000142
 30
0.0
 40
41.999999999999993
 50
185.0
 51
234.99999999999989
  0
ARC
  5
D5
  8
1
 62
     7
 10
142.42977640587549
 20
0.0000000000000142
 30
0.0
 40
42.000000000000007
 50
304.99999999999977
 51
354.99999999999977
  0
ARC
  5
D6
  8
1
 62
     7
 10
142.42977640587549
 20
0.0000000000000142
 30
0.0
 40
53.000000000000043
 50
299.99999999999977
 51
359.99999999999977
  0
ARC
  5
D7
  8
1
 62
     7
 10
142.42977640587549
 20
0.0000000000000142
 30
0.0
 40
30.000000000000011
 50
20.38490390492613
 51
39.615096095073739
  0
ARC
  5
D8
  8
1
 62
     7
 10
171.3194226505361
 20
-2.5275165396821242
 30
0.0
 40
13.0
 50
354.99999999999977
 51
93.388739087874185
  0
ARC
  5
D9
  8
1
 62
     7
 10
142.42977640587549
 20
0.0000000000000142
 30
0.0
 40
53.000000000000028
 50
180.0
 51
239.99999999999989
  0
ARC
  5
DA
  8
1
 62
     7
 10
113.5401301612149
 20
-2.527516539682082
 30
0.0
 40
13.0
 50
86.611260912125516
 51
184.9999999999998
  0
ARC
  5
DB
  8
1
 62
     7
 10
159.06349306005581
 20
-23.755409284380772
 30
0.0
 40
13.00000000000002
 50
206.61126091212549
 51
304.99999999999977
  0
ARC
  5
DC
  8
1
 62
     7
 10
142.42977640587549
 20
0.0000000000000142
 30
0.0
 40
41.999999999999993
 50
64.999999999999957
 51
115.0
  0
ARC
  5
DD
  8
1
 62
     7
 10
154.68570599635589
 20
26.28292582406285
 30
0.0
 40
12.999999999999989
 50
326.6112609121256
 51
64.999999999999901
  0
ARC
  5
DE
  8
1
 62
     7
 10
154.68570599635589
 20
26.28292582406285
 30
0.0
 40
12.999999999999989
 50
326.6112609121256
 51
64.999999999999901
  0
ARC
  5
DF
  8
1
 62
     7
 10
142.42977640587549
 20
0.0000000000000142
 30
0.0
 40
67.5
 50
42.205446403732282
 51
47.794553596267718
  0
ARC
  5
E0
  8
1
 62
     7
 10
142.42977640587549
 20
0.0000000000000142
 30
0.0
 40
67.5
 50
132.20544640373231
 51
137.79455359626769
  0
ARC
  5
E1
  8
1
 62
     7
 10
142.42977640587549
 20
0.0000000000000142
 30
0.0
 40
67.500000000000014
 50
222.2054464037322
 51
227.79455359626769
  0
ARC
  5
E2
  8
1
 62
     7
 10
142.42977640587549
 20
0.0000000000000142
 30
0.0
 40
67.499999999999986
 50
312.20544640373231
 51
317.7945535962678
  0
ARC
  5
E3
  8
1
  6
DASHDOT
 62
     3
 10
142.42977640587549
 20
0.0000000000000142
 30
0.0
 40
60.999999999999993
 50
39.087470997690133
 51
50.86043550625002
  0
ARC
  5
E4
  8
1
  6
DASHDOT
 62
     3
 10
142.42977640587549
 20
0.0000000000000142
 30
0.0
 40
60.99999999999995
 50
309.06957823526022
 51
322.10580824196961
  0
ARC
  5
E5
  8
1
  6
DASHDOT
 62
     3
 10
142.42977640587549
 20
0.0000000000000142
 30
0.0
 40
61.000000000000007
 50
219.00093175413201
 51
231.18007321041711
  0
ARC
  5
E6
  8
1
  6
DASHDOT
 62
     3
 10
142.42977640587549
 20
0.0000000000000142
 30
0.0
 40
61.000000000000007
 50
128.571911753058
 51
141.3363338594844
  0
ARC
  5
E7
  8
1
 62
     7
 10
1.899999999999916
 20
-47.499999999999993
 30
0.0
 40
6.0
 50
180.0
 51
270.0
  0
ARC
  5
E8
  8
1
 62
     7
 10
1.899999999999916
 20
-32.999999999999993
 30
0.0
 40
6.0000000000000213
 50
90.0
 51
180.0
  0
ARC
  5
E9
  8
1
 62
     7
 10
1.899999999999916
 20
33.0
 30
0.0
 40
6.0
 50
180.0
 51
270.0
  0
ARC
  5
EA
  8
1
 62
     7
 10
1.899999999999916
 20
47.5
 30
0.0
 40
6.0
 50
90.0
 51
180.0
  0
ARC
  5
EB
  8
1
 62
     7
 10
-107.2587459251788
 20
-47.499999999999993
 30
0.0
 40
6.0
 50
180.0
 51
270.0
  0
ARC
  5
EC
  8
1
 62
     7
 10
-107.2587459251788
 20
47.5
 30
0.0
 40
6.0
 50
90.0
 51
180.0
  0
ARC
  5
ED
  8
1
 62
     7
 10
170.4297764058756
 20
-0.0000000000000426
 30
0.0
 40
25.0
 50
359.99999999999977
 51
51.618272422158391
  0
ARC
  5
EE
  8
1
 62
     7
 10
194.0238934874321
 20
29.78787738563787
 30
0.0
 40
12.99999999999984
 50
188.3817275778429
 51
231.6182724221583
  0
ARC
  5
EF
  8
1
 62
     7
 10
156.4297764058756
 20
24.248711305964271
 30
0.0
 40
24.999999999999918
 50
8.3817275778414633
 51
60.000000000000227
  0
ARC
  5
F0
  8
1
 62
     7
 10
114.4297764058755
 20
0.0000000000000853
 30
0.0
 40
25.000000000000011
 50
128.38172757784139
 51
180.00000000000011
  0
ARC
  5
F1
  8
1
 62
     7
 10
156.4297764058754
 20
-24.248711305964338
 30
0.0
 40
24.999999999999989
 50
248.38172757784139
 51
299.99999999999989
  0
ARC
  5
F2
  8
1
 62
     7
 10
90.835659324318925
 20
29.787877385637788
 30
0.0
 40
12.99999999999986
 50
308.38172757784281
 51
351.61827242215821
  0
ARC
  5
F3
  8
1
 62
     7
 10
142.42977640587549
 20
-59.575754771275598
 30
0.0
 40
12.99999999999984
 50
68.381727577842668
 51
111.618272422158
  0
ARC
  5
F4
  8
1
 62
     7
 10
128.42977640587571
 20
24.248711305964321
 30
0.0
 40
25.000000000000011
 50
120.0000000000003
 51
171.6182724221583
  0
ARC
  5
F5
  8
1
 62
     7
 10
128.4297764058754
 20
-24.248711305964228
 30
0.0
 40
25.0
 50
239.99999999999989
 51
291.61827242215838
  0
ARC
  5
F6
  8
1
 62
     7
 10
28.849680289128731
 20
-38.271788836374668
 30
0.0
 40
5.2000000000000419
 50
105.04359390755771
 51
147.7891631322143
  0
ARC
  5
F7
  8
1
 62
     7
 10
28.84968028912871
 20
-37.728211163625318
 30
0.0
 40
5.2000000000000268
 50
212.21083686778559
 51
254.95640609244231
  0
CIRCLE
  5
F8
  8
1
 62
     7
 10
142.42977640587549
 20
47.5
 30
0.0
 40
4.5
  0
CIRCLE
  5
F9
  8
1
 62
     7
 10
109.5208110620669
 20
19.0
 30
0.0
 40
5.5
  0
CIRCLE
  5
FA
  8
1
 62
     7
 10
142.4297764058754
 20
-37.999999999999993
 30
0.0
 40
5.5
  0
CIRCLE
  5
FB
  8
1
 62
     7
 10
142.4297764058754
 20
-37.999999999999993
 30
0.0
 40
2.5
  0
CIRCLE
  5
FC
  8
1
 62
     7
 10
142.4297764058754
 20
-37.999999999999993
 30
0.0
 40
2.0
  0
CIRCLE
  5
FD
  8
1
 62
     7
 10
101.2935697261147
 20
-23.750000000000011
 30
0.0
 40
4.5
  0
CIRCLE
  5
FE
  8
1
 62
     7
 10
183.56598308563639
 20
-23.750000000000028
 30
0.0
 40
4.5
  0
CIRCLE
  5
FF
  8
1
 62
     7
 10
175.3387417496842
 20
18.999999999999961
 30
0.0
 40
5.5
  0
CIRCLE
  5
100
  8
1
 62
     7
 10
175.3387417496842
 20
18.999999999999961
 30
0.0
 40
2.5
  0
CIRCLE
  5
101
  8
1
 62
     7
 10
175.3387417496842
 20
18.999999999999961
 30
0.0
 40
2.0
  0
CIRCLE
  5
102
  8
1
 62
     7
 10
109.5208110620669
 20
19.0
 30
0.0
 40
2.0
  0
CIRCLE
  5
103
  8
1
 62
     7
 10
142.42977640587549
 20
0.0000000000000142
 30
0.0
 40
26.5
  0
CIRCLE
  5
104
  8
1
 62
     7
 10
142.42977640587549
 20
0.0000000000000142
 30
0.0
 40
54.0
  0
CIRCLE
  5
105
  8
1
 62
     7
 10
99.296262753496151
 20
43.133513652379392
 30
0.0
 40
3.250000000000028
  0
CIRCLE
  5
106
  8
1
 62
     7
 10
185.56329005825489
 20
43.133513652379392
 30
0.0
 40
3.25
  0
CIRCLE
  5
107
  8
1
 62
     7
 10
185.56329005825489
 20
-43.133513652379392
 30
0.0
 40
3.25
  0
CIRCLE
  5
108
  8
1
 62
     7
 10
99.296262753496151
 20
-43.133513652379392
 30
0.0
 40
3.250000000000028
  0
CIRCLE
  5
109
  8
1
 62
     7
 10
109.5208110620669
 20
19.0
 30
0.0
 40
2.5
  0
TEXT
  5
10A
  8
1
 62
     7
 10
-108.7930009470188
 20
108.94615650797191
 30
0.0
 40
4.0
  1
VBSH 2.5
 41
0.9
  7
SIMPLEX
  0
ENDSEC
  0
EOF
