  0
SECTION
  2
HEADER
  9
$ACADVER
  1
AC1009
  9
$INSBASE
 10
0.0
 20
0.0
 30
0.0
  9
$EXTMIN
 10
-100.0606080753972
 20
119.10693569220101
 30
0.0
  9
$EXTMAX
 10
204.8946096882672
 20
266.11660086428282
 30
0.0
  9
$LIMMIN
 10
-100.0606080753972
 20
119.10693569220101
  9
$LIMMAX
 10
201.0215427293208
 20
266.11660086428282
  9
$ORTHOMODE
 70
     0
  9
$REGENMODE
 70
     1
  9
$FILLMODE
 70
     1
  9
$QTEXTMODE
 70
     0
  9
$MIRRTEXT
 70
     1
  9
$DRAGMODE
 70
     2
  9
$LTSCALE
 40
1.0
  9
$OSMODE
 70
    37
  9
$ATTMODE
 70
     1
  9
$TEXTSIZE
 40
3.5
  9
$TRACEWID
 40
0.5
  9
$TEXTSTYLE
  7
STANDARD
  9
$CLAYER
  8
0
  9
$CELTYPE
  6
BYLAYER
  9
$CECOLOR
 62
   256
  9
$DIMSCALE
 40
1.0
  9
$DIMASZ
 40
0.18
  9
$DIMEXO
 40
0.0625
  9
$DIMDLI
 40
0.38
  9
$DIMRND
 40
0.0
  9
$DIMDLE
 40
0.0
  9
$DIMEXE
 40
0.18
  9
$DIMTP
 40
0.0
  9
$DIMTM
 40
0.0
  9
$DIMTXT
 40
0.18
  9
$DIMCEN
 40
0.09
  9
$DIMTSZ
 40
0.0
  9
$DIMTOL
 70
     0
  9
$DIMLIM
 70
     0
  9
$DIMTIH
 70
     1
  9
$DIMTOH
 70
     1
  9
$DIMSE1
 70
     0
  9
$DIMSE2
 70
     0
  9
$DIMTAD
 70
     0
  9
$DIMZIN
 70
     0
  9
$DIMBLK
  1

  9
$DIMASO
 70
     1
  9
$DIMSHO
 70
     1
  9
$DIMPOST
  1

  9
$DIMAPOST
  1

  9
$DIMALT
 70
     0
  9
$DIMALTD
 70
     2
  9
$DIMALTF
 40
25.399999999999999
  9
$DIMLFAC
 40
1.0
  9
$DIMTOFL
 70
     0
  9
$DIMTVP
 40
0.0
  9
$DIMTIX
 70
     0
  9
$DIMSOXD
 70
     0
  9
$DIMSAH
 70
     0
  9
$DIMBLK1
  1

  9
$DIMBLK2
  1

  9
$DIMSTYLE
  2
STANDARD
  9
$DIMCLRD
 70
     0
  9
$DIMCLRE
 70
     0
  9
$DIMCLRT
 70
     0
  9
$DIMTFAC
 40
1.0
  9
$DIMGAP
 40
0.09
  9
$LUNITS
 70
     2
  9
$LUPREC
 70
     4
  9
$SKETCHINC
 40
0.1
  9
$FILLETRAD
 40
2.0
  9
$AUNITS
 70
     0
  9
$AUPREC
 70
     0
  9
$MENU
  1
ACAD
  9
$ELEVATION
 40
0.0
  9
$PELEVATION
 40
0.0
  9
$THICKNESS
 40
0.0
  9
$LIMCHECK
 70
     0
  9
$BLIPMODE
 70
     0
  9
$CHAMFERA
 40
0.0
  9
$CHAMFERB
 40
0.0
  9
$SKPOLY
 70
     0
  9
$TDCREATE
 40
2452095.3877752312
  9
$TDUPDATE
 40
2452095.3883530088
  9
$TDINDWG
 40
0.0005912037
  9
$TDUSRTIMER
 40
0.0005912037
  9
$USRTIMER
 70
     1
  9
$ANGBASE
 50
0.0
  9
$ANGDIR
 70
     0
  9
$PDMODE
 70
     0
  9
$PDSIZE
 40
0.0
  9
$PLINEWID
 40
0.0
  9
$COORDS
 70
     1
  9
$SPLFRAME
 70
     0
  9
$SPLINETYPE
 70
     6
  9
$SPLINESEGS
 70
     8
  9
$ATTDIA
 70
     0
  9
$ATTREQ
 70
     1
  9
$HANDLING
 70
 10241
  9
$HANDSEED
  5
14C
  9
$SURFTAB1
 70
     6
  9
$SURFTAB2
 70
     6
  9
$SURFTYPE
 70
     6
  9
$SURFU
 70
     6
  9
$SURFV
 70
     6
  9
$UCSNAME
  2

  9
$UCSORG
 10
0.0
 20
0.0
 30
0.0
  9
$UCSXDIR
 10
1.0
 20
0.0
 30
0.0
  9
$UCSYDIR
 10
0.0
 20
1.0
 30
0.0
  9
$PUCSNAME
  2

  9
$PUCSORG
 10
0.0
 20
0.0
 30
0.0
  9
$PUCSXDIR
 10
1.0
 20
0.0
 30
0.0
  9
$PUCSYDIR
 10
0.0
 20
1.0
 30
0.0
  9
$USERI1
 70
     0
  9
$USERI2
 70
     0
  9
$USERI3
 70
     0
  9
$USERI4
 70
     0
  9
$USERI5
 70
     0
  9
$USERR1
 40
0.0
  9
$USERR2
 40
0.0
  9
$USERR3
 40
0.0
  9
$USERR4
 40
0.0
  9
$USERR5
 40
0.0
  9
$WORLDVIEW
 70
     1
  9
$SHADEDGE
 70
     3
  9
$SHADEDIF
 70
    70
  9
$TILEMODE
 70
     1
  9
$MAXACTVP
 70
    64
  9
$PLIMCHECK
 70
     0
  9
$PEXTMIN
 10
1.0000000000000000E+020
 20
1.0000000000000000E+020
 30
1.0000000000000000E+020
  9
$PEXTMAX
 10
-1.0000000000000000E+020
 20
-1.0000000000000000E+020
 30
-1.0000000000000000E+020
  9
$PLIMMIN
 10
0.0
 20
0.0
  9
$PLIMMAX
 10
12.0
 20
9.0
  9
$UNITMODE
 70
     0
  9
$VISRETAIN
 70
     1
  9
$PLINEGEN
 70
     0
  9
$PSLTSCALE
 70
     1
  0
ENDSEC
  0
SECTION
  2
TABLES
  0
TABLE
  2
VPORT
 70
     2
  0
VPORT
  2
*ACTIVE
 70
     0
 10
0.0
 20
0.0
 11
1.0
 21
1.0
 12
-80.572293026685543
 22
261.06837350176642
 13
0.0
 23
0.0
 14
1.0
 24
1.0
 15
0.0
 25
0.0
 16
0.0
 26
0.0
 36
1.0
 17
0.0
 27
0.0
 37
0.0
 40
9.0000000055234874
 41
2.4144144144144142
 42
50.0
 43
0.0
 44
0.0
 50
0.0
 51
0.0
 71
     0
 72
   100
 73
     1
 74
     1
 75
     0
 76
     0
 77
     0
 78
     0
  0
ENDTAB
  0
TABLE
  2
LTYPE
 70
     9
  0
LTYPE
  2
CONTINUOUS
 70
     0
  3
Solid line
 72
    65
 73
     0
 40
0.0
  0
LTYPE
  2
BORDER
 70
     0
  3
__ __ . __ __ .
 72
    65
 73
     6
 40
13.86562536600675
 49
3.9616072474304991
 49
-1.9808036237152491
 49
3.9616072474304991
 49
-1.9808036237152491
 49
0.0
 49
-1.9808036237152491
  0
LTYPE
  2
CENTER
 70
     0
  3
____ _ ____ _
 72
    65
 73
     4
 40
15.846428989722
 49
9.9040181185762517
 49
-1.9808036237152491
 49
1.9808036237152491
 49
-1.9808036237152491
  0
LTYPE
  2
DASHDOT
 70
     0
  3
__ . __ . __ .
 72
    65
 73
     4
 40
7.9232144948609999
 49
3.9616072474304991
 49
-1.9808036237152491
 49
0.0
 49
-1.9808036237152491
  0
LTYPE
  2
DASHED
 70
     0
  3
__ __ __ __ __
 72
    65
 73
     2
 40
5.9424108711457508
 49
3.9616072474304991
 49
-1.9808036237152491
  0
LTYPE
  2
DIVIDE
 70
     0
  3
__ . . __ . . 
 72
    65
 73
     6
 40
9.9040181185762517
 49
3.9616072474304991
 49
-1.9808036237152491
 49
0.0
 49
-1.9808036237152491
 49
0.0
 49
-1.9808036237152491
  0
LTYPE
  2
DOT
 70
     0
  3
..............
 72
    65
 73
     4
 40
3.9616072474304991
 49
0.0
 49
-1.9808036237152491
 49
0.0
 49
-1.9808036237152491
  0
LTYPE
  2
HIDDEN
 70
     0
  3
_ _ _ _ _ _ _
 72
    65
 73
     2
 40
2.9712054355728741
 49
1.9808036237152491
 49
-0.9904018118576251
  0
LTYPE
  2
PHANTOM
 70
     0
  3
_____ _ _ _____ _ _ 
 72
    65
 73
     6
 40
19.808036237152489
 49
9.9040181185762517
 49
-1.9808036237152491
 49
1.9808036237152491
 49
-1.9808036237152491
 49
1.9808036237152491
 49
-1.9808036237152491
  0
ENDTAB
  0
TABLE
  2
LAYER
 70
     2
  0
LAYER
  2
0
 70
     0
 62
     7
  6
CONTINUOUS
  0
LAYER
  2
1
 70
     0
 62
     7
  6
CONTINUOUS
  0
ENDTAB
  0
TABLE
  2
STYLE
 70
     4
  0
STYLE
  2
STANDARD
 70
     0
 40
0.0
 41
1.0
 50
0.0
 71
     0
 42
3.5
  3
txt
  4

  0
STYLE
  2
SIMPLEX
 70
     0
 40
0.0
 41
1.0
 50
0.0
 71
     0
 42
3.5
  3
simplex
  4

  0
STYLE
  2
COMPLEX
 70
     0
 40
0.0
 41
1.0
 50
0.0
 71
     0
 42
3.5
  3
complex
  4

  0
STYLE
  2
ITALIC
 70
     0
 40
0.0
 41
1.0
 50
0.0
 71
     0
 42
3.5
  3
italic
  4

  0
ENDTAB
  0
TABLE
  2
VIEW
 70
     0
  0
ENDTAB
  0
TABLE
  2
UCS
 70
     0
  0
ENDTAB
  0
TABLE
  2
APPID
 70
     1
  0
APPID
  2
ACAD
 70
     0
  0
ENDTAB
  0
TABLE
  2
DIMSTYLE
 70
     1
  0
DIMSTYLE
  2
STANDARD
 70
     0
  3

  4

  5

  6

  7

 40
1.0
 41
0.18
 42
0.0625
 43
0.38
 44
0.18
 45
0.0
 46
0.0
 47
0.0
 48
0.0
140
0.18
141
0.09
142
0.0
143
25.399999999999999
144
1.0
145
0.0
146
1.0
147
0.09
 71
     0
 72
     0
 73
     1
 74
     1
 75
     0
 76
     0
 77
     0
 78
     0
170
     0
171
     2
172
     0
173
     0
174
     0
175
     0
176
     0
177
     0
178
     0
  0
ENDTAB
  0
ENDSEC
  0
SECTION
  2
BLOCKS
  0
BLOCK
  8
0
  2
$MODEL_SPACE
 70
     0
 10
0.0
 20
0.0
 30
0.0
  3
$MODEL_SPACE
  1

  0
ENDBLK
  5
20
  8
0
  0
BLOCK
 67
     1
  8
0
  2
$PAPER_SPACE
 70
     0
 10
0.0
 20
0.0
 30
0.0
  3
$PAPER_SPACE
  1

  0
ENDBLK
  5
1C
 67
     1
  8
0
  0
ENDSEC
  0
SECTION
  2
ENTITIES
  0
LINE
  5
33
  8
1
 62
     7
 10
-61.960608075397239
 20
211.10693569220101
 30
0.0
 11
-62.560608075397248
 21
211.10693569220101
 31
0.0
  0
LINE
  5
34
  8
1
 62
     7
 10
-61.960608075397239
 20
197.10693569220101
 30
0.0
 11
-62.560608075397248
 21
197.10693569220101
 31
0.0
  0
LINE
  5
35
  8
1
 62
     7
 10
46.039391924602747
 20
196.60693569220101
 30
0.0
 11
48.139391924602727
 21
196.60693569220101
 31
0.0
  0
LINE
  5
36
  8
1
 62
     7
 10
46.039391924602747
 20
197.10693569220101
 30
0.0
 11
45.439391924602774
 21
197.10693569220101
 31
0.0
  0
LINE
  5
37
  8
1
 62
     7
 10
46.039391924602747
 20
211.10693569220101
 30
0.0
 11
45.439391924602774
 21
211.10693569220101
 31
0.0
  0
LINE
  5
38
  8
1
 62
     7
 10
-63.360608075397259
 20
217.10693569220101
 30
0.0
 11
-63.360608075397259
 21
131.10693569220101
 31
0.0
  0
LINE
  5
39
  8
1
 62
     7
 10
48.139391924602727
 20
151.60693569220101
 30
0.0
 11
40.539391924602747
 21
151.60693569220101
 31
0.0
  0
LINE
  5
3A
  8
1
 62
     7
 10
40.539391924602747
 20
196.60693569220101
 30
0.0
 11
45.439391924602774
 21
196.60693569220101
 31
0.0
  0
LINE
  5
3B
  8
1
  6
DASHDOT
 62
     3
 10
-100.0606080753972
 20
174.10693569220101
 30
0.0
 11
-95.060608075397212
 21
174.10693569220101
 31
0.0
  0
LINE
  5
3C
  8
1
  6
DASHDOT
 62
     3
 10
-91.409856627818556
 20
125.10693569220101
 30
0.0
 11
-96.296699045666998
 21
125.10693569220101
 31
0.0
  0
LINE
  5
3D
  8
1
 62
     7
 10
-92.96060807539719
 20
119.10693569220101
 30
0.0
 11
-92.96060807539719
 21
215.10693569220101
 31
0.0
  0
LINE
  5
3E
  8
1
 62
     7
 10
-84.710608075397204
 20
239.93549305031101
 30
0.0
 11
-84.710608075397204
 21
216.60693569220089
 31
0.0
  0
LINE
  5
3F
  8
1
 62
     7
 10
-82.210608075397204
 20
216.60693569220089
 30
0.0
 11
-82.210608075397204
 21
239.93549305031101
 31
0.0
  0
LINE
  5
40
  8
1
 62
     7
 10
-84.710608075397204
 20
239.93549305031101
 30
0.0
 11
-82.210608075397204
 21
239.93549305031101
 31
0.0
  0
LINE
  5
41
  8
1
 62
     7
 10
-83.060608075397198
 20
239.93549305031101
 30
0.0
 11
-83.060608075397198
 21
244.93549305031101
 31
0.0
  0
LINE
  5
42
  8
1
 62
     7
 10
-83.260608075397229
 20
239.93549305031101
 30
0.0
 11
-83.260608075397229
 21
244.93549305031101
 31
0.0
  0
LINE
  5
43
  8
1
 62
     7
 10
-83.460608075397204
 20
239.93549305031101
 30
0.0
 11
-83.460608075397204
 21
244.93549305031101
 31
0.0
  0
LINE
  5
44
  8
1
 62
     7
 10
-83.660608075397235
 20
239.93549305031101
 30
0.0
 11
-83.660608075397235
 21
244.93549305031101
 31
0.0
  0
LINE
  5
45
  8
1
 62
     7
 10
-83.860608075397153
 20
239.93549305031101
 30
0.0
 11
-83.860608075397153
 21
244.93549305031101
 31
0.0
  0
LINE
  5
46
  8
1
 62
     7
 10
-59.860608075397273
 20
212.1068197858487
 30
0.0
 11
-59.860608075397273
 21
141.10681978584881
 31
0.0
  0
LINE
  5
47
  8
1
 62
     7
 10
-67.460608075397246
 20
217.10693569220101
 30
0.0
 11
-67.460608075397246
 21
131.10693569220101
 31
0.0
  0
LINE
  5
48
  8
1
 62
     7
 10
-67.460608075397246
 20
217.10693569220101
 30
0.0
 11
-62.560608075397248
 21
217.10693569220101
 31
0.0
  0
LINE
  5
49
  8
1
 62
     7
 10
-63.860608075397259
 20
217.10693569220101
 30
0.0
 11
-63.860608075397259
 21
131.10693569220101
 31
0.0
  0
LINE
  5
4A
  8
1
 62
     7
 10
-62.560608075397248
 20
217.10693569220101
 30
0.0
 11
-62.560608075397248
 21
131.10693569220101
 31
0.0
  0
LINE
  5
4B
  8
1
 62
     7
 10
-61.960608075397239
 20
214.10693569220101
 30
0.0
 11
-61.460608075397253
 21
214.10693569220101
 31
0.0
  0
LINE
  5
4C
  8
1
 62
     7
 10
-59.860608075397273
 20
209.10693569220101
 30
0.0
 11
-59.760608075397222
 21
209.10693569220101
 31
0.0
  0
LINE
  5
4D
  8
1
 62
     7
 10
-59.860608075397273
 20
199.10693569220101
 30
0.0
 11
-59.760608075397222
 21
199.10693569220101
 31
0.0
  0
LINE
  5
4E
  8
1
 62
     7
 10
-59.760608075397222
 20
210.50693569220101
 30
0.0
 11
-59.760608075397222
 21
197.706935692201
 31
0.0
  0
LINE
  5
4F
  8
1
 62
     7
 10
-59.760608075397222
 20
197.706935692201
 30
0.0
 11
-58.060608075397219
 21
197.706935692201
 31
0.0
  0
LINE
  5
50
  8
1
 62
     7
 10
-59.760608075397222
 20
210.50693569220101
 30
0.0
 11
-58.060608075397219
 21
210.50693569220101
 31
0.0
  0
LINE
  5
51
  8
1
 62
     7
 10
-57.960608075397211
 20
217.10693569220101
 30
0.0
 11
-44.560608075397226
 21
217.10693569220101
 31
0.0
  0
LINE
  5
52
  8
1
 62
     7
 10
-58.060608075397219
 20
217.0069356922009
 30
0.0
 11
-58.060608075397219
 21
148.10693569220101
 31
0.0
  0
LINE
  5
53
  8
1
 62
     7
 10
-44.560608075397226
 20
217.10693569220101
 30
0.0
 11
-44.560608075397226
 21
148.10693569220101
 31
0.0
  0
LINE
  5
54
  8
1
 62
     7
 10
-62.560608075397248
 20
131.10693569220101
 30
0.0
 11
-67.460608075397246
 21
131.10693569220101
 31
0.0
  0
LINE
  5
55
  8
1
 62
     7
 10
-61.460608075397253
 20
144.04110944340741
 30
0.0
 11
-62.060608075397248
 21
142.36168658000139
 31
0.0
  0
LINE
  5
56
  8
1
 62
     7
 10
-61.960608075397239
 20
144.10693569220101
 30
0.0
 11
-62.560608075397248
 21
142.4275128287949
 31
0.0
  0
LINE
  5
57
  8
1
 62
     7
 10
-62.060608075397248
 20
142.36168658000139
 30
0.0
 11
-62.060608075397248
 21
132.10693569220101
 31
0.0
  0
LINE
  5
58
  8
1
 62
     7
 10
-62.060608075397248
 20
132.10693569220101
 30
0.0
 11
-62.560608075397248
 21
132.10693569220101
 31
0.0
  0
LINE
  5
59
  8
1
 62
     7
 10
-63.610608075397252
 20
217.10693569220101
 30
0.0
 11
-63.610608075397252
 21
131.10693569220101
 31
0.0
  0
LINE
  5
5A
  8
1
 62
     7
 10
-62.060608075397248
 20
140.10693569220101
 30
0.0
 11
-61.560608075397248
 21
140.10693569220101
 31
0.0
  0
LINE
  5
5B
  8
1
 62
     7
 10
-62.060608075397248
 20
133.10693569220101
 30
0.0
 11
-61.560608075397248
 21
133.10693569220101
 31
0.0
  0
LINE
  5
5C
  8
1
 62
     7
 10
-60.260608075397251
 20
133.25693569220101
 30
0.0
 11
-60.260608075397251
 21
139.956935692201
 31
0.0
  0
LINE
  5
5D
  8
1
 62
     7
 10
-61.460608075397253
 20
141.10681978584881
 30
0.0
 11
-59.860608075397273
 21
141.10681978584881
 31
0.0
  0
LINE
  5
5E
  8
1
 62
     7
 10
-61.960608075397239
 20
144.10693569220101
 30
0.0
 11
-61.960608075397239
 21
214.10693569220101
 31
0.0
  0
LINE
  5
5F
  8
1
 62
     7
 10
-58.060608075397219
 20
148.10693569220101
 30
0.0
 11
-56.060608075397226
 21
148.10693569220101
 31
0.0
  0
LINE
  5
60
  8
1
 62
     7
 10
-54.560608075397226
 20
146.60693569220101
 30
0.0
 11
-54.560608075397226
 21
146.03615798803011
 31
0.0
  0
LINE
  5
61
  8
1
 62
     7
 10
-44.560608075397226
 20
148.10693569220101
 30
0.0
 11
-46.560608075397226
 21
148.10693569220101
 31
0.0
  0
LINE
  5
62
  8
1
 62
     7
 10
-48.060608075397219
 20
146.03615798803011
 30
0.0
 11
-48.060608075397219
 21
146.60693569220101
 31
0.0
  0
LINE
  5
63
  8
1
 62
     7
 10
-53.060608075397219
 20
144.53615798803011
 30
0.0
 11
-49.560608075397226
 21
144.53615798803011
 31
0.0
  0
LINE
  5
64
  8
1
 62
     7
 10
-61.460608075397253
 20
212.1068197858487
 30
0.0
 11
-59.860608075397273
 21
212.1068197858487
 31
0.0
  0
LINE
  5
65
  8
1
 62
     7
 10
-61.460608075397253
 20
141.10681978584881
 30
0.0
 11
-61.460608075397253
 21
214.10693569220101
 31
0.0
  0
LINE
  5
66
  8
1
 62
     7
 10
-58.060608075397219
 20
217.0069356922009
 30
0.0
 11
-57.960608075397211
 21
217.10693569220101
 31
0.0
  0
LINE
  5
67
  8
1
 62
     7
 10
-92.96060807539719
 20
119.10693569220101
 30
0.0
 11
-95.060608075397212
 21
119.10693569220101
 31
0.0
  0
LINE
  5
68
  8
1
 62
     7
 10
-95.060608075397212
 20
215.10693569220101
 30
0.0
 11
-95.060608075397212
 21
119.10693569220101
 31
0.0
  0
LINE
  5
69
  8
1
  6
DASHDOT
 62
     3
 10
-39.560608075397226
 20
174.10693569220101
 30
0.0
 11
-44.560608075397226
 21
174.10693569220101
 31
0.0
  0
LINE
  5
6A
  8
1
 62
     7
 10
-67.860608075397209
 20
216.60693569220089
 30
0.0
 11
-67.860608075397209
 21
131.60693569220101
 31
0.0
  0
LINE
  5
6B
  8
1
 62
     7
 10
-67.860608075397209
 20
216.60693569220089
 30
0.0
 11
-87.960608075397147
 21
216.60693569220089
 31
0.0
  0
LINE
  5
6C
  8
1
 62
     7
 10
-67.860608075397209
 20
131.60693569220101
 30
0.0
 11
-87.960608075397147
 21
131.60693569220101
 31
0.0
  0
LINE
  5
6D
  8
1
 62
     7
 10
-92.96060807539719
 20
215.10693569220101
 30
0.0
 11
-95.060608075397212
 21
215.10693569220101
 31
0.0
  0
LINE
  5
6E
  8
1
  6
DASHDOT
 62
     3
 10
12.9393919246028
 20
174.10693569220101
 30
0.0
 11
7.939391924602802
 21
174.10693569220101
 31
0.0
  0
LINE
  5
6F
  8
1
  6
DASHDOT
 62
     3
 10
16.59014337218143
 20
125.10693569220101
 30
0.0
 11
11.703300954333001
 21
125.10693569220101
 31
0.0
  0
LINE
  5
70
  8
1
  6
CENTER
 62
     3
 10
158.0215427293208
 20
157.3481961754986
 30
0.0
 11
158.0215427293208
 21
150.8481961754986
 31
0.0
  0
LINE
  5
71
  8
1
 62
     7
 10
155.52154272932069
 20
239.93549305031081
 30
0.0
 11
155.52154272932069
 21
217.0341997559635
 31
0.0
  0
LINE
  5
72
  8
1
 62
     7
 10
160.5215427293208
 20
239.93549305031081
 30
0.0
 11
160.5215427293208
 21
217.0341997559635
 31
0.0
  0
LINE
  5
73
  8
1
  6
DASHDOT
 62
     3
 10
158.0215427293208
 20
177.96057364868679
 30
0.0
 11
158.0215427293208
 21
170.28433387812879
 31
0.0
  0
LINE
  5
74
  8
1
  6
DASHDOT
 62
     3
 10
161.71095358126871
 20
174.10693569220101
 30
0.0
 11
154.7365414468758
 21
174.10693569220101
 31
0.0
  0
LINE
  5
75
  8
1
  6
DASHDOT
 62
     3
 10
172.6898416924914
 20
182.5756820471415
 30
0.0
 11
178.14266985554269
 21
185.72387385492399
 31
0.0
  0
LINE
  5
76
  8
1
  6
DASHDOT
 62
     3
 10
138.06284289484921
 20
185.63009641430801
 30
0.0
 11
143.46506191070191
 21
182.51112381128419
 31
0.0
  0
LINE
  5
77
  8
1
 62
     7
 10
146.90626292013889
 20
213.99626173069541
 30
0.0
 11
117.91873313555369
 21
163.7883873578775
 31
0.0
  0
LINE
  5
78
  8
1
 62
     7
 10
129.03401294473551
 20
144.53615798803
 30
0.0
 11
187.00907251390609
 21
144.53615798803011
 31
0.0
  0
LINE
  5
79
  8
1
 62
     7
 10
198.124352323088
 20
163.7883873578775
 30
0.0
 11
169.13682253850251
 21
213.99626173069541
 31
0.0
  0
LINE
  5
7A
  8
1
 62
     7
 10
155.52154272932069
 20
239.93549305031081
 30
0.0
 11
160.5215427293208
 21
239.93549305031081
 31
0.0
  0
LINE
  5
7B
  8
1
 62
     7
 10
159.0215427293208
 20
244.93549305031081
 30
0.0
 11
159.0215427293208
 21
239.93549305031081
 31
0.0
  0
LINE
  5
7C
  8
1
 62
     7
 10
157.0215427293208
 20
244.93549305031081
 30
0.0
 11
157.0215427293208
 21
239.93549305031101
 31
0.0
  0
LINE
  5
7D
  8
1
 62
     7
 10
159.32154272932081
 20
244.93549305031081
 30
0.0
 11
159.32154272932081
 21
239.93549305031101
 31
0.0
  0
LINE
  5
7E
  8
1
 62
     7
 10
159.62154272932079
 20
244.93549305031101
 30
0.0
 11
159.62154272932079
 21
239.93549305031081
 31
0.0
  0
LINE
  5
7F
  8
1
 62
     7
 10
158.72154272932059
 20
244.93549305031101
 30
0.0
 11
158.72154272932059
 21
239.93549305031101
 31
0.0
  0
LINE
  5
80
  8
1
 62
     7
 10
157.32154272932081
 20
244.93549305031101
 30
0.0
 11
157.32154272932081
 21
239.93549305031081
 31
0.0
  0
LINE
  5
81
  8
1
 62
     7
 10
156.72154272932059
 20
244.93549305031101
 30
0.0
 11
156.72154272932059
 21
239.93549305031081
 31
0.0
  0
LINE
  5
82
  8
1
 62
     7
 10
156.42154272932081
 20
244.93549305031081
 30
0.0
 11
156.42154272932081
 21
239.93549305031081
 31
0.0
  0
LINE
  5
83
  8
1
 62
     7
 10
121.360937169674
 20
215.10693569220101
 30
0.0
 11
145.060061332505
 21
215.10693569220101
 31
0.0
  0
LINE
  5
84
  8
1
 62
     7
 10
171.90601292316339
 20
215.10693569220101
 30
0.0
 11
194.68214828896751
 21
215.10693569220101
 31
0.0
  0
LINE
  5
85
  8
1
 62
     7
 10
194.68214828896751
 20
133.10693569220101
 30
0.0
 11
170.98302412613631
 21
133.10693569220101
 31
0.0
  0
LINE
  5
86
  8
1
 62
     7
 10
121.360937169674
 20
133.10693569220101
 30
0.0
 11
145.060061332505
 21
133.10693569220101
 31
0.0
  0
LINE
  5
87
  8
1
 62
     7
 10
199.0215427293208
 20
210.7675412518478
 30
0.0
 11
199.0215427293208
 21
187.0684170890168
 31
0.0
  0
LINE
  5
88
  8
1
 62
     7
 10
199.0215427293208
 20
137.44633013255421
 30
0.0
 11
199.0215427293208
 21
161.14545429538521
 31
0.0
  0
LINE
  5
89
  8
1
 62
     7
 10
117.0215427293207
 20
210.7675412518478
 30
0.0
 11
117.0215427293207
 21
187.0684170890168
 31
0.0
  0
LINE
  5
8A
  8
1
 62
     7
 10
117.0215427293207
 20
161.14545429538521
 30
0.0
 11
117.0215427293207
 21
137.44633013255421
 31
0.0
  0
LINE
  5
8B
  8
1
  6
DASHDOT
 62
     3
 10
196.42385322378669
 20
212.5092461866669
 30
0.0
 11
189.54879827208231
 21
205.63419123496249
 31
0.0
  0
LINE
  5
8C
  8
1
  6
DASHDOT
 62
     3
 10
119.61923223485471
 20
212.5092461866669
 30
0.0
 11
126.49428718655921
 21
205.63419123496249
 31
0.0
  0
LINE
  5
8D
  8
1
  6
DASHDOT
 62
     3
 10
119.61923223485471
 20
135.704625197735
 30
0.0
 11
126.49428718655921
 21
142.57968014943941
 31
0.0
  0
LINE
  5
8E
  8
1
  6
DASHDOT
 62
     3
 10
196.42385322378669
 20
135.704625197735
 30
0.0
 11
189.54879827208231
 21
142.57968014943941
 31
0.0
  0
LINE
  5
8F
  8
1
 62
     7
 10
160.5215427293208
 20
183.90693569220099
 30
0.0
 11
155.52154272932069
 21
183.90693569220099
 31
0.0
  0
LINE
  5
90
  8
1
 62
     7
 10
155.52154272932069
 20
183.90693569220099
 30
0.0
 11
155.52154272932069
 21
181.17800350406651
 31
0.0
  0
LINE
  5
91
  8
1
 62
     7
 10
160.5215427293208
 20
181.17800350406651
 30
0.0
 11
160.5215427293208
 21
183.90693569220099
 31
0.0
  0
LINE
  5
92
  8
1
 62
     7
 10
139.18009904790401
 20
141.10693569220101
 30
0.0
 11
176.86298641073759
 21
141.10693569220101
 31
0.0
  0
LINE
  5
93
  8
1
 62
     7
 10
196.0211028949156
 20
174.28976682012029
 30
0.0
 11
177.17965921349889
 21
206.92410456428161
 31
0.0
  0
LINE
  5
94
  8
1
 62
     7
 10
138.8634262451427
 20
206.92410456428161
 30
0.0
 11
120.0219825637259
 21
174.28976682012029
 31
0.0
  0
LINE
  5
95
  8
1
 62
     7
 10
15.039391924602819
 20
119.10693569220101
 30
0.0
 11
15.039391924602819
 21
215.10693569220101
 31
0.0
  0
LINE
  5
96
  8
1
 62
     7
 10
23.289391924602821
 20
239.93549305031101
 30
0.0
 11
23.289391924602821
 21
216.60693569220089
 31
0.0
  0
LINE
  5
97
  8
1
 62
     7
 10
25.789391924602821
 20
216.60693569220089
 30
0.0
 11
25.789391924602821
 21
239.93549305031101
 31
0.0
  0
LINE
  5
98
  8
1
 62
     7
 10
23.289391924602821
 20
239.93549305031101
 30
0.0
 11
25.789391924602821
 21
239.93549305031101
 31
0.0
  0
LINE
  5
99
  8
1
 62
     7
 10
24.939391924602791
 20
239.93549305031101
 30
0.0
 11
24.939391924602791
 21
244.93549305031101
 31
0.0
  0
LINE
  5
9A
  8
1
 62
     7
 10
24.739391924602749
 20
239.93549305031101
 30
0.0
 11
24.739391924602749
 21
244.93549305031101
 31
0.0
  0
LINE
  5
9B
  8
1
 62
     7
 10
24.539391924602821
 20
239.93549305031101
 30
0.0
 11
24.539391924602821
 21
244.93549305031101
 31
0.0
  0
LINE
  5
9C
  8
1
 62
     7
 10
24.339391924602769
 20
239.93549305031101
 30
0.0
 11
24.339391924602769
 21
244.93549305031101
 31
0.0
  0
LINE
  5
9D
  8
1
 62
     7
 10
24.13939192460283
 20
239.93549305031101
 30
0.0
 11
24.13939192460283
 21
244.93549305031101
 31
0.0
  0
LINE
  5
9E
  8
1
 62
     7
 10
49.939391924602781
 20
152.35693569220101
 30
0.0
 11
63.439391924602752
 21
152.35693569220101
 31
0.0
  0
LINE
  5
9F
  8
1
 62
     7
 10
49.939391924602781
 20
155.85693569220101
 30
0.0
 11
63.439391924602752
 21
155.85693569220101
 31
0.0
  0
LINE
  5
A0
  8
1
 62
     7
 10
49.939391924602781
 20
159.10693569220101
 30
0.0
 11
49.939391924602781
 21
148.01905159855329
 31
0.0
  0
LINE
  5
A1
  8
1
 62
     7
 10
48.139391924602727
 20
158.10693569220101
 30
0.0
 11
48.139391924602727
 21
141.10693569220101
 31
0.0
  0
LINE
  5
A2
  8
1
 62
     7
 10
46.539391924602747
 20
158.10693569220101
 30
0.0
 11
46.539391924602747
 21
141.10693569220101
 31
0.0
  0
LINE
  5
A3
  8
1
 62
     7
 10
44.389391924602727
 20
158.10693569220101
 30
0.0
 11
44.389391924602727
 21
131.10693569220089
 31
0.0
  0
LINE
  5
A4
  8
1
 62
     7
 10
40.539391924602747
 20
158.10693569220101
 30
0.0
 11
40.539391924602747
 21
131.10693569220089
 31
0.0
  0
LINE
  5
A5
  8
1
 62
     3
 10
49.939391924602781
 20
151.85693569220101
 30
0.0
 11
63.439391924602752
 21
151.85693569220101
 31
0.0
  0
LINE
  5
A6
  8
1
 62
     3
 10
49.939391924602781
 20
156.35693569220101
 30
0.0
 11
63.439391924602752
 21
156.35693569220101
 31
0.0
  0
LINE
  5
A7
  8
1
  6
DASHDOT
 62
     3
 10
48.72808848604101
 20
154.10693569220101
 30
0.0
 11
64.247875581593178
 21
154.10693569220101
 31
0.0
  0
LINE
  5
A8
  8
1
 62
     7
 10
40.539391924602747
 20
217.10693569220101
 30
0.0
 11
45.439391924602774
 21
217.10693569220101
 31
0.0
  0
LINE
  5
A9
  8
1
 62
     7
 10
40.539391924602747
 20
217.10693569220101
 30
0.0
 11
40.539391924602747
 21
190.10693569220101
 31
0.0
  0
LINE
  5
AA
  8
1
 62
     7
 10
44.139391924602741
 20
217.10693569220101
 30
0.0
 11
44.139391924602741
 21
190.10693569220101
 31
0.0
  0
LINE
  5
AB
  8
1
 62
     7
 10
45.439391924602774
 20
217.10693569220101
 30
0.0
 11
45.439391924602774
 21
190.10693569220101
 31
0.0
  0
LINE
  5
AC
  8
1
 62
     7
 10
44.389391924602727
 20
217.10693569220101
 30
0.0
 11
44.389391924602727
 21
190.10693569220101
 31
0.0
  0
LINE
  5
AD
  8
1
 62
     7
 10
46.039391924602747
 20
214.1070515985532
 30
0.0
 11
46.539391924602747
 21
214.1070515985532
 31
0.0
  0
LINE
  5
AE
  8
1
 62
     7
 10
46.039391924602747
 20
214.1070515985532
 30
0.0
 11
46.039391924602747
 21
190.10693569220101
 31
0.0
  0
LINE
  5
AF
  8
1
 62
     7
 10
48.139391924602727
 20
209.10693569220101
 30
0.0
 11
48.239391924602778
 21
209.10693569220101
 31
0.0
  0
LINE
  5
B0
  8
1
 62
     7
 10
48.139391924602727
 20
199.10693569220101
 30
0.0
 11
48.239391924602778
 21
199.10693569220101
 31
0.0
  0
LINE
  5
B1
  8
1
 62
     7
 10
48.239391924602778
 20
197.706935692201
 30
0.0
 11
49.939391924602781
 21
197.706935692201
 31
0.0
  0
LINE
  5
B2
  8
1
 62
     7
 10
48.239391924602778
 20
210.50693569220101
 30
0.0
 11
49.939391924602781
 21
210.50693569220101
 31
0.0
  0
LINE
  5
B3
  8
1
 62
     7
 10
50.039391924602782
 20
217.10693569220101
 30
0.0
 11
63.439391924602752
 21
217.10693569220101
 31
0.0
  0
LINE
  5
B4
  8
1
 62
     7
 10
49.939391924602781
 20
217.0069356922009
 30
0.0
 11
49.939391924602781
 21
189.10693569220101
 31
0.0
  0
LINE
  5
B5
  8
1
 62
     7
 10
63.439391924602752
 20
217.10693569220101
 30
0.0
 11
63.439391924602752
 21
148.01905159855329
 31
0.0
  0
LINE
  5
B6
  8
1
 62
     7
 10
45.439391924602774
 20
131.10693569220089
 30
0.0
 11
40.539391924602747
 21
131.10693569220089
 31
0.0
  0
LINE
  5
B7
  8
1
 62
     7
 10
46.539391924602747
 20
143.95322534975961
 30
0.0
 11
45.939391924602774
 21
142.2738024863535
 31
0.0
  0
LINE
  5
B8
  8
1
 62
     7
 10
46.039391924602747
 20
144.01905159855329
 30
0.0
 11
45.439391924602774
 21
142.3396287351471
 31
0.0
  0
LINE
  5
B9
  8
1
 62
     7
 10
45.939391924602774
 20
142.2738024863535
 30
0.0
 11
45.939391924602774
 21
132.10693569220089
 31
0.0
  0
LINE
  5
BA
  8
1
 62
     7
 10
45.939391924602774
 20
132.10693569220089
 30
0.0
 11
45.439391924602774
 21
132.10693569220089
 31
0.0
  0
LINE
  5
BB
  8
1
 62
     7
 10
45.439391924602774
 20
158.10693569220101
 30
0.0
 11
45.439391924602774
 21
131.10693569220089
 31
0.0
  0
LINE
  5
BC
  8
1
 62
     7
 10
46.539391924602747
 20
141.10693569220101
 30
0.0
 11
48.139391924602727
 21
141.10693569220101
 31
0.0
  0
LINE
  5
BD
  8
1
 62
     7
 10
46.039391924602747
 20
144.01905159855329
 30
0.0
 11
46.039391924602747
 21
158.10693569220101
 31
0.0
  0
LINE
  5
BE
  8
1
 62
     7
 10
44.139391924602741
 20
131.10693569220089
 30
0.0
 11
44.139391924602741
 21
158.10693569220101
 31
0.0
  0
LINE
  5
BF
  8
1
 62
     7
 10
49.939391924602781
 20
148.01905159855329
 30
0.0
 11
51.939391924602774
 21
148.01905159855329
 31
0.0
  0
LINE
  5
C0
  8
1
 62
     7
 10
53.439391924602774
 20
146.51905159855329
 30
0.0
 11
53.439391924602774
 21
145.9482738943824
 31
0.0
  0
LINE
  5
C1
  8
1
 62
     7
 10
63.439391924602752
 20
148.01905159855329
 30
0.0
 11
61.439391924602759
 21
148.01905159855329
 31
0.0
  0
LINE
  5
C2
  8
1
 62
     7
 10
59.939391924602759
 20
145.9482738943824
 30
0.0
 11
59.939391924602759
 21
146.51905159855329
 31
0.0
  0
LINE
  5
C3
  8
1
 62
     7
 10
54.939391924602781
 20
144.44827389438231
 30
0.0
 11
58.439391924602752
 21
144.44827389438231
 31
0.0
  0
LINE
  5
C4
  8
1
 62
     7
 10
46.539391924602747
 20
212.10693569220101
 30
0.0
 11
48.139391924602727
 21
212.10693569220101
 31
0.0
  0
LINE
  5
C5
  8
1
 62
     7
 10
48.139391924602727
 20
212.10693569220101
 30
0.0
 11
48.139391924602727
 21
190.10693569220101
 31
0.0
  0
LINE
  5
C6
  8
1
 62
     7
 10
46.539391924602747
 20
190.10693569220101
 30
0.0
 11
46.539391924602747
 21
214.1070515985532
 31
0.0
  0
LINE
  5
C7
  8
1
 62
     7
 10
49.939391924602781
 20
217.0069356922009
 30
0.0
 11
50.039391924602782
 21
217.10693569220101
 31
0.0
  0
LINE
  5
C8
  8
1
 62
     7
 10
15.039391924602819
 20
127.85693569220101
 30
0.0
 11
12.9393919246028
 21
127.85693569220101
 31
0.0
  0
LINE
  5
C9
  8
1
 62
     7
 10
15.039391924602819
 20
122.35693569220101
 30
0.0
 11
12.9393919246028
 21
122.35693569220101
 31
0.0
  0
LINE
  5
CA
  8
1
 62
     7
 10
15.039391924602819
 20
119.10693569220101
 30
0.0
 11
12.9393919246028
 21
119.10693569220101
 31
0.0
  0
LINE
  5
CB
  8
1
 62
     7
 10
12.9393919246028
 20
215.10693569220101
 30
0.0
 11
12.9393919246028
 21
119.10693569220101
 31
0.0
  0
LINE
  5
CC
  8
1
  6
DASHDOT
 62
     3
 10
68.439391924602745
 20
174.10693569220101
 30
0.0
 11
63.439391924602752
 21
174.10693569220101
 31
0.0
  0
LINE
  5
CD
  8
1
 62
     7
 10
37.439391924602774
 20
189.10693569220101
 30
0.0
 11
49.939391924602781
 21
189.10693569220101
 31
0.0
  0
LINE
  5
CE
  8
1
 62
     7
 10
37.439391924602774
 20
159.10693569220101
 30
0.0
 11
49.939391924602781
 21
159.10693569220101
 31
0.0
  0
LINE
  5
CF
  8
1
 62
     7
 10
37.439391924602774
 20
189.10693569220101
 30
0.0
 11
37.439391924602774
 21
159.10693569220101
 31
0.0
  0
LINE
  5
D0
  8
1
 62
     7
 10
37.439391924602774
 20
183.90693569220099
 30
0.0
 11
63.439391924602752
 21
183.90693569220099
 31
0.0
  0
LINE
  5
D1
  8
1
 62
     7
 10
37.439391924602774
 20
166.60693569220101
 30
0.0
 11
63.439391924602752
 21
166.60693569220101
 31
0.0
  0
LINE
  5
D2
  8
1
 62
     7
 10
40.139391924602812
 20
216.60693569220089
 30
0.0
 11
40.139391924602812
 21
190.10693569220101
 31
0.0
  0
LINE
  5
D3
  8
1
 62
     7
 10
40.139391924602812
 20
216.60693569220089
 30
0.0
 11
20.039391924602839
 21
216.60693569220089
 31
0.0
  0
LINE
  5
D4
  8
1
 62
     7
 10
40.139391924602812
 20
197.10693569220101
 30
0.0
 11
20.039391924602839
 21
197.10693569220101
 31
0.0
  0
LINE
  5
D5
  8
1
 62
     7
 10
40.139391924602812
 20
131.60693569220101
 30
0.0
 11
20.039391924602839
 21
131.60693569220101
 31
0.0
  0
LINE
  5
D6
  8
1
 62
     7
 10
40.139391924602812
 20
151.10693569220101
 30
0.0
 11
20.039391924602839
 21
151.10693569220101
 31
0.0
  0
LINE
  5
D7
  8
1
 62
     7
 10
40.139391924602812
 20
131.60693569220101
 30
0.0
 11
40.139391924602812
 21
158.10693569220101
 31
0.0
  0
LINE
  5
D8
  8
1
 62
     7
 10
15.039391924602819
 20
215.10693569220101
 30
0.0
 11
12.9393919246028
 21
215.10693569220101
 31
0.0
  0
LINE
  5
D9
  8
1
 62
     7
 10
12.9393919246028
 20
196.60693569220101
 30
0.0
 11
15.039391924602819
 21
196.60693569220101
 31
0.0
  0
LINE
  5
DA
  8
1
 62
     7
 10
12.9393919246028
 20
151.60693569220101
 30
0.0
 11
15.039391924602819
 21
151.60693569220101
 31
0.0
  0
LINE
  5
DB
  8
1
 62
     7
 10
158.0215427293208
 20
239.93549305031081
 30
0.0
 11
158.0215427293208
 21
217.10693569220101
 31
0.0
  0
LINE
  5
DC
  8
1
 62
     7
 10
46.439391924602774
 20
140.10693569220101
 30
0.0
 11
46.439391924602774
 21
133.10693569220101
 31
0.0
  0
LINE
  5
DD
  8
1
 62
     7
 10
45.939391924602774
 20
140.10693569220101
 30
0.0
 11
46.439391924602774
 21
140.10693569220101
 31
0.0
  0
LINE
  5
DE
  8
1
 62
     7
 10
45.939391924602774
 20
133.10693569220101
 30
0.0
 11
46.439391924602774
 21
133.10693569220101
 31
0.0
  0
LINE
  5
DF
  8
1
 62
     7
 10
47.739391924602778
 20
133.25693569220101
 30
0.0
 11
47.739391924602778
 21
139.956935692201
 31
0.0
  0
LINE
  5
E0
  8
1
 62
     7
 10
48.239391924602778
 20
197.706935692201
 30
0.0
 11
48.239391924602778
 21
210.50693569220101
 31
0.0
  0
LINE
  5
E1
  8
1
 62
     7
 10
44.639391924602741
 20
158.10693569220101
 30
0.0
 11
44.639391924602741
 21
131.10693569220089
 31
0.0
  0
LINE
  5
E2
  8
1
 62
     7
 10
44.639391924602741
 20
217.10693569220101
 30
0.0
 11
44.639391924602741
 21
190.10693569220101
 31
0.0
  0
LINE
  5
E3
  8
1
 62
     7
 10
63.439391924602752
 20
181.60693569220101
 30
0.0
 11
37.439391924602774
 21
181.60693569220101
 31
0.0
  0
LINE
  5
E4
  8
1
 62
     7
 10
-61.560608075397248
 20
140.10693569220101
 30
0.0
 11
-61.560608075397248
 21
133.10693569220101
 31
0.0
  0
LINE
  5
E5
  8
1
 62
     7
 10
-58.060608075397219
 20
189.10693569220101
 30
0.0
 11
-59.860608075397273
 21
189.10693569220101
 31
0.0
  0
LINE
  5
E6
  8
1
 62
     7
 10
-58.060608075397219
 20
159.10693569220101
 30
0.0
 11
-59.860608075397273
 21
159.10693569220101
 31
0.0
  0
ARC
  5
E7
  8
1
 62
     7
 10
147.02154272932069
 20
155.0543768089434
 30
0.0
 40
20.000000000000028
 50
211.72958762134391
 51
239.99999999999949
  0
ARC
  5
E8
  8
1
 62
     7
 10
147.02154272932091
 20
193.15949457545861
 30
0.0
 40
19.999999999999961
 50
91.729587621344336
 51
119.9999999999997
  0
ARC
  5
E9
  8
1
 62
     7
 10
169.02154272932069
 20
155.0543768089434
 30
0.0
 40
19.999999999999929
 50
300.00000000000011
 51
328.27041237865672
  0
ARC
  5
EA
  8
1
 62
     7
 10
136.02154272932091
 20
174.10693569220101
 30
0.0
 40
20.00000000000011
 50
180.0
 51
208.27041237865649
  0
ARC
  5
EB
  8
1
 62
     7
 10
158.0215427293208
 20
174.10693569220101
 30
0.0
 40
41.999999999999957
 50
239.9999999999998
 51
300.00000000000011
  0
ARC
  5
EC
  8
1
 62
     7
 10
158.0215427293208
 20
174.10693569220101
 30
0.0
 40
41.999999999999943
 50
119.9999999999997
 51
180.0
  0
ARC
  5
ED
  8
1
 62
     7
 10
169.02154272932069
 20
193.15949457545861
 30
0.0
 40
20.000000000000011
 50
60.000000000000028
 51
88.270412378656602
  0
ARC
  5
EE
  8
1
 62
     7
 10
-87.96060807539719
 20
136.60693569220101
 30
0.0
 40
5.0
 50
180.0
 51
270.0
  0
ARC
  5
EF
  8
1
 62
     7
 10
-87.96060807539719
 20
211.60693569220101
 30
0.0
 40
5.0
 50
90.0
 51
180.0
  0
ARC
  5
F0
  8
1
 62
     7
 10
-60.910608075397207
 20
133.25693569220101
 30
0.0
 40
0.6500000000000413
 50
180.0
 51
0.0
  0
ARC
  5
F1
  8
1
 62
     7
 10
-60.910608075397207
 20
139.956935692201
 30
0.0
 40
0.6499999999999631
 50
0.0
 51
180.0
  0
ARC
  5
F2
  8
1
  6
DASHDOT
 62
     3
 10
158.0215427293208
 20
174.10693569220101
 30
0.0
 40
19.999999999999929
 50
260.88981648199302
 51
279.9447137458705
  0
ARC
  5
F3
  8
1
  6
DASHDOT
 62
     3
 10
158.0215427293208
 20
174.10693569220101
 30
0.0
 40
19.999999999999979
 50
140.9429297504816
 51
158.7893650912338
  0
ARC
  5
F4
  8
1
  6
DASHDOT
 62
     3
 10
158.0215427293208
 20
174.10693569220101
 30
0.0
 40
20.000000000000039
 50
21.113217327124509
 51
39.06715581162549
  0
ARC
  5
F5
  8
1
 62
     7
 10
158.0215427293208
 20
204.10693569220089
 30
0.0
 40
13.00000000000006
 50
356.90452225930801
 51
183.09547774069179
  0
ARC
  5
F6
  8
1
 62
     7
 10
133.05801934018351
 20
202.75693569220101
 30
0.0
 40
12.00000000000006
 50
311.0665220393243
 51
3.0954777406918832
  0
ARC
  5
F7
  8
1
 62
     7
 10
182.98506611845789
 20
202.75693569220101
 30
0.0
 40
11.999999999999959
 50
176.9045222593081
 51
228.93347796067599
  0
ARC
  5
F8
  8
1
 62
     7
 10
158.0215427293208
 20
174.10693569220101
 30
0.0
 40
25.999999999999961
 50
11.06652203932388
 51
48.933477960676079
  0
ARC
  5
F9
  8
1
 62
     7
 10
132.0407806157877
 20
159.10693569220101
 30
0.0
 40
13.0
 50
116.9045222593081
 51
303.09547774069159
  0
ARC
  5
FA
  8
1
 62
     7
 10
184.0023048428539
 20
159.10693569220101
 30
0.0
 40
12.99999999999997
 50
236.90452225930829
 51
63.0954777406915
  0
ARC
  5
FB
  8
1
 62
     7
 10
145.69167660546529
 20
138.16289026924119
 30
0.0
 40
11.999999999999959
 50
71.066522039323999
 51
123.0954777406921
  0
ARC
  5
FC
  8
1
 62
     7
 10
195.31493224231349
 20
181.40098111516079
 30
0.0
 40
12.00000000000006
 50
191.0665220393237
 51
243.0954777406919
  0
ARC
  5
FD
  8
1
 62
     7
 10
120.7281532163279
 20
181.40098111516079
 30
0.0
 40
12.00000000000011
 50
296.90452225930829
 51
348.93347796067582
  0
ARC
  5
FE
  8
1
 62
     7
 10
170.35140885317631
 20
138.16289026924119
 30
0.0
 40
11.99999999999998
 50
56.904522259308223
 51
108.9334779606764
  0
ARC
  5
FF
  8
1
 62
     7
 10
158.0215427293208
 20
174.10693569220101
 30
0.0
 40
25.99999999999994
 50
131.06652203932359
 51
168.9334779606761
  0
ARC
  5
100
  8
1
 62
     7
 10
158.0215427293208
 20
174.10693569220101
 30
0.0
 40
26.000000000000011
 50
251.0665220393239
 51
288.93347796067587
  0
ARC
  5
101
  8
1
 62
     7
 10
151.23638993906101
 20
211.49626173069541
 30
0.0
 40
4.9999999999999076
 50
100.2857001690159
 51
149.99999999999949
  0
ARC
  5
102
  8
1
 62
     7
 10
122.24886015447581
 20
161.28838735787741
 30
0.0
 40
5.000000000000016
 50
150.0
 51
199.71429983098281
  0
ARC
  5
103
  8
1
 62
     7
 10
129.03401294473551
 20
149.53615798803
 30
0.0
 40
4.9999999999999547
 50
220.2857001690175
 51
270.0
  0
ARC
  5
104
  8
1
 62
     7
 10
193.79422530416559
 20
161.28838735787741
 30
0.0
 40
5.0000000000000311
 50
340.2857001690171
 51
29.99999999999941
  0
ARC
  5
105
  8
1
 62
     7
 10
187.00907251390609
 20
149.53615798803011
 30
0.0
 40
5.0
 50
270.0
 51
319.71429983098238
  0
ARC
  5
106
  8
1
 62
     7
 10
164.80669551958039
 20
211.49626173069541
 30
0.0
 40
4.9999999999999414
 50
30.00000000000038
 51
79.714299830983634
  0
ARC
  5
107
  8
1
 62
     7
 10
158.0215427293208
 20
174.10693569220101
 30
0.0
 40
55.00000000000005
 50
41.801844193141129
 51
48.198155806858942
  0
ARC
  5
108
  8
1
 62
     7
 10
158.0215427293208
 20
174.10693569220101
 30
0.0
 40
55.0
 50
131.80184419314111
 51
138.19815580685889
  0
ARC
  5
109
  8
1
 62
     7
 10
158.0215427293208
 20
174.10693569220101
 30
0.0
 40
55.0
 50
221.80184419314111
 51
228.19815580685901
  0
ARC
  5
10A
  8
1
 62
     7
 10
158.0215427293208
 20
174.10693569220101
 30
0.0
 40
55.0
 50
311.80184419314111
 51
318.19815580685889
  0
ARC
  5
10B
  8
1
  6
DASHDOT
 62
     3
 10
158.0215427293208
 20
174.10693569220101
 30
0.0
 40
48.999999999999957
 50
39.676677184478933
 51
50.416776478122863
  0
ARC
  5
10C
  8
1
  6
DASHDOT
 62
     3
 10
158.0215427293208
 20
174.10693569220101
 30
0.0
 40
49.000000000000057
 50
129.67667718447871
 51
140.4167764781227
  0
ARC
  5
10D
  8
1
  6
DASHDOT
 62
     3
 10
158.0215427293208
 20
174.10693569220101
 30
0.0
 40
48.999999999999993
 50
219.67667718447871
 51
230.4167764781229
  0
ARC
  5
10E
  8
1
  6
DASHDOT
 62
     3
 10
158.0215427293208
 20
174.10693569220101
 30
0.0
 40
48.999999999999943
 50
309.67667718447882
 51
320.41677647812259
  0
ARC
  5
10F
  8
1
 62
     7
 10
158.0215427293208
 20
174.10693569220101
 30
0.0
 40
7.5000000000000266
 50
109.47122063449051
 51
70.528779365509379
  0
ARC
  5
110
  8
1
 62
     7
 10
158.0215427293208
 20
174.10693569220101
 30
0.0
 40
38.000000000000028
 50
231.09408908639941
 51
240.27567085289289
  0
ARC
  5
111
  8
1
 62
     7
 10
158.0215427293208
 20
174.10693569220101
 30
0.0
 40
38.0
 50
299.72432914710708
 51
308.90591091360062
  0
ARC
  5
112
  8
1
 62
     7
 10
158.0215427293208
 20
174.10693569220101
 30
0.0
 40
37.999999999999957
 50
351.09408908639932
 51
0.2756708528929281
  0
ARC
  5
113
  8
1
 62
     7
 10
158.0215427293208
 20
174.10693569220101
 30
0.0
 40
38.000000000000028
 50
111.09408908639929
 51
120.2756708528929
  0
ARC
  5
114
  8
1
 62
     7
 10
158.0215427293208
 20
174.10693569220101
 30
0.0
 40
37.999999999999957
 50
59.724329147107042
 51
68.905910913600707
  0
ARC
  5
115
  8
1
 62
     7
 10
158.0215427293208
 20
174.10693569220101
 30
0.0
 40
38.000000000000028
 50
179.72432914710711
 51
188.90591091360059
  0
ARC
  5
116
  8
1
 62
     7
 10
20.039391924602821
 20
146.10693569220101
 30
0.0
 40
5.0
 50
90.0
 51
180.0
  0
ARC
  5
117
  8
1
 62
     7
 10
20.039391924602821
 20
136.60693569220101
 30
0.0
 40
5.000000000000008
 50
180.0
 51
270.0
  0
ARC
  5
118
  8
1
 62
     7
 10
20.039391924602821
 20
202.10693569220089
 30
0.0
 40
5.000000000000008
 50
180.0
 51
270.0
  0
ARC
  5
119
  8
1
 62
     7
 10
20.039391924602821
 20
211.60693569220101
 30
0.0
 40
5.0
 50
90.0
 51
180.0
  0
ARC
  5
11A
  8
1
 62
     7
 10
47.089391924602772
 20
133.25693569220101
 30
0.0
 40
0.6499999999999986
 50
180.0
 51
0.0
  0
ARC
  5
11B
  8
1
 62
     7
 10
47.089391924602772
 20
139.956935692201
 30
0.0
 40
0.6499999999999986
 50
0.0
 51
180.0
  0
ARC
  5
11C
  8
1
 62
     7
 10
180.0215427293208
 20
174.10693569220101
 30
0.0
 40
19.999999999999989
 50
331.72958762134408
 51
0.0
  0
ARC
  5
11D
  8
1
 62
     7
 10
158.0215427293208
 20
174.10693569220101
 30
0.0
 40
42.0
 50
0.0
 51
60.00000000000005
  0
CIRCLE
  5
11E
  8
1
 62
     3
 10
175.34205080500951
 20
184.10693569220101
 30
0.0
 40
2.0000000000000151
  0
CIRCLE
  5
11F
  8
1
 62
     7
 10
175.34205080500951
 20
184.10693569220101
 30
0.0
 40
1.6000000000001151
  0
CIRCLE
  5
120
  8
1
 62
     7
 10
158.0215427293208
 20
204.10693569220089
 30
0.0
 40
8.0
  0
CIRCLE
  5
121
  8
1
 62
     7
 10
158.0215427293208
 20
204.10693569220089
 30
0.0
 40
5.0
  0
CIRCLE
  5
122
  8
1
 62
     7
 10
158.0215427293208
 20
204.10693569220089
 30
0.0
 40
2.0
  0
CIRCLE
  5
123
  8
1
 62
     7
 10
158.0215427293208
 20
204.10693569220089
 30
0.0
 40
1.5999999999999941
  0
CIRCLE
  5
124
  8
1
 62
     7
 10
132.0407806157877
 20
159.10693569220101
 30
0.0
 40
8.0000000000000675
  0
CIRCLE
  5
125
  8
1
 62
     7
 10
184.0023048428539
 20
159.10693569220101
 30
0.0
 40
7.999999999999992
  0
CIRCLE
  5
126
  8
1
 62
     7
 10
132.0407806157877
 20
159.10693569220101
 30
0.0
 40
5.0000000000000897
  0
CIRCLE
  5
127
  8
1
 62
     7
 10
184.0023048428539
 20
159.10693569220101
 30
0.0
 40
5.000000000000016
  0
CIRCLE
  5
128
  8
1
 62
     7
 10
132.0407806157877
 20
159.10693569220101
 30
0.0
 40
2.0000000000000151
  0
CIRCLE
  5
129
  8
1
 62
     7
 10
184.0023048428539
 20
159.10693569220101
 30
0.0
 40
2.0000000000000151
  0
CIRCLE
  5
12A
  8
1
 62
     7
 10
132.0407806157877
 20
159.10693569220101
 30
0.0
 40
1.5999999999999841
  0
CIRCLE
  5
12B
  8
1
 62
     7
 10
184.0023048428539
 20
159.10693569220101
 30
0.0
 40
1.599999999999941
  0
CIRCLE
  5
12C
  8
1
 62
     3
 10
140.70103465363189
 20
184.10693569220101
 30
0.0
 40
2.0000000000000151
  0
CIRCLE
  5
12D
  8
1
 62
     7
 10
140.70103465363189
 20
184.10693569220101
 30
0.0
 40
1.5999999999999679
  0
CIRCLE
  5
12E
  8
1
 62
     3
 10
158.0215427293208
 20
154.10693569220101
 30
0.0
 40
2.0
  0
CIRCLE
  5
12F
  8
1
 62
     7
 10
158.0215427293208
 20
154.10693569220101
 30
0.0
 40
1.5999999999999941
  0
CIRCLE
  5
130
  8
1
 62
     7
 10
158.0215427293208
 20
204.10693569220089
 30
0.0
 40
9.5
  0
CIRCLE
  5
131
  8
1
 62
     7
 10
132.0407806157877
 20
159.10693569220101
 30
0.0
 40
9.5
  0
CIRCLE
  5
132
  8
1
 62
     7
 10
184.0023048428539
 20
159.10693569220101
 30
0.0
 40
9.5
  0
CIRCLE
  5
133
  8
1
 62
     7
 10
125.54559008740441
 20
192.85693569220101
 30
0.0
 40
3.9999999999999578
  0
CIRCLE
  5
134
  8
1
 62
     7
 10
190.49749537123731
 20
192.85693569220101
 30
0.0
 40
4.0000000000000329
  0
CIRCLE
  5
135
  8
1
 62
     7
 10
158.0215427293208
 20
136.60693569220101
 30
0.0
 40
4.0
  0
CIRCLE
  5
136
  8
1
 62
     7
 10
158.0215427293208
 20
174.10693569220101
 30
0.0
 40
43.0
  0
CIRCLE
  5
137
  8
1
 62
     7
 10
192.66977500746151
 20
208.75516797034189
 30
0.0
 40
2.75
  0
CIRCLE
  5
138
  8
1
 62
     7
 10
123.37331045118
 20
208.75516797034189
 30
0.0
 40
2.75
  0
CIRCLE
  5
139
  8
1
 62
     7
 10
123.37331045118
 20
139.45870341406021
 30
0.0
 40
2.75
  0
CIRCLE
  5
13A
  8
1
 62
     7
 10
192.66977500746151
 20
139.45870341406021
 30
0.0
 40
2.75
  0
ARC
  5
13B
  8
1
 62
     7
 10
-56.060608075397226
 20
146.60693569220101
 30
0.0
 40
1.5
 50
0.0
 51
90.0
  0
ARC
  5
13C
  8
1
 62
     7
 10
-46.560608075397226
 20
146.60693569220101
 30
0.0
 40
1.5
 50
90.0
 51
180.0
  0
ARC
  5
13D
  8
1
 62
     7
 10
-49.560608075397226
 20
146.03615798803011
 30
0.0
 40
1.5
 50
270.0
 51
0.0
  0
ARC
  5
13E
  8
1
 62
     7
 10
-53.060608075397219
 20
146.03615798803011
 30
0.0
 40
1.5
 50
180.0
 51
270.0
  0
ARC
  5
13F
  8
1
 62
     7
 10
51.939391924602774
 20
146.51905159855329
 30
0.0
 40
1.5
 50
0.0
 51
90.0
  0
ARC
  5
140
  8
1
 62
     7
 10
61.439391924602759
 20
146.51905159855329
 30
0.0
 40
1.5
 50
90.0
 51
180.0
  0
ARC
  5
141
  8
1
 62
     7
 10
58.439391924602752
 20
145.9482738943824
 30
0.0
 40
1.5
 50
270.0
 51
0.0
  0
ARC
  5
142
  8
1
 62
     7
 10
54.939391924602781
 20
145.9482738943824
 30
0.0
 40
1.5
 50
180.0
 51
270.0
  0
TEXT
  5
143
  8
1
 62
     7
 10
-96.721707361487319
 20
262.61660086428282
 30
0.0
 40
3.5
  1
VBSHA 1.2
 41
0.9
  7
SIMPLEX
  0
ENDSEC
  0
EOF
