  0
SECTION
  2
HEADER
  9
$ACADVER
  1
AC1009
  9
$INSBASE
 10
0
 20
0
  9
$EXTMIN
 10
-134.3585921363459
 20
237.8697294027093
  9
$EXTMAX
 10
483.2928530607085
 20
489.541529990383
  9
$LIMMIN
 10
-134.3585921363459
 20
237.8697294027093
  9
$LIMMAX
 10
483.2928530607085
 20
489.541529990383
  9
$VIEWCTR
 10
10
 20
10
  9
$VIEWSIZE
 40
10
  9
$SNAPMODE
 70
0
  9
$SNAPUNIT
 10
1
 20
1
  9
$SNAPBASE
 10
0
 20
0
  9
$SNAPANG
 50
0
  9
$SNAPSTYLE
 70
0
  9
$SNAPISOPAIR
 70
0
  9
$GRIDMODE
 70
0
  9
$GRIDUNIT
 10
0
 20
0
  9
$ORTHOMODE
 70
0
  9
$REGENMODE
 70
1
  9
$FILLMODE
 70
1
  9
$QTEXTMODE
 70
0
  9
$DRAGMODE
 70
2
  9
$LTSCALE
 40
1
  9
$OSMODE
 70
0
  9
$ATTMODE
 70
1
  9
$TEXTSIZE
 40
3.5
  9
$TRACEWID
 40
0.5
  9
$TEXTSTYLE
  7
STANDARD
  9
$CLAYER
  8
0
  9
$CELTYPE
  6
BYLAYER
  9
$CECOLOR
 62
256
  9
$DIMSCALE
 40
1
  9
$DIMASZ
 40
0.18
  9
$DIMEXO
 40
0.0625
  9
$DIMDLI
 40
0.38
  9
$DIMRND
 40
0
  9
$DIMDLE
 40
0
  9
$DIMEXE
 40
0.18
  9
$DIMTP
 40
0
  9
$DIMTM
 40
0
  9
$DIMTXT
 40
0.18
  9
$DIMCEN
 40
0.09
  9
$DIMTSZ
 40
0
  9
$DIMTOL
 70
0
  9
$DIMLIM
 70
0
  9
$DIMTIH
 70
1
  9
$DIMTOH
 70
1
  9
$DIMSE1
 70
0
  9
$DIMSE2
 70
0
  9
$DIMTAD
 70
0
  9
$DIMZIN
 70
0
  9
$DIMBLK
  1

  9
$DIMASO
 70
1
  9
$DIMSHO
 70
1
  9
$DIMPOST
  1

  9
$DIMAPOST
  1

  9
$DIMALT
 70
0
  9
$DIMALTD
 70
2
  9
$DIMALTF
 40
25.4
  9
$DIMLFAC
 40
1
  9
$DIMTOFL
 70
0
  9
$DIMTVP
 40
0
  9
$DIMTIX
 70
0
  9
$DIMSOXD
 70
0
  9
$DIMSAH
 70
0
  9
$DIMBLK1
  1

  9
$DIMBLK2
  1

  9
$DIMSTYLE
  2
*UNNAMED
  9
$DIMCLRD
 70
0
  9
$DIMCLRE
 70
0
  9
$DIMCLRT
 70
0
  9
$DIMTFAC
 40
1
  9
$DIMGAP
 40
0.09
  9
$LUNITS
 70
2
  9
$LUPREC
 70
4
  9
$AXISMODE
 70
0
  9
$AXISUNIT
 10
0
 20
0
  9
$SKETCHINC
 40
0.1
  9
$FILLETRAD
 40
2
  9
$AUNITS
 70
0
  9
$AUPREC
 70
0
  9
$MENU
  1
ACAD
  9
$ELEVATION
 40
0
  9
$THICKNESS
 40
0
  9
$VIEWDIR
 10
0
 20
0
 30
1
  9
$LIMCHECK
 70
0
  9
$BLIPMODE
 70
1
  9
$CHAMFERA
 40
0
  9
$CHAMFERB
 40
0
  9
$FASTZOOM
 70
1
  9
$SKPOLY
 70
0
  9
$ANGBASE
 50
0
  9
$ANGDIR
 70
0
  9
$PDMODE
 70
0
  9
$PDSIZE
 40
0
  9
$PLINEWID
 40
0
  9
$COORDS
 70
2
  0
ENDSEC
  0
SECTION
  2
TABLES
  0
TABLE
  2
DIMSTYLE
 70
0
  0
ENDTAB
  0
TABLE
  2
LTYPE
 70
9
  0
LTYPE
  2
CONTINUOUS
 70
64
  3
Solid line
 72
65
 73
0
 40
0
  0
LTYPE
  2
BORDER
 70
64
  3
__ __ . __ __ .
 72
65
 73
6
 40
28.44447444986435
 49
8.126992699961242
 49
-4.063496349980621
 49
8.126992699961242
 49
-4.063496349980621
 49
0
 49
-4.063496349980621
  0
LTYPE
  2
CENTER
 70
64
  3
____ _ ____ _
 72
65
 73
4
 40
32.50797079984497
 49
20.31748174990311
 49
-4.063496349980621
 49
4.063496349980621
 49
-4.063496349980621
  0
LTYPE
  2
DASHDOT
 70
64
  3
__ . __ . __ .
 72
65
 73
4
 40
16.25398539992249
 49
8.126992699961242
 49
-4.063496349980621
 49
0
 49
-4.063496349980621
  0
LTYPE
  2
DASHED
 70
64
  3
__ __ __ __ __
 72
65
 73
2
 40
12.19048904994186
 49
8.126992699961242
 49
-4.063496349980621
  0
LTYPE
  2
DIVIDE
 70
64
  3
__ . . __ . . 
 72
65
 73
6
 40
20.31748174990311
 49
8.126992699961242
 49
-4.063496349980621
 49
0
 49
-4.063496349980621
 49
0
 49
-4.063496349980621
  0
LTYPE
  2
DOT
 70
64
  3
..............
 72
65
 73
4
 40
8.126992699961242
 49
0
 49
-4.063496349980621
 49
0
 49
-4.063496349980621
  0
LTYPE
  2
HIDDEN
 70
64
  3
_ _ _ _ _ _ _
 72
65
 73
2
 40
6.095244524970932
 49
4.063496349980621
 49
-2.031748174990311
  0
LTYPE
  2
PHANTOM
 70
64
  3
_____ _ _ _____ _ _ 
 72
65
 73
6
 40
40.63496349980621
 49
20.31748174990311
 49
-4.063496349980621
 49
4.063496349980621
 49
-4.063496349980621
 49
4.063496349980621
 49
-4.063496349980621
  0
ENDTAB
  0
TABLE
  2
LAYER
 70
3
  0
LAYER
  2
1
 70
0
 62
7
  6
CONTINUOUS
  0
LAYER
  2
0
 70
0
 62
7
  6
CONTINUOUS
  0
ENDTAB
  0
TABLE
  2
STYLE
 70
4
  0
STYLE
  2
STANDARD
 70
0
 40
0
 41
1
 50
0
 71
0
 42
3.5
  3
txt
  4

  0
STYLE
  2
SIMPLEX
 70
0
 40
0
 41
1
 50
0
 71
0
 42
3.5
  3
simplex
  4

  0
STYLE
  2
COMPLEX
 70
0
 40
0
 41
1
 50
0
 71
0
 42
3.5
  3
complex
  4

  0
STYLE
  2
ITALIC
 70
0
 40
0
 41
1
 50
0
 71
0
 42
3.5
  3
italic
  4

  0
ENDTAB
  0
TABLE
  2
VIEW
 70
0
  0
ENDTAB
  0
ENDSEC
  0
SECTION
  2
BLOCKS
  0
ENDSEC
  0
SECTION
  2
ENTITIES
  0
LINE
  8
1
 62
7
 10
216.8893027648503
 20
241.5197294027094
 30
0
 11
216.8893027648503
 21
242.5197294027094
 31
0
  0
LINE
  8
1
 62
7
 10
216.8893027648503
 20
412.2197294027094
 30
0
 11
216.8893027648503
 21
411.2197294027094
 31
0
  0
LINE
  8
1
 62
7
 10
-82.0684084865083
 20
459.3283548596335
 30
0
 11
-83.36250371202101
 21
464.1579839910788
 31
0
  0
LINE
  8
1
 62
7
 10
-79.76604694646591
 20
459.9452707749724
 30
0
 11
-81.06014217197861
 21
464.7748999064177
 31
0
  0
LINE
  8
1
 62
7
 10
-82.59285954081105
 20
459.1878286231635
 30
0
 11
-83.88695476632364
 21
464.0174577546088
 31
0
  0
LINE
  8
1
 62
7
 10
-81.60452779656788
 20
459.4526513158875
 30
0
 11
-82.89862302208047
 21
464.2822804473328
 31
0
  0
LINE
  8
1
 62
7
 10
-80.17693749932772
 20
459.8351729831555
 30
0
 11
-81.47103272484031
 21
464.6648021146008
 31
0
  0
LINE
  8
1
 62
7
 10
-79.29842039333374
 20
460.0705709322435
 30
0
 11
-80.59251561884634
 21
464.9002000636888
 31
0
  0
LINE
  8
1
 62
7
 10
-83.3467391031233
 20
458.9858272032516
 30
0
 11
-78.51710997167794
 21
460.2799224287642
 31
0
  0
LINE
  8
1
 62
7
 10
-69.63363012702
 20
407.8078077747052
 30
0
 11
-83.3467391031233
 21
458.9858272032516
 31
0
  0
LINE
  8
1
 62
7
 10
-80.93192453740056
 20
459.6328748160079
 30
0
 11
-67.22838607271916
 21
408.4905730223424
 31
0
  0
LINE
  8
1
 62
7
 10
-64.80399440693518
 20
409.1018784110806
 30
0
 11
-78.51710997167794
 21
460.2799224287642
 31
0
  0
LINE
  8
1
 62
3
  6
DASHDOT
 10
-45.35814693929154
 20
434.225626539787
 30
0
 11
-45.35814693929154
 21
420.225626539787
 31
0
  0
LINE
  8
1
 62
7
 10
-33.3581469392916
 20
399.6725452823168
 30
0
 11
-33.35814693929154
 21
435.0729610391122
 31
0
  0
LINE
  8
1
 62
7
 10
-57.3581469392916
 20
399.6725452823168
 30
0
 11
-57.35814693929154
 21
434.9109425664016
 31
0
  0
LINE
  8
1
 62
7
 10
-35.16156116822941
 20
436.8697294027094
 30
0
 11
-55.48836998859116
 21
436.8697294027094
 31
0
  0
LINE
  8
1
 62
3
  6
DASHDOT
 10
-52.30487254693281
 20
426.8697294027094
 30
0
 11
-38.90248932899141
 21
426.8697294027094
 31
0
  0
LINE
  8
1
 62
3
  6
DASHDOT
 10
-39.35814693929154
 20
326.8697294027094
 30
0
 11
-51.35814693929154
 21
326.8697294027094
 31
0
  0
LINE
  8
1
 62
7
 10
-41.35814693929154
 20
345.1697294027094
 30
0
 11
-41.35814693929154
 21
341.3265616975103
 31
0
  0
LINE
  8
1
 62
7
 10
-49.35814693929154
 20
345.1697294027094
 30
0
 11
-41.35814693929154
 21
345.1697294027094
 31
0
  0
LINE
  8
1
 62
7
 10
-49.35814693929154
 20
341.3265616975104
 30
0
 11
-49.35814693929154
 21
345.1697294027094
 31
0
  0
LINE
  8
1
 62
3
  6
DASHDOT
 10
-45.35814693929154
 20
326.8697294027094
 30
0
 11
-45.35814693929154
 21
320.8697294027094
 31
0
  0
LINE
  8
1
 62
3
  6
DASHDOT
 10
-45.35814693929154
 20
326.8697294027094
 30
0
 11
-45.35814693929154
 21
332.8697294027094
 31
0
  0
LINE
  8
1
 62
3
  6
DASHDOT
 10
139.180242736745
 20
266.8697294027094
 30
0
 11
166.2073351516073
 21
266.8697294027094
 31
0
  0
LINE
  8
1
 62
7
 10
142.0893027648504
 20
266.8697294027094
 30
0
 11
143.0893027648504
 21
266.8697294027094
 31
0
  0
LINE
  8
1
 62
7
 10
142.0893027648504
 20
259.8697294027093
 30
0
 11
142.2893027648504
 21
259.8697294027093
 31
0
  0
LINE
  8
1
 62
7
 10
144.2893027648503
 20
270.8697294027094
 30
0
 11
144.2893027648503
 21
262.8697294027094
 31
0
  0
LINE
  8
1
 62
7
 10
148.2893027648503
 20
270.8697294027094
 30
0
 11
148.2893027648503
 21
262.8697294027094
 31
0
  0
LINE
  8
1
 62
7
 10
142.0893027648504
 20
386.8697294027094
 30
0
 11
142.0893027648504
 21
274.3697294027094
 31
0
  0
LINE
  8
1
 62
7
 10
132.8893027648503
 20
242.3697294027093
 30
0
 11
132.8893027648503
 21
411.3697294027094
 31
0
  0
LINE
  8
1
 62
7
 10
130.2912265534969
 20
415.8697294027094
 30
0
 11
130.2912265534969
 21
237.8697294027093
 31
0
  0
LINE
  8
1
 62
7
 10
116.8893027648503
 20
237.8697294027093
 30
0
 11
116.8893027648503
 21
415.8697294027094
 31
0
  0
LINE
  8
1
 62
7
 10
116.8893027648503
 20
242.5197294027094
 30
0
 11
114.1893027648503
 21
242.5197294027094
 31
0
  0
LINE
  8
1
 62
7
 10
97.78930276485019
 20
356.8697294027094
 30
0
 11
97.68930276485031
 21
356.8697294027094
 31
0
  0
LINE
  8
1
 62
7
 10
97.78930276485019
 20
296.8697294027094
 30
0
 11
97.68930276485031
 21
296.8697294027094
 31
0
  0
LINE
  8
1
 62
7
 10
112.1546481999648
 20
459.8351729831555
 30
0
 11
112.1546481999648
 21
464.8351729831555
 31
0
  0
LINE
  8
1
 62
3
  6
DASHDOT
 10
97.68930276485031
 20
326.8697294027094
 30
0
 11
91.70452960861482
 21
326.8697294027094
 31
0
  0
LINE
  8
1
 62
7
 10
100.6893027648503
 20
285.8697294027093
 30
0
 11
100.6893027648503
 21
276.8697294027094
 31
0
  0
LINE
  8
1
 62
7
 10
100.6893027648503
 20
285.8697294027093
 30
0
 11
100.6893027648503
 21
376.8697294027094
 31
0
  0
LINE
  8
1
 62
7
 10
135.6893027648503
 20
411.8697294027094
 30
0
 11
135.6893027648503
 21
326.8697294027094
 31
0
  0
LINE
  8
1
 62
7
 10
135.6893027648503
 20
411.8697294027094
 30
0
 11
142.0893027648504
 21
411.8697294027094
 31
0
  0
LINE
  8
1
 62
7
 10
142.0893027648504
 20
411.8697294027094
 30
0
 11
142.0893027648504
 21
406.3697294027094
 31
0
  0
LINE
  8
1
 62
7
 10
142.0893027648504
 20
386.8697294027094
 30
0
 11
143.0893027648504
 21
386.8697294027094
 31
0
  0
LINE
  8
1
 62
7
 10
143.0893027648504
 20
386.8697294027094
 30
0
 11
143.0893027648503
 21
326.8697294027094
 31
0
  0
LINE
  8
1
 62
7
 10
142.0893027648504
 20
410.8697294027094
 30
0
 11
143.2893027648503
 21
410.8697294027094
 31
0
  0
LINE
  8
1
 62
7
 10
143.2893027648503
 20
410.8697294027094
 30
0
 11
143.2893027648503
 21
390.7597632073832
 31
0
  0
LINE
  8
1
 62
7
 10
143.2893027648503
 20
390.7597632073832
 30
0
 11
144.2893027648503
 21
387.0277123998143
 31
0
  0
LINE
  8
1
 62
7
 10
144.2893027648503
 20
387.0277123998143
 30
0
 11
144.2893027648503
 21
326.8697294027094
 31
0
  0
LINE
  8
1
 62
7
 10
142.0893027648504
 20
390.6017802102782
 30
0
 11
143.0893027648504
 21
386.8697294027094
 31
0
  0
LINE
  8
1
 62
7
 10
142.0893027648504
 20
406.3697294027094
 30
0
 11
142.0893027648504
 21
386.8697294027094
 31
0
  0
LINE
  8
1
 62
7
 10
143.2893027648503
 20
409.3697294027094
 30
0
 11
146.5893027648504
 21
409.3697294027094
 31
0
  0
LINE
  8
1
 62
7
 10
147.0893027648504
 20
395.8697294027094
 30
0
 11
147.0893027648504
 21
408.8697294027094
 31
0
  0
LINE
  8
1
 62
7
 10
143.2893027648503
 20
395.3697294027094
 30
0
 11
146.5893027648504
 21
395.3697294027094
 31
0
  0
LINE
  8
1
 62
7
 10
144.2893027648503
 20
409.3697294027094
 30
0
 11
144.2893027648503
 21
395.3697294027094
 31
0
  0
LINE
  8
1
 62
7
 10
146.5893027648504
 20
395.3697294027094
 30
0
 11
147.0893027648504
 21
395.8697294027094
 31
0
  0
LINE
  8
1
 62
7
 10
147.0893027648504
 20
408.8697294027094
 30
0
 11
146.5893027648504
 21
409.3697294027094
 31
0
  0
LINE
  8
1
 62
7
 10
142.0893027648504
 20
393.8697294027094
 30
0
 11
143.2893027648503
 21
393.8697294027094
 31
0
  0
LINE
  8
1
 62
7
 10
144.2893027648503
 20
326.8697294027094
 30
0
 11
144.2893027648503
 21
270.8697294027094
 31
0
  0
LINE
  8
1
 62
7
 10
142.0893027648504
 20
241.8697294027094
 30
0
 11
135.6893027648503
 21
241.8697294027094
 31
0
  0
LINE
  8
1
 62
7
 10
143.0893027648504
 20
242.8697294027094
 30
0
 11
143.0893027648503
 21
326.8697294027094
 31
0
  0
LINE
  8
1
 62
7
 10
143.0893027648504
 20
242.8697294027094
 30
0
 11
144.2893027648503
 21
242.8697294027094
 31
0
  0
LINE
  8
1
 62
7
 10
161.0393027648504
 20
262.8697294027094
 30
0
 11
148.2893027648503
 21
262.8697294027094
 31
0
  0
LINE
  8
1
 62
7
 10
161.0393027648504
 20
262.8697294027094
 30
0
 11
162.2893027648504
 21
264.1197294027094
 31
0
  0
LINE
  8
1
 62
7
 10
162.2893027648504
 20
264.1197294027094
 30
0
 11
162.2893027648504
 21
269.6197294027094
 31
0
  0
LINE
  8
1
 62
7
 10
162.2893027648504
 20
269.6197294027094
 30
0
 11
161.0393027648504
 21
270.8697294027094
 31
0
  0
LINE
  8
1
 62
7
 10
161.0393027648504
 20
270.8697294027094
 30
0
 11
148.2893027648503
 21
270.8697294027094
 31
0
  0
LINE
  8
1
 62
7
 10
161.0393027648504
 20
262.8697294027094
 30
0
 11
161.0393027648504
 21
270.8697294027094
 31
0
  0
LINE
  8
1
 62
7
 10
144.2893027648503
 20
274.8697294027094
 30
0
 11
148.2893027648503
 21
274.8697294027093
 31
0
  0
LINE
  8
1
 62
7
 10
148.2893027648503
 20
274.8697294027093
 30
0
 11
148.2893027648503
 21
270.8697294027094
 31
0
  0
LINE
  8
1
 62
7
 10
148.2893027648503
 20
262.8697294027094
 30
0
 11
148.2893027648503
 21
258.8697294027093
 31
0
  0
LINE
  8
1
 62
7
 10
144.2893027648503
 20
258.8697294027094
 30
0
 11
148.2893027648503
 21
258.8697294027093
 31
0
  0
LINE
  8
1
 62
7
 10
144.2893027648503
 20
258.8697294027094
 30
0
 11
144.2893027648503
 21
242.8697294027094
 31
0
  0
LINE
  8
1
 62
7
 10
135.6893027648503
 20
241.8697294027094
 30
0
 11
135.6893027648503
 21
326.8697294027094
 31
0
  0
LINE
  8
1
 62
7
 10
142.0893027648504
 20
274.3697294027094
 30
0
 11
142.0893027648504
 21
241.8697294027094
 31
0
  0
LINE
  8
1
 62
7
 10
144.2893027648503
 20
262.8697294027094
 30
0
 11
144.2893027648503
 21
258.8697294027094
 31
0
  0
LINE
  8
1
 62
3
 10
162.2893027648504
 20
269.6197294027094
 30
0
 11
148.2893027648503
 21
269.6197294027094
 31
0
  0
LINE
  8
1
 62
3
 10
162.2893027648504
 20
264.1197294027094
 30
0
 11
148.2893027648503
 21
264.1197294027094
 31
0
  0
LINE
  8
1
 62
3
  6
DASHDOT
 10
96.2263261779926
 20
426.8697294027094
 30
0
 11
102.8719329012693
 21
426.8697294027094
 31
0
  0
LINE
  8
1
 62
7
 10
97.78930276485019
 20
436.8697294027094
 30
0
 11
100.6893027648503
 21
436.8697294027094
 31
0
  0
LINE
  8
1
 62
7
 10
97.78930276485019
 20
259.3697294027094
 30
0
 11
100.6893027648503
 21
259.3697294027094
 31
0
  0
LINE
  8
1
 62
7
 10
97.78930276485019
 20
436.8697294027094
 30
0
 11
97.78930276485019
 21
365.6197294027094
 31
0
  0
LINE
  8
1
 62
7
 10
116.8893027648503
 20
415.8697294027094
 30
0
 11
130.2912265534969
 21
415.8697294027094
 31
0
  0
LINE
  8
1
 62
7
 10
130.2912265534969
 20
415.8697294027094
 30
0
 11
132.8893027648503
 21
411.3697294027094
 31
0
  0
LINE
  8
1
 62
7
 10
132.8893027648503
 20
411.3697294027094
 30
0
 11
135.3893027648503
 21
411.3697294027094
 31
0
  0
LINE
  8
1
 62
7
 10
97.78930276485019
 20
365.6197294027094
 30
0
 11
97.78930276485019
 21
259.3697294027094
 31
0
  0
LINE
  8
1
 62
7
 10
135.3893027648503
 20
242.3697294027093
 30
0
 11
132.8893027648503
 21
242.3697294027093
 31
0
  0
LINE
  8
1
 62
7
 10
132.8893027648503
 20
242.3697294027093
 30
0
 11
130.2912265534969
 21
237.8697294027093
 31
0
  0
LINE
  8
1
 62
7
 10
130.2912265534969
 20
237.8697294027093
 30
0
 11
116.8893027648503
 21
237.8697294027093
 31
0
  0
LINE
  8
1
 62
7
 10
100.6893027648503
 20
376.8697294027094
 30
0
 11
100.6893027648503
 21
436.8697294027094
 31
0
  0
LINE
  8
1
 62
7
 10
135.3893027648503
 20
411.3697294027094
 30
0
 11
135.3893027648503
 21
242.3697294027093
 31
0
  0
LINE
  8
1
 62
3
  6
DASHDOT
 10
149.5694912945383
 20
326.8697294027094
 30
0
 11
144.2893027648503
 21
326.8697294027094
 31
0
  0
LINE
  8
1
 62
7
 10
142.2893027648504
 20
259.8697294027093
 30
0
 11
142.2893027648504
 21
266.8697294027094
 31
0
  0
LINE
  8
1
 62
7
 10
143.0893027648504
 20
260.2854839411567
 30
0
 11
142.2893027648504
 21
260.2854839411567
 31
0
  0
LINE
  8
1
 62
7
 10
97.68930276485031
 20
296.8697294027094
 30
0
 11
97.68930276485031
 21
356.8697294027094
 31
0
  0
LINE
  8
1
 62
7
 10
100.6893027648503
 20
250.3697294027094
 30
0
 11
100.6893027648503
 21
276.8697294027094
 31
0
  0
LINE
  8
1
 62
7
 10
111.7726481999648
 20
459.8351729831555
 30
0
 11
111.7726481999648
 21
464.8351729831555
 31
0
  0
LINE
  8
1
 62
7
 10
112.5366368249404
 20
459.8351729831555
 30
0
 11
112.5366368249404
 21
464.8351729831555
 31
0
  0
LINE
  8
1
 62
7
 10
108.6893027648503
 20
411.3697294027094
 30
0
 11
114.1893027648503
 21
411.3697294027094
 31
0
  0
LINE
  8
1
 62
7
 10
113.3893027648503
 20
459.8351729831555
 30
0
 11
113.3893027648503
 21
411.3697294027094
 31
0
  0
LINE
  8
1
 62
7
 10
114.1893027648503
 20
242.5197294027094
 30
0
 11
114.1893027648503
 21
242.3697294027094
 31
0
  0
LINE
  8
1
 62
7
 10
108.6893027648503
 20
242.3697294027094
 30
0
 11
114.1893027648503
 21
242.3697294027094
 31
0
  0
LINE
  8
1
 62
7
 10
114.1893027648503
 20
411.2197294027094
 30
0
 11
116.8893027648503
 21
411.2197294027094
 31
0
  0
LINE
  8
1
 62
7
 10
114.1893027648503
 20
411.3697294027094
 30
0
 11
114.1893027648503
 21
411.2197294027094
 31
0
  0
LINE
  8
1
 62
7
 10
110.9893027648502
 20
459.8351729831555
 30
0
 11
110.9893027648502
 21
411.3697294027094
 31
0
  0
LINE
  8
1
 62
7
 10
113.3893027648503
 20
459.8351729831555
 30
0
 11
110.9893027648502
 21
459.8351729831555
 31
0
  0
LINE
  8
1
 62
7
 10
212.1546481999648
 20
459.8351729831555
 30
0
 11
212.1546481999648
 21
464.8351729831555
 31
0
  0
LINE
  8
1
 62
3
  6
DASHDOT
 10
197.6893027648503
 20
326.8697294027094
 30
0
 11
191.7045296086148
 21
326.8697294027094
 31
0
  0
LINE
  8
1
 62
3
  6
DASHDOT
 10
394.2928530607085
 20
257.1812865820051
 30
0
 11
394.2928530607085
 21
276.3809208523766
 31
0
  0
LINE
  8
1
 62
3
  6
DASHDOT
 10
394.2928530607085
 20
434.225626539787
 30
0
 11
394.2928530607085
 21
420.225626539787
 31
0
  0
LINE
  8
1
 62
3
  6
DASHDOT
 10
400.2928530607085
 20
326.8697294027094
 30
0
 11
388.2928530607085
 21
326.8697294027094
 31
0
  0
LINE
  8
1
 62
7
 10
243.0893027648503
 20
323.3697294027094
 30
0
 11
235.6893027648503
 21
323.3697294027094
 31
0
  0
LINE
  8
1
 62
7
 10
235.6893027648503
 20
330.3697294027094
 30
0
 11
243.0893027648503
 21
330.3697294027094
 31
0
  0
LINE
  8
1
 62
7
 10
430.0934396644151
 20
381.8781643410991
 30
0
 11
429.3239419739539
 21
380.5453552449134
 31
0
  0
LINE
  8
1
 62
7
 10
424.6741209057192
 20
386.4916289086265
 30
0
 11
423.2617641474628
 21
384.0453552449134
 31
0
  0
LINE
  8
1
 62
7
 10
439.7878972772462
 20
398.6694574783453
 30
0
 11
439.2409857106669
 21
397.7221788577829
 31
0
  0
LINE
  8
1
 62
7
 10
433.725719450755
 20
402.1694574783453
 30
0
 11
433.2252899764492
 21
401.3026882032424
 31
0
  0
LINE
  8
1
 62
7
 10
433.725719450755
 20
251.5700013270734
 30
0
 11
433.1788078841757
 21
252.5172799476358
 31
0
  0
LINE
  8
1
 62
7
 10
439.7878972772461
 20
255.0700013270734
 30
0
 11
439.2874678029402
 21
255.9367706021763
 31
0
  0
LINE
  8
1
 62
7
 10
430.7362987322101
 20
270.7478298967922
 30
0
 11
429.3239419739539
 21
273.1941035605054
 31
0
  0
LINE
  8
1
 62
7
 10
424.031261837924
 20
268.3612944643197
 30
0
 11
423.2617641474628
 21
269.6941035605054
 31
0
  0
LINE
  8
1
 62
7
 10
327.4681395441959
 20
323.3697294027094
 30
0
 11
330.2928530607085
 21
323.3697294027094
 31
0
  0
LINE
  8
1
 62
7
 10
328.7538576797861
 20
330.3697294027094
 30
0
 11
330.2928530607085
 21
330.3697294027094
 31
0
  0
LINE
  8
1
 62
7
 10
309.3649424541241
 20
323.3697294027094
 30
0
 11
310.3658014027359
 21
323.3697294027094
 31
0
  0
LINE
  8
1
 62
7
 10
309.3649424541241
 20
330.3697294027094
 30
0
 11
310.4587655872825
 21
330.3697294027094
 31
0
  0
LINE
  8
1
 62
7
 10
370.5856910193274
 20
292.8077202437693
 30
0
 11
359.2617641474628
 21
273.1941035605053
 31
0
  0
LINE
  8
1
 62
7
 10
376.6478688458185
 20
289.3077202437693
 30
0
 11
365.3239419739539
 21
269.6941035605053
 31
0
  0
LINE
  8
1
 62
7
 10
370.5856910193274
 20
360.9317385616495
 30
0
 11
359.2617641474628
 21
380.5453552449135
 31
0
  0
LINE
  8
1
 62
7
 10
376.6478688458185
 20
364.4317385616495
 30
0
 11
365.3239419739539
 21
384.0453552449135
 31
0
  0
LINE
  8
1
 62
7
 10
435.6449993169792
 20
323.3697294027094
 30
0
 11
458.2928530607085
 21
323.3697294027094
 31
0
  0
LINE
  8
1
 62
7
 10
435.6449993169792
 20
330.3697294027094
 30
0
 11
458.2928530607085
 21
330.3697294027094
 31
0
  0
LINE
  8
1
 62
7
 10
398.2928530607085
 20
345.1697294027094
 30
0
 11
398.2928530607085
 21
341.3265616975103
 31
0
  0
LINE
  8
1
 62
7
 10
390.2928530607085
 20
345.1697294027094
 30
0
 11
398.2928530607085
 21
345.1697294027094
 31
0
  0
LINE
  8
1
 62
7
 10
390.2928530607085
 20
341.3265616975104
 30
0
 11
390.2928530607085
 21
345.1697294027094
 31
0
  0
LINE
  8
1
 62
7
 10
233.3893027648503
 20
289.6197294027094
 30
0
 11
235.1893027648503
 21
289.6197294027094
 31
0
  0
LINE
  8
1
 62
7
 10
235.1893027648503
 20
364.1197294027094
 30
0
 11
235.1893027648503
 21
326.8697294027094
 31
0
  0
LINE
  8
1
 62
7
 10
233.3893027648503
 20
364.1197294027094
 30
0
 11
235.1893027648503
 21
364.1197294027094
 31
0
  0
LINE
  8
1
 62
7
 10
200.6893027648503
 20
296.8697294027094
 30
0
 11
200.6893027648503
 21
295.3697294027094
 31
0
  0
LINE
  8
1
 62
7
 10
200.6893027648503
 20
356.8697294027094
 30
0
 11
200.6893027648503
 21
358.3697294027094
 31
0
  0
LINE
  8
1
 62
7
 10
200.6893027648503
 20
285.8697294027093
 30
0
 11
200.6893027648503
 21
276.8697294027094
 31
0
  0
LINE
  8
1
 62
7
 10
200.6893027648503
 20
367.8697294027094
 30
0
 11
200.6893027648503
 21
376.8697294027094
 31
0
  0
LINE
  8
1
 62
7
 10
197.6893027648503
 20
311.8697294027094
 30
0
 11
235.1893027648503
 21
311.8697294027094
 31
0
  0
LINE
  8
1
 62
7
 10
197.6893027648503
 20
341.3265616975103
 30
0
 11
235.1893027648503
 21
341.3265616975102
 31
0
  0
LINE
  8
1
 62
7
 10
197.6893027648503
 20
344.8697294027094
 30
0
 11
235.1893027648503
 21
344.8697294027094
 31
0
  0
LINE
  8
1
 62
7
 10
200.6893027648503
 20
295.3697294027094
 30
0
 11
200.6893027648503
 21
285.8697294027093
 31
0
  0
LINE
  8
1
 62
7
 10
200.6893027648503
 20
367.8697294027094
 30
0
 11
200.6893027648503
 21
358.3697294027094
 31
0
  0
LINE
  8
1
 62
3
  6
DASHDOT
 10
394.2928530607085
 20
326.8697294027094
 30
0
 11
394.2928530607085
 21
320.8697294027094
 31
0
  0
LINE
  8
1
 62
7
 10
432.2972098334379
 20
464.1579839910788
 30
0
 11
431.0031146079252
 21
459.3283548596335
 31
0
  0
LINE
  8
1
 62
7
 10
429.9948482933955
 20
464.7748999064177
 30
0
 11
428.7007530678828
 21
459.9452707749724
 31
0
  0
LINE
  8
1
 62
7
 10
432.8216608877406
 20
464.0174577546088
 30
0
 11
431.527565662228
 21
459.1878286231635
 31
0
  0
LINE
  8
1
 62
7
 10
431.8333291434974
 20
464.2822804473328
 30
0
 11
430.5392339179848
 21
459.4526513158875
 31
0
  0
LINE
  8
1
 62
7
 10
430.4057388462572
 20
464.6648021146008
 30
0
 11
429.1116436207446
 21
459.8351729831555
 31
0
  0
LINE
  8
1
 62
7
 10
429.5272217402633
 20
464.9002000636888
 30
0
 11
428.2331265147507
 21
460.0705709322435
 31
0
  0
LINE
  8
1
 62
7
 10
417.3277480748328
 20
412.8371279424364
 30
0
 11
429.8666306588175
 21
459.6328748160079
 31
0
  0
LINE
  8
1
 62
7
 10
427.4518160930949
 20
460.2799224287642
 30
0
 11
432.2814452245402
 21
458.9858272032516
 31
0
  0
LINE
  8
1
 62
7
 10
432.2814452245402
 20
458.9858272032516
 30
0
 11
419.7334730998247
 21
412.1561577018551
 31
0
  0
LINE
  8
1
 62
7
 10
427.4518160930949
 20
460.2799224287642
 30
0
 11
414.9038439683793
 21
413.4502529273677
 31
0
  0
LINE
  8
1
 62
7
 10
235.6893027648503
 20
411.8697294027094
 30
0
 11
235.6893027648503
 21
326.8697294027094
 31
0
  0
LINE
  8
1
 62
7
 10
235.6893027648503
 20
368.3697294027094
 30
0
 11
243.0893027648503
 21
368.3697294027094
 31
0
  0
LINE
  8
1
 62
7
 10
235.6893027648503
 20
411.8697294027094
 30
0
 11
242.0893027648504
 21
411.8697294027094
 31
0
  0
LINE
  8
1
 62
7
 10
242.0893027648504
 20
411.8697294027094
 30
0
 11
242.0893027648504
 21
406.3697294027094
 31
0
  0
LINE
  8
1
 62
7
 10
242.0893027648504
 20
386.8697294027094
 30
0
 11
243.0893027648504
 21
386.8697294027094
 31
0
  0
LINE
  8
1
 62
7
 10
243.0893027648504
 20
386.8697294027094
 30
0
 11
243.0893027648503
 21
326.8697294027094
 31
0
  0
LINE
  8
1
 62
7
 10
242.0893027648504
 20
410.8697294027094
 30
0
 11
243.2893027648503
 21
410.8697294027094
 31
0
  0
LINE
  8
1
 62
7
 10
243.2893027648503
 20
410.8697294027094
 30
0
 11
243.2893027648503
 21
390.7597632073832
 31
0
  0
LINE
  8
1
 62
7
 10
243.2893027648503
 20
390.7597632073832
 30
0
 11
244.2893027648503
 21
387.0277123998143
 31
0
  0
LINE
  8
1
 62
7
 10
244.2893027648503
 20
387.0277123998143
 30
0
 11
244.2893027648503
 21
326.8697294027094
 31
0
  0
LINE
  8
1
 62
7
 10
242.0893027648504
 20
390.6017802102782
 30
0
 11
243.0893027648504
 21
386.8697294027094
 31
0
  0
LINE
  8
1
 62
7
 10
235.6893027648503
 20
410.3697294027094
 30
0
 11
239.6893027648503
 21
406.3697294027094
 31
0
  0
LINE
  8
1
 62
7
 10
239.6893027648503
 20
406.3697294027094
 30
0
 11
239.6893027648503
 21
398.3697294027094
 31
0
  0
LINE
  8
1
 62
7
 10
239.6893027648503
 20
398.3697294027094
 30
0
 11
235.6893027648503
 21
394.3697294027094
 31
0
  0
LINE
  8
1
 62
7
 10
239.6893027648503
 20
398.3697294027094
 30
0
 11
243.2893027648503
 21
398.3697294027094
 31
0
  0
LINE
  8
1
 62
7
 10
239.6893027648503
 20
406.3697294027094
 30
0
 11
243.2893027648503
 21
406.3697294027094
 31
0
  0
LINE
  8
1
 62
7
 10
242.0893027648504
 20
398.3697294027094
 30
0
 11
242.0893027648504
 21
386.8697294027094
 31
0
  0
LINE
  8
1
 62
7
 10
243.2893027648503
 20
409.3697294027094
 30
0
 11
246.5893027648504
 21
409.3697294027094
 31
0
  0
LINE
  8
1
 62
7
 10
247.0893027648504
 20
395.8697294027094
 30
0
 11
247.0893027648504
 21
408.8697294027094
 31
0
  0
LINE
  8
1
 62
7
 10
243.2893027648503
 20
395.3697294027094
 30
0
 11
246.5893027648504
 21
395.3697294027094
 31
0
  0
LINE
  8
1
 62
7
 10
244.2893027648503
 20
409.3697294027094
 30
0
 11
244.2893027648503
 21
395.3697294027094
 31
0
  0
LINE
  8
1
 62
7
 10
246.5893027648504
 20
395.3697294027094
 30
0
 11
247.0893027648504
 21
395.8697294027094
 31
0
  0
LINE
  8
1
 62
7
 10
247.0893027648504
 20
408.8697294027094
 30
0
 11
246.5893027648504
 21
409.3697294027094
 31
0
  0
LINE
  8
1
 62
7
 10
242.0893027648504
 20
393.8697294027094
 30
0
 11
243.2893027648503
 21
393.8697294027094
 31
0
  0
LINE
  8
1
 62
7
 10
244.2893027648503
 20
326.8697294027094
 30
0
 11
244.2893027648503
 21
270.8697294027094
 31
0
  0
LINE
  8
1
 62
7
 10
242.0893027648504
 20
241.8697294027094
 30
0
 11
235.6893027648503
 21
241.8697294027094
 31
0
  0
LINE
  8
1
 62
7
 10
243.0893027648503
 20
285.3697294027094
 30
0
 11
235.6893027648503
 21
285.3697294027094
 31
0
  0
LINE
  8
1
 62
7
 10
243.0893027648504
 20
242.8697294027094
 30
0
 11
243.0893027648503
 21
326.8697294027094
 31
0
  0
LINE
  8
1
 62
7
 10
243.0893027648504
 20
242.8697294027094
 30
0
 11
244.2893027648503
 21
242.8697294027094
 31
0
  0
LINE
  8
1
 62
7
 10
261.0393027648504
 20
262.8697294027094
 30
0
 11
243.0893027648504
 21
262.8697294027094
 31
0
  0
LINE
  8
1
 62
7
 10
261.0393027648504
 20
262.8697294027094
 30
0
 11
262.2893027648504
 21
264.1197294027094
 31
0
  0
LINE
  8
1
 62
7
 10
262.2893027648504
 20
264.1197294027094
 30
0
 11
262.2893027648504
 21
269.6197294027094
 31
0
  0
LINE
  8
1
 62
7
 10
262.2893027648504
 20
269.6197294027094
 30
0
 11
261.0393027648504
 21
270.8697294027094
 31
0
  0
LINE
  8
1
 62
7
 10
261.0393027648504
 20
270.8697294027094
 30
0
 11
243.0893027648504
 21
270.8697294027094
 31
0
  0
LINE
  8
1
 62
7
 10
261.0393027648504
 20
262.8697294027094
 30
0
 11
261.0393027648504
 21
270.8697294027094
 31
0
  0
LINE
  8
1
 62
7
 10
244.2893027648503
 20
274.8697294027094
 30
0
 11
248.2893027648503
 21
274.8697294027093
 31
0
  0
LINE
  8
1
 62
7
 10
248.2893027648503
 20
274.8697294027093
 30
0
 11
248.2893027648503
 21
270.8697294027094
 31
0
  0
LINE
  8
1
 62
7
 10
248.2893027648503
 20
262.8697294027094
 30
0
 11
248.2893027648503
 21
258.8697294027093
 31
0
  0
LINE
  8
1
 62
7
 10
244.2893027648503
 20
258.8697294027094
 30
0
 11
248.2893027648503
 21
258.8697294027093
 31
0
  0
LINE
  8
1
 62
7
 10
244.2893027648503
 20
258.8697294027094
 30
0
 11
244.2893027648503
 21
242.8697294027094
 31
0
  0
LINE
  8
1
 62
7
 10
235.6893027648503
 20
259.3697294027093
 30
0
 11
242.0893027648504
 21
259.3697294027093
 31
0
  0
LINE
  8
1
 62
7
 10
235.6893027648503
 20
241.8697294027094
 30
0
 11
235.6893027648503
 21
326.8697294027094
 31
0
  0
LINE
  8
1
 62
7
 10
242.0893027648504
 20
259.3697294027093
 30
0
 11
242.0893027648504
 21
241.8697294027094
 31
0
  0
LINE
  8
1
 62
7
 10
235.6893027648503
 20
274.3697294027094
 30
0
 11
243.0893027648504
 21
274.3697294027094
 31
0
  0
LINE
  8
1
 62
7
 10
242.2893027648504
 20
273.453974864262
 30
0
 11
243.0893027648504
 21
273.453974864262
 31
0
  0
LINE
  8
1
 62
7
 10
244.2893027648503
 20
262.8697294027094
 30
0
 11
244.2893027648503
 21
258.8697294027094
 31
0
  0
LINE
  8
1
 62
3
 10
262.2893027648504
 20
269.6197294027094
 30
0
 11
243.0893027648504
 21
269.6197294027094
 31
0
  0
LINE
  8
1
 62
3
 10
262.2893027648504
 20
264.1197294027094
 30
0
 11
243.0893027648504
 21
264.1197294027094
 31
0
  0
LINE
  8
1
 62
3
  6
DASHDOT
 10
235.6893027648503
 20
266.8697294027094
 30
0
 11
264.2073351516073
 21
266.8697294027094
 31
0
  0
LINE
  8
1
 62
7
 10
243.0893027648504
 20
253.5399128333087
 30
0
 11
244.2893027648503
 21
253.5399128333087
 31
0
  0
LINE
  8
1
 62
7
 10
243.0893027648504
 20
277.3697294027094
 30
0
 11
244.2893027648503
 21
277.3697294027094
 31
0
  0
LINE
  8
1
 62
3
  6
DASHDOT
 10
394.2928530607085
 20
326.8697294027094
 30
0
 11
394.2928530607085
 21
332.8697294027094
 31
0
  0
LINE
  8
1
 62
7
 10
406.2928530607085
 20
415.0570300757655
 30
0
 11
406.2928530607085
 21
435.0729610391122
 31
0
  0
LINE
  8
1
 62
7
 10
382.2928530607085
 20
415.0570300757655
 30
0
 11
382.2928530607085
 21
434.9109425664016
 31
0
  0
LINE
  8
1
 62
7
 10
404.4894388317706
 20
436.8697294027094
 30
0
 11
384.1626300114089
 21
436.8697294027094
 31
0
  0
LINE
  8
1
 62
7
 10
235.1893027648503
 20
326.8697294027094
 30
0
 11
235.1893027648503
 21
289.6197294027094
 31
0
  0
LINE
  8
1
 62
7
 10
197.7893027648502
 20
422.6197294027094
 30
0
 11
200.7142683807249
 21
422.6197294027094
 31
0
  0
LINE
  8
1
 62
3
  6
DASHDOT
 10
196.2263261779926
 20
426.8697294027094
 30
0
 11
202.8719329012693
 21
426.8697294027094
 31
0
  0
LINE
  8
1
 62
7
 10
197.7893027648502
 20
431.1197294027094
 30
0
 11
200.7142683807249
 21
431.1197294027094
 31
0
  0
LINE
  8
1
 62
7
 10
197.7893027648502
 20
436.8697294027094
 30
0
 11
200.6893027648503
 21
436.8697294027094
 31
0
  0
LINE
  8
1
 62
7
 10
197.7893027648502
 20
365.6197294027094
 30
0
 11
200.6893027648503
 21
365.6197294027094
 31
0
  0
LINE
  8
1
 62
7
 10
197.7893027648502
 20
288.1197294027094
 30
0
 11
200.6893027648503
 21
288.1197294027094
 31
0
  0
LINE
  8
1
 62
7
 10
197.7893027648502
 20
259.3697294027094
 30
0
 11
200.6893027648503
 21
259.3697294027094
 31
0
  0
LINE
  8
1
 62
7
 10
197.7893027648502
 20
436.8697294027094
 30
0
 11
197.7893027648502
 21
365.6197294027094
 31
0
  0
LINE
  8
1
 62
7
 10
215.6893027648503
 20
371.1197294027094
 30
0
 11
215.6893027648503
 21
369.3697294027094
 31
0
  0
LINE
  8
1
 62
7
 10
213.6893027648503
 20
360.3697294027094
 30
0
 11
216.8893027648503
 21
360.3697294027094
 31
0
  0
LINE
  8
1
 62
7
 10
216.8893027648503
 20
360.3697294027094
 30
0
 11
216.8893027648503
 21
368.3697294027094
 31
0
  0
LINE
  8
1
 62
7
 10
216.8893027648503
 20
368.3697294027094
 30
0
 11
228.3893027648503
 21
368.3697294027094
 31
0
  0
LINE
  8
1
 62
7
 10
228.3893027648503
 20
368.3697294027094
 30
0
 11
228.3893027648503
 21
412.2197294027094
 31
0
  0
LINE
  8
1
 62
7
 10
228.3893027648503
 20
412.2197294027094
 30
0
 11
216.8893027648503
 21
412.2197294027094
 31
0
  0
LINE
  8
1
 62
7
 10
216.8893027648503
 20
412.2197294027094
 30
0
 11
216.8893027648503
 21
415.8697294027094
 31
0
  0
LINE
  8
1
 62
7
 10
216.8893027648503
 20
415.8697294027094
 30
0
 11
230.2912265534969
 21
415.8697294027094
 31
0
  0
LINE
  8
1
 62
7
 10
230.2912265534969
 20
415.8697294027094
 30
0
 11
232.8893027648503
 21
411.3697294027094
 31
0
  0
LINE
  8
1
 62
7
 10
232.8893027648503
 20
411.3697294027094
 30
0
 11
235.3893027648503
 21
411.3697294027094
 31
0
  0
LINE
  8
1
 62
7
 10
233.3893027648503
 20
368.8697294027094
 30
0
 11
235.3893027648503
 21
368.8697294027094
 31
0
  0
LINE
  8
1
 62
7
 10
233.3893027648503
 20
368.8697294027094
 30
0
 11
233.3893027648503
 21
364.1197294027094
 31
0
  0
LINE
  8
1
 62
7
 10
235.3893027648503
 20
411.3697294027094
 30
0
 11
235.3893027648503
 21
368.8697294027094
 31
0
  0
LINE
  8
1
 62
7
 10
209.0643027648503
 20
366.367324666901
 30
0
 11
213.6893027648503
 21
366.367324666901
 31
0
  0
LINE
  8
1
 62
7
 10
205.3143027648503
 20
366.367324666901
 30
0
 11
200.6893027648503
 21
366.367324666901
 31
0
  0
LINE
  8
1
 62
7
 10
205.3143027648503
 20
359.8721341385177
 30
0
 11
200.6893027648503
 21
359.8721341385177
 31
0
  0
LINE
  8
1
 62
7
 10
209.0643027648503
 20
359.8721341385177
 30
0
 11
213.6893027648503
 21
359.8721341385177
 31
0
  0
LINE
  8
1
 62
7
 10
212.3893027648503
 20
359.3697294027094
 30
0
 11
212.3893027648503
 21
366.8697294027094
 31
0
  0
LINE
  8
1
 62
7
 10
201.9893027648502
 20
359.3697294027094
 30
0
 11
201.9893027648502
 21
366.8697294027094
 31
0
  0
LINE
  8
1
 62
7
 10
197.7893027648502
 20
288.1197294027094
 30
0
 11
197.7893027648502
 21
259.3697294027094
 31
0
  0
LINE
  8
1
 62
7
 10
201.9893027648502
 20
286.8697294027093
 30
0
 11
201.9893027648502
 21
294.3697294027094
 31
0
  0
LINE
  8
1
 62
7
 10
212.3893027648503
 20
286.8697294027093
 30
0
 11
212.3893027648503
 21
294.3697294027094
 31
0
  0
LINE
  8
1
 62
7
 10
213.6893027648503
 20
293.867324666901
 30
0
 11
209.0643027648503
 21
293.867324666901
 31
0
  0
LINE
  8
1
 62
7
 10
200.6893027648503
 20
293.867324666901
 30
0
 11
205.3143027648503
 21
293.867324666901
 31
0
  0
LINE
  8
1
 62
7
 10
200.6893027648503
 20
287.3721341385177
 30
0
 11
205.3143027648503
 21
287.3721341385177
 31
0
  0
LINE
  8
1
 62
7
 10
213.6893027648503
 20
287.3721341385177
 30
0
 11
209.0643027648503
 21
287.3721341385177
 31
0
  0
LINE
  8
1
 62
7
 10
233.3893027648503
 20
289.6197294027094
 30
0
 11
233.3893027648503
 21
284.8697294027093
 31
0
  0
LINE
  8
1
 62
7
 10
233.3893027648503
 20
284.8697294027093
 30
0
 11
235.3893027648503
 21
284.8697294027093
 31
0
  0
LINE
  8
1
 62
7
 10
235.3893027648503
 20
242.3697294027093
 30
0
 11
232.8893027648503
 21
242.3697294027093
 31
0
  0
LINE
  8
1
 62
7
 10
232.8893027648503
 20
242.3697294027093
 30
0
 11
230.2912265534969
 21
237.8697294027093
 31
0
  0
LINE
  8
1
 62
7
 10
230.2912265534969
 20
237.8697294027093
 30
0
 11
216.8893027648503
 21
237.8697294027093
 31
0
  0
LINE
  8
1
 62
7
 10
216.8893027648503
 20
237.8697294027093
 30
0
 11
216.8893027648503
 21
241.5197294027094
 31
0
  0
LINE
  8
1
 62
7
 10
216.8893027648503
 20
241.5197294027094
 30
0
 11
228.3893027648503
 21
241.5197294027094
 31
0
  0
LINE
  8
1
 62
7
 10
228.3893027648503
 20
241.5197294027094
 30
0
 11
228.3893027648503
 21
285.3697294027094
 31
0
  0
LINE
  8
1
 62
7
 10
228.3893027648503
 20
285.3697294027094
 30
0
 11
216.8893027648503
 21
285.3697294027094
 31
0
  0
LINE
  8
1
 62
7
 10
216.8893027648503
 20
285.3697294027094
 30
0
 11
216.8893027648503
 21
293.3697294027094
 31
0
  0
LINE
  8
1
 62
7
 10
216.8893027648503
 20
293.3697294027094
 30
0
 11
213.6893027648503
 21
293.3697294027094
 31
0
  0
LINE
  8
1
 62
7
 10
213.6893027648503
 20
364.1197294027094
 30
0
 11
215.6893027648503
 21
364.1197294027094
 31
0
  0
LINE
  8
1
 62
7
 10
213.6893027648503
 20
290.6197294027094
 30
0
 11
215.6893027648503
 21
290.6197294027094
 31
0
  0
LINE
  8
1
 62
7
 10
213.6893027648503
 20
282.6197294027094
 30
0
 11
213.6893027648503
 21
296.8697294027094
 31
0
  0
LINE
  8
1
 62
7
 10
215.6893027648503
 20
369.3697294027094
 30
0
 11
215.6893027648503
 21
364.1197294027094
 31
0
  0
LINE
  8
1
 62
7
 10
215.6893027648503
 20
282.6197294027094
 30
0
 11
215.6893027648503
 21
290.6197294027094
 31
0
  0
LINE
  8
1
 62
7
 10
200.6893027648503
 20
376.8697294027094
 30
0
 11
200.6893027648503
 21
436.8697294027094
 31
0
  0
LINE
  8
1
 62
7
 10
235.3893027648503
 20
284.8697294027093
 30
0
 11
235.3893027648503
 21
242.3697294027093
 31
0
  0
LINE
  8
1
 62
3
  6
DASHDOT
 10
249.5694912945383
 20
326.8697294027094
 30
0
 11
244.2893027648503
 21
326.8697294027094
 31
0
  0
LINE
  8
1
 62
7
 10
242.2893027648504
 20
273.8697294027094
 30
0
 11
241.4893027648503
 21
273.8697294027094
 31
0
  0
LINE
  8
1
 62
7
 10
241.4893027648503
 20
273.8697294027094
 30
0
 11
241.4893027648503
 21
259.8697294027093
 31
0
  0
LINE
  8
1
 62
7
 10
241.4893027648503
 20
259.8697294027093
 30
0
 11
242.2893027648504
 21
259.8697294027093
 31
0
  0
LINE
  8
1
 62
7
 10
242.2893027648504
 20
259.8697294027093
 30
0
 11
242.2893027648504
 21
273.8697294027094
 31
0
  0
LINE
  8
1
 62
7
 10
237.9893027648503
 20
270.8697294027094
 30
0
 11
237.9893027648503
 21
262.8697294027093
 31
0
  0
LINE
  8
1
 62
7
 10
243.0893027648504
 20
260.2854839411567
 30
0
 11
242.2893027648504
 21
260.2854839411567
 31
0
  0
LINE
  8
1
 62
3
  6
DASHDOT
 10
438.1657284610959
 20
352.1997458252459
 30
0
 11
454.8123914168257
 21
361.8107011638455
 31
0
  0
LINE
  8
1
 62
3
  6
DASHDOT
 10
333.9408912277992
 20
361.7139508130616
 30
0
 11
350.5682622493113
 21
352.1141336778758
 31
0
  0
LINE
  8
1
 62
3
  6
DASHDOT
 10
387.3461274530672
 20
426.8697294027094
 30
0
 11
400.7485106710086
 21
426.8697294027094
 31
0
  0
LINE
  8
1
 62
7
 10
213.6893027648503
 20
356.8697294027094
 30
0
 11
213.6893027648503
 21
371.1197294027094
 31
0
  0
LINE
  8
1
 62
7
 10
213.6893027648503
 20
356.8697294027094
 30
0
 11
200.8593027648503
 21
356.8697294027094
 31
0
  0
LINE
  8
1
 62
7
 10
213.6893027648503
 20
296.8697294027094
 30
0
 11
200.8593027648503
 21
296.8697294027094
 31
0
  0
LINE
  8
1
 62
7
 10
197.6893027648503
 20
296.8697294027094
 30
0
 11
197.6893027648503
 21
356.8697294027094
 31
0
  0
LINE
  8
1
 62
7
 10
202.1893027648503
 20
284.3697294027093
 30
0
 11
212.1893027648503
 21
284.3697294027093
 31
0
  0
LINE
  8
1
 62
7
 10
213.4893027648502
 20
284.3697294027094
 30
0
 11
212.1893027648503
 21
284.3697294027093
 31
0
  0
LINE
  8
1
 62
7
 10
200.6893027648503
 20
250.3697294027094
 30
0
 11
200.6893027648503
 21
276.8697294027094
 31
0
  0
LINE
  8
1
 62
7
 10
211.7726481999648
 20
459.8351729831555
 30
0
 11
211.7726481999648
 21
464.8351729831555
 31
0
  0
LINE
  8
1
 62
7
 10
212.5366368249404
 20
459.8351729831555
 30
0
 11
212.5366368249404
 21
464.8351729831555
 31
0
  0
LINE
  8
1
 62
7
 10
208.6893027648503
 20
411.3697294027094
 30
0
 11
214.1893027648503
 21
411.3697294027094
 31
0
  0
LINE
  8
1
 62
7
 10
213.3893027648503
 20
459.8351729831555
 30
0
 11
213.3893027648503
 21
411.3697294027094
 31
0
  0
LINE
  8
1
 62
7
 10
213.4893027648502
 20
282.6197294027094
 30
0
 11
213.4893027648502
 21
284.3697294027094
 31
0
  0
LINE
  8
1
 62
7
 10
214.1893027648503
 20
242.5197294027094
 30
0
 11
214.1893027648503
 21
242.3697294027094
 31
0
  0
LINE
  8
1
 62
7
 10
225.6893027648503
 20
242.5197294027094
 30
0
 11
214.1893027648503
 21
242.5197294027094
 31
0
  0
LINE
  8
1
 62
7
 10
208.6893027648503
 20
242.3697294027094
 30
0
 11
214.1893027648503
 21
242.3697294027094
 31
0
  0
LINE
  8
1
 62
7
 10
225.6893027648503
 20
411.2197294027094
 30
0
 11
225.6893027648503
 21
369.3697294027094
 31
0
  0
LINE
  8
1
 62
7
 10
214.1893027648503
 20
411.2197294027094
 30
0
 11
225.6893027648503
 21
411.2197294027094
 31
0
  0
LINE
  8
1
 62
7
 10
214.1893027648503
 20
411.3697294027094
 30
0
 11
214.1893027648503
 21
411.2197294027094
 31
0
  0
LINE
  8
1
 62
7
 10
225.6893027648503
 20
369.3697294027094
 30
0
 11
215.6893027648503
 21
369.3697294027094
 31
0
  0
LINE
  8
1
 62
7
 10
213.4893027648502
 20
369.3697294027094
 30
0
 11
202.1893027648503
 21
369.3697294027094
 31
0
  0
LINE
  8
1
 62
7
 10
213.4893027648502
 20
369.3697294027094
 30
0
 11
213.4893027648502
 21
371.1197294027094
 31
0
  0
LINE
  8
1
 62
7
 10
225.6893027648503
 20
284.3697294027094
 30
0
 11
215.6893027648503
 21
284.3697294027094
 31
0
  0
LINE
  8
1
 62
7
 10
225.6893027648503
 20
284.3697294027094
 30
0
 11
225.6893027648503
 21
242.5197294027094
 31
0
  0
LINE
  8
1
 62
7
 10
213.4893027648502
 20
371.1197294027094
 30
0
 11
215.6893027648503
 21
371.1197294027094
 31
0
  0
LINE
  8
1
 62
7
 10
215.6893027648503
 20
282.6197294027094
 30
0
 11
213.4893027648502
 21
282.6197294027094
 31
0
  0
LINE
  8
1
 62
7
 10
210.9893027648502
 20
459.8351729831555
 30
0
 11
210.9893027648502
 21
411.3697294027094
 31
0
  0
LINE
  8
1
 62
7
 10
213.3893027648503
 20
459.8351729831555
 30
0
 11
210.9893027648502
 21
459.8351729831555
 31
0
  0
LINE
  8
1
 62
7
 10
199.4393027648503
 20
356.8697294027094
 30
0
 11
199.4393027648503
 21
355.8697294027094
 31
0
  0
LINE
  8
1
 62
7
 10
200.8593027648503
 20
355.8697294027094
 30
0
 11
199.4393027648503
 21
355.8697294027094
 31
0
  0
LINE
  8
1
 62
7
 10
200.8593027648503
 20
355.8697294027094
 30
0
 11
200.8593027648503
 21
356.8697294027094
 31
0
  0
LINE
  8
1
 62
7
 10
200.6893027648503
 20
359.8721341385177
 30
0
 11
199.4393027648503
 21
359.8721341385177
 31
0
  0
LINE
  8
1
 62
7
 10
199.4393027648503
 20
359.8721341385177
 30
0
 11
199.4393027648503
 21
356.8697294027094
 31
0
  0
LINE
  8
1
 62
7
 10
200.6893027648503
 20
356.8697294027094
 30
0
 11
200.6893027648503
 21
355.8697294027094
 31
0
  0
LINE
  8
1
 62
7
 10
199.4393027648503
 20
356.8697294027094
 30
0
 11
197.6893027648503
 21
356.8697294027094
 31
0
  0
LINE
  8
1
 62
7
 10
200.6893027648503
 20
295.3697294027094
 30
0
 11
200.6893027648503
 21
296.8697294027094
 31
0
  0
LINE
  8
1
 62
7
 10
199.4393027648503
 20
296.8697294027094
 30
0
 11
199.4393027648503
 21
293.8673246669011
 31
0
  0
LINE
  8
1
 62
7
 10
199.4393027648503
 20
293.8673246669011
 30
0
 11
200.6893027648503
 21
293.867324666901
 31
0
  0
LINE
  8
1
 62
7
 10
199.4393027648503
 20
297.8697294027094
 30
0
 11
200.8593027648503
 21
297.8697294027094
 31
0
  0
LINE
  8
1
 62
7
 10
200.8593027648503
 20
296.8697294027094
 30
0
 11
200.8593027648503
 21
297.8697294027094
 31
0
  0
LINE
  8
1
 62
7
 10
200.6893027648503
 20
296.8697294027094
 30
0
 11
200.6893027648503
 21
297.8697294027094
 31
0
  0
LINE
  8
1
 62
7
 10
199.4393027648503
 20
297.8697294027094
 30
0
 11
199.4393027648503
 21
296.8697294027094
 31
0
  0
LINE
  8
1
 62
7
 10
199.4393027648503
 20
296.8697294027094
 30
0
 11
197.6893027648503
 21
296.8697294027094
 31
0
  0
ARC
  8
1
 62
7
 10
-25.3581469392916
 20
399.6725452823168
 30
0
 40
8
 50
180
 51
254.6389497819903
  0
ARC
  8
1
 62
7
 10
-65.3581469392916
 20
399.6725452823168
 30
0
 40
8.000000000000085
 50
285.3610502180129
 51
0
  0
ARC
  8
1
 62
7
 10
108.6893027648503
 20
250.3697294027094
 30
0
 40
8
 50
180
 51
270
  0
ARC
  8
1
 62
7
 10
108.6893027648503
 20
403.3697294027094
 30
0
 40
8
 50
90
 51
180
  0
ARC
  8
1
 62
7
 10
202.1893027648503
 20
358.3697294027094
 30
0
 40
1.5
 50
180
 51
270
  0
ARC
  8
1
 62
7
 10
212.1893027648503
 20
367.8697294027094
 30
0
 40
1.5
 50
0
 51
90
  0
ARC
  8
1
 62
7
 10
202.1893027648503
 20
367.8697294027094
 30
0
 40
1.5
 50
90
 51
180
  0
ARC
  8
1
 62
7
 10
212.1893027648503
 20
358.3697294027094
 30
0
 40
1.5
 50
270
 51
0
  0
ARC
  8
1
 62
7
 10
212.1893027648503
 20
295.3697294027094
 30
0
 40
1.5
 50
0
 51
90
  0
ARC
  8
1
 62
7
 10
202.1893027648503
 20
285.8697294027093
 30
0
 40
1.5
 50
180
 51
270
  0
ARC
  8
1
 62
7
 10
212.1893027648503
 20
285.8697294027093
 30
0
 40
1.5
 50
270
 51
0
  0
ARC
  8
1
 62
7
 10
202.1893027648503
 20
295.3697294027094
 30
0
 40
1.5
 50
90
 51
180
  0
ARC
  8
1
 62
7
 10
208.6893027648503
 20
250.3697294027094
 30
0
 40
8
 50
180
 51
270
  0
ARC
  8
1
 62
7
 10
208.6893027648503
 20
403.3697294027094
 30
0
 40
8
 50
90
 51
180
  0
ARC
  8
1
 62
7
 10
-45.3585921363459
 20
326.8697294027094
 30
0
 40
84.50000000000006
 50
98.16397423480952
 51
0
  0
ARC
  8
1
 62
7
 10
-45.3585921363459
 20
326.8697294027094
 30
0
 40
84.50000000000006
 50
0
 51
81.83541584606735
  0
ARC
  8
1
 62
7
 10
-45.3585921363459
 20
326.8697294027094
 30
0
 40
89
 50
0
 51
82.25083656053438
  0
ARC
  8
1
 62
7
 10
-45.35814693929154
 20
326.8697294027094
 30
0
 40
67.49999999999999
 50
105.3610502180117
 51
74.63894978198805
  0
ARC
  8
1
 62
7
 10
-45.3585921363459
 20
326.8697294027094
 30
0
 40
89
 50
106.6093667863324
 51
0
  0
ARC
  8
1
 62
7
 10
-45.3585921363459
 20
326.8697294027094
 30
0
 40
88.99999999999997
 50
97.74858494546317
 51
103.3900793152971
  0
ARC
  8
1
 62
7
 10
-55.35814693929154
 20
434.8697294027094
 30
0
 40
2
 50
90
 51
180
  0
ARC
  8
1
 62
7
 10
-35.35814693929154
 20
434.8697294027094
 30
0
 40
2
 50
0
 51
90
  0
ARC
  8
1
 62
7
 10
-45.35814693929154
 20
326.8697294027094
 30
0
 40
15
 50
270
 51
74.53399004657933
  0
ARC
  8
1
 62
7
 10
-45.35814693929154
 20
326.8697294027094
 30
0
 40
15
 50
105.4660099534206
 51
270
  0
ARC
  8
1
 62
3
  6
DASHDOT
 10
394.2928530607085
 20
326.8697294027094
 30
0
 40
60.00000000000001
 50
138.7479057384995
 51
162.4229425664721
  0
ARC
  8
1
 62
3
  6
DASHDOT
 10
394.2928530607085
 20
326.8697294027094
 30
0
 40
60.00000000000007
 50
257.6800582146662
 51
282.2702066462326
  0
ARC
  8
1
 62
3
  6
DASHDOT
 10
394.2928530607085
 20
326.8697294027094
 30
0
 40
59.99999999999994
 50
18.10847069004347
 51
41.63918002551483
  0
ARC
  8
1
 62
7
 10
426.2928530607085
 20
382.2953552449135
 30
0
 40
3.500000000000111
 50
150.0000000000021
 51
240.0000000000013
  0
ARC
  8
1
 62
7
 10
426.2928530607085
 20
382.2953552449135
 30
0
 40
3.500000000000139
 50
240.0000000000013
 51
329.9999999999977
  0
ARC
  8
1
 62
7
 10
394.2928530607085
 20
326.8697294027094
 30
0
 40
59.99999999999991
 50
47.18269811541297
 51
116.6558477955445
  0
ARC
  8
1
 62
7
 10
394.2928530607085
 20
326.8697294027094
 30
0
 40
42
 50
115.2198081528012
 51
124.7801918471996
  0
ARC
  8
1
 62
7
 10
394.2928530607085
 20
326.8697294027094
 30
0
 40
41.99999999999998
 50
235.2198081528008
 51
244.780191847199
  0
ARC
  8
1
 62
7
 10
394.2928530607086
 20
326.8697294027111
 30
0
 40
41.99999999999994
 50
355.2198081527986
 51
359.9999999999978
  0
ARC
  8
1
 62
7
 10
394.2928530607085
 20
326.8697294027094
 30
0
 40
42
 50
0
 51
4.780191847199162
  0
ARC
  8
1
 62
7
 10
394.2928530607085
 20
326.8697294027094
 30
0
 40
60.0000000000001
 50
167.1826981154131
 51
236.6558477955443
  0
ARC
  8
1
 62
7
 10
394.2928530607085
 20
326.8697294027094
 30
0
 40
60.00000000000005
 50
287.1826981154129
 51
356.6558477955443
  0
ARC
  8
1
 62
7
 10
394.2928530607085
 20
326.8697294027094
 30
0
 40
84.9999999999999
 50
302.3599051711393
 51
57.64009482886059
  0
ARC
  8
1
 62
7
 10
394.2928530607085
 20
326.8697294027094
 30
0
 40
84.99999999999997
 50
182.3599051711394
 51
297.6400948288604
  0
ARC
  8
1
 62
7
 10
426.2928530607084
 20
271.4441035605054
 30
0
 40
3.499999999999943
 50
120.0000000000006
 51
209.9999999999996
  0
ARC
  8
1
 62
7
 10
426.2928530607084
 20
271.4441035605054
 30
0
 40
3.499999999999943
 50
30.00000000000054
 51
120.0000000000006
  0
ARC
  8
1
 62
7
 10
394.2928530607085
 20
326.8697294027094
 30
0
 40
84.99999999999976
 50
62.35990517113951
 51
177.6400948288606
  0
ARC
  8
1
 62
7
 10
330.2928530607085
 20
326.8697294027094
 30
0
 40
3.5
 50
270
 51
0
  0
ARC
  8
1
 62
7
 10
330.2928530607085
 20
326.8697294027094
 30
0
 40
3.5
 50
0
 51
90
  0
ARC
  8
1
 62
7
 10
362.2928530607082
 20
271.4441035605054
 30
0
 40
3.499999999999787
 50
150.0000000000001
 51
201.991137229796
  0
ARC
  8
1
 62
7
 10
394.2928530607085
 20
326.8697294027094
 30
0
 40
41.50000000000026
 50
124.8379209610762
 51
235.1620790389238
  0
ARC
  8
1
 62
7
 10
362.2928530607085
 20
382.2953552449135
 30
0
 40
3.499999999999845
 50
30.00000000000147
 51
81.99113722979409
  0
ARC
  8
1
 62
7
 10
394.2928530607071
 20
326.8697294027089
 30
0
 40
41.50000000000006
 50
107.7157458917637
 51
115.1620790389222
  0
ARC
  8
1
 62
7
 10
458.2928530607085
 20
326.8697294027094
 30
0
 40
3.5
 50
270
 51
321.9911372297997
  0
ARC
  8
1
 62
7
 10
394.2928530607085
 20
326.8697294027094
 30
0
 40
41.50000000000017
 50
322.6264896617533
 51
355.162079038924
  0
ARC
  8
1
 62
7
 10
362.2928530607082
 20
271.4441035605054
 30
0
 40
3.500000000000031
 50
301.1326740314876
 51
329.9999999999998
  0
ARC
  8
1
 62
7
 10
362.2928530607085
 20
382.2953552449135
 30
0
 40
3.499999999999941
 50
181.1326740314887
 51
209.9999999999987
  0
ARC
  8
1
 62
7
 10
458.2928530607085
 20
326.8697294027094
 30
0
 40
3.500000000000031
 50
61.13267403148401
 51
90
  0
ARC
  8
1
 62
7
 10
394.2928530607085
 20
326.8697294027094
 30
0
 40
15
 50
270
 51
74.53399004657933
  0
ARC
  8
1
 62
7
 10
394.2928530607085
 20
326.8697294027094
 30
0
 40
41.50000000000022
 50
244.8379209610757
 51
322.6264896617533
  0
ARC
  8
1
 62
7
 10
482.6274442467213
 20
377.8697294027093
 30
0
 40
28.67018343059938
 50
209.9999999999998
 51
232.6998381686422
  0
ARC
  8
1
 62
7
 10
441.2928530607085
 20
326.8697294027094
 30
0
 40
37.00000000000006
 50
0
 51
49.64006324378067
  0
ARC
  8
1
 62
7
 10
439.1216144748371
 20
322.9477209790647
 30
0
 40
22
 50
355.0000000000002
 51
86.70031372287122
  0
ARC
  8
1
 62
7
 10
394.2928530607085
 20
326.8697294027094
 30
0
 40
84.00000000000001
 50
329.9999999999999
 51
0
  0
ARC
  8
1
 62
7
 10
394.2928530607085
 20
326.8697294027094
 30
0
 40
66.99999999999994
 50
329.9999999999998
 51
355
  0
ARC
  8
1
 62
7
 10
394.2928530607085
 20
326.8697294027094
 30
0
 40
49.49999999999981
 50
21.37528431144557
 51
38.62471568855417
  0
ARC
  8
1
 62
7
 10
394.2928530607085
 20
326.8697294027094
 30
0
 40
66.99999999999986
 50
64.99999999999992
 51
90
  0
ARC
  8
1
 62
7
 10
394.2928530607085
 20
326.8697294027094
 30
0
 40
83.99999999999994
 50
59.99999999999999
 51
90
  0
ARC
  8
1
 62
7
 10
413.31067483904
 20
367.6535798193586
 30
0
 40
21.99999999999993
 50
333.2996862771288
 51
64.99999999999989
  0
ARC
  8
1
 62
7
 10
417.7928530607085
 20
367.572923380578
 30
0
 40
36.99999999999998
 50
10.35993675621932
 51
59.99999999999999
  0
ARC
  8
1
 62
7
 10
482.6274442467213
 20
377.8697294027093
 30
0
 40
28.67018343059945
 50
187.3001618313575
 51
209.9999999999998
  0
ARC
  8
1
 62
7
 10
394.2928530607085
 20
224.8697294027093
 30
0
 40
28.67018343059939
 50
90
 51
112.6998381686425
  0
ARC
  8
1
 62
7
 10
370.7928530607085
 20
286.1665354248407
 30
0
 40
36.99999999999987
 50
239.9999999999999
 51
289.6400632437805
  0
ARC
  8
1
 62
7
 10
368.4819134249115
 20
290.0078874097047
 30
0
 40
21.99999999999983
 50
234.9999999999993
 51
326.700313722871
  0
ARC
  8
1
 62
7
 10
394.2928530607085
 20
326.8697294027094
 30
0
 40
84
 50
210
 51
240
  0
ARC
  8
1
 62
7
 10
394.2928530607085
 20
326.8697294027094
 30
0
 40
66.99999999999983
 50
210.0000000000001
 51
234.9999999999999
  0
ARC
  8
1
 62
7
 10
394.2928530607085
 20
326.8697294027094
 30
0
 40
49.50000000000011
 50
261.375284311446
 51
278.6247156885543
  0
ARC
  8
1
 62
7
 10
394.2928530607085
 20
326.8697294027094
 30
0
 40
66.9999999999999
 50
304.9999999999999
 51
329.9999999999998
  0
ARC
  8
1
 62
7
 10
394.2928530607085
 20
326.8697294027094
 30
0
 40
84
 50
300.0000000000001
 51
329.9999999999999
  0
ARC
  8
1
 62
7
 10
420.1037926965056
 20
290.0078874097047
 30
0
 40
21.99999999999989
 50
213.2996862771291
 51
304.9999999999999
  0
ARC
  8
1
 62
7
 10
417.7928530607085
 20
286.1665354248407
 30
0
 40
36.99999999999996
 50
250.3599367562193
 51
300.0000000000002
  0
ARC
  8
1
 62
7
 10
394.2928530607085
 20
224.8697294027093
 30
0
 40
28.67018343059939
 50
67.3001618313576
 51
90
  0
ARC
  8
1
 62
7
 10
305.9582618746958
 20
377.8697294027094
 30
0
 40
28.67018343059946
 50
307.3001618313574
 51
330.0000000000002
  0
ARC
  8
1
 62
7
 10
347.2928530607085
 20
326.8697294027093
 30
0
 40
37.00000000000001
 50
130.3599367562194
 51
180
  0
ARC
  8
1
 62
7
 10
349.46409164658
 20
322.9477209790647
 30
0
 40
21.99999999999991
 50
93.29968627712907
 51
184.9999999999999
  0
ARC
  8
1
 62
7
 10
394.2928530607085
 20
326.8697294027094
 30
0
 40
84
 50
180
 51
210
  0
ARC
  8
1
 62
7
 10
394.2928530607085
 20
326.8697294027094
 30
0
 40
66.99999999999986
 50
185.0000000000001
 51
210.0000000000001
  0
ARC
  8
1
 62
7
 10
394.2928530607085
 20
326.8697294027094
 30
0
 40
49.49999999999992
 50
141.3752843114459
 51
158.6247156885545
  0
ARC
  8
1
 62
7
 10
394.2928530607085
 20
326.8697294027094
 30
0
 40
67
 50
90
 51
115
  0
ARC
  8
1
 62
7
 10
394.2928530607085
 20
326.8697294027094
 30
0
 40
84
 50
90
 51
120
  0
ARC
  8
1
 62
7
 10
375.2750312823771
 20
367.6535798193586
 30
0
 40
22.00000000000014
 50
114.9999999999999
 51
206.700313722871
  0
ARC
  8
1
 62
7
 10
370.7928530607085
 20
367.572923380578
 30
0
 40
37.00000000000004
 50
120
 51
169.6400632437807
  0
ARC
  8
1
 62
7
 10
305.9582618746958
 20
377.8697294027094
 30
0
 40
28.67018343059938
 50
330.0000000000002
 51
352.6998381686424
  0
ARC
  8
1
 62
7
 10
394.2928530607085
 20
326.8697294027094
 30
0
 40
59.9999999999999
 50
123.3441522044558
 51
132.8173018845869
  0
ARC
  8
1
 62
7
 10
394.2928530607085
 20
326.8697294027094
 30
0
 40
60.00000000000009
 50
243.3441522044556
 51
252.8173018845872
  0
ARC
  8
1
 62
7
 10
394.2928530607085
 20
326.8697294027094
 30
0
 40
15
 50
105.4660099534206
 51
270
  0
ARC
  8
1
 62
7
 10
394.2928530607085
 20
326.8697294027094
 30
0
 40
41.49999999999999
 50
4.83792096107597
 51
107.7157458917658
  0
ARC
  8
1
 62
7
 10
384.2928530607085
 20
434.8697294027094
 30
0
 40
2
 50
90
 51
180
  0
ARC
  8
1
 62
7
 10
404.2928530607085
 20
434.8697294027094
 30
0
 40
2
 50
0
 51
90
  0
ARC
  8
1
 62
7
 10
207.1893027648503
 20
363.1197294027094
 30
0
 40
3.749999999999963
 50
59.99999999999968
 51
120.0000000000003
  0
ARC
  8
1
 62
7
 10
207.1893027648503
 20
363.1197294027094
 30
0
 40
3.750000000000062
 50
299.9999999999994
 51
59.99999999999968
  0
ARC
  8
1
 62
7
 10
207.1893027648503
 20
363.1197294027094
 30
0
 40
3.749999999999963
 50
120.0000000000003
 51
240.0000000000006
  0
ARC
  8
1
 62
7
 10
207.1893027648503
 20
363.1197294027094
 30
0
 40
3.750000000000062
 50
240.0000000000006
 51
299.9999999999994
  0
ARC
  8
1
 62
7
 10
207.1893027648503
 20
290.6197294027094
 30
0
 40
3.749999999999963
 50
59.99999999999968
 51
120.0000000000003
  0
ARC
  8
1
 62
7
 10
207.1893027648503
 20
290.6197294027094
 30
0
 40
3.749999999999963
 50
120.0000000000003
 51
240.0000000000006
  0
ARC
  8
1
 62
7
 10
207.1893027648503
 20
290.6197294027094
 30
0
 40
3.750000000000062
 50
299.9999999999994
 51
59.99999999999968
  0
ARC
  8
1
 62
7
 10
207.1893027648503
 20
290.6197294027094
 30
0
 40
3.750000000000062
 50
240.0000000000006
 51
299.9999999999994
  0
ARC
  8
1
 62
7
 10
244.38403412541
 20
266.9508761487231
 30
0
 40
7.500000000000314
 50
112.7036108731616
 51
148.4989784168477
  0
ARC
  8
1
 62
7
 10
244.38403412541
 20
266.7885826566956
 30
0
 40
7.500000000000329
 50
211.5010215831524
 51
247.2963891268384
  0
ARC
  8
1
 62
7
 10
394.2928530607085
 20
326.8697294027094
 30
0
 40
59.99999999999996
 50
3.34415220445566
 51
12.81730188458692
  0
ARC
  8
1
 62
7
 10
394.2928530607085
 20
326.8697294027094
 30
0
 40
37.25000000000006
 50
0
 51
79.66748887356826
  0
ARC
  8
1
 62
7
 10
394.2928530607085
 20
326.8697294027094
 30
0
 40
37.25000000000006
 50
79.66748887356826
 51
0
  0
ARC
  8
1
 62
7
 10
208.6893027648503
 20
276.8697294027094
 30
0
 40
8.000000000000039
 50
110.3641348063186
 51
180
  0
ARC
  8
1
 62
7
 10
208.6893027648503
 20
376.8697294027094
 30
0
 40
8
 50
180
 51
249.6358651936813
  0
CIRCLE
  8
1
 62
7
 10
-45.35814693929154
 20
426.8697294027094
 30
0
 40
4.25
  0
CIRCLE
  8
1
 62
7
 10
-45.35814693929154
 20
326.8697294027094
 30
0
 40
30.00000000330333
  0
CIRCLE
  8
1
 62
3
 10
446.2543772877749
 20
356.8697294027094
 30
0
 40
2.999999999999886
  0
CIRCLE
  8
1
 62
3
 10
394.2928530607085
 20
266.8697294027094
 30
0
 40
3.000000000000057
  0
CIRCLE
  8
1
 62
7
 10
446.2543772877749
 20
356.8697294027094
 30
0
 40
3.999999999999886
  0
CIRCLE
  8
1
 62
7
 10
394.2928530607085
 20
266.8697294027094
 30
0
 40
4.000000000000057
  0
CIRCLE
  8
1
 62
7
 10
446.2543772877749
 20
356.8697294027094
 30
0
 40
7.999999999999886
  0
CIRCLE
  8
1
 62
7
 10
394.2928530607085
 20
266.8697294027094
 30
0
 40
8.000000000000057
  0
CIRCLE
  8
1
 62
7
 10
459.6777710464336
 20
289.1197294027093
 30
0
 40
6.650000000000034
  0
CIRCLE
  8
1
 62
7
 10
328.9079350749834
 20
289.1197294027094
 30
0
 40
6.649999999999977
  0
CIRCLE
  8
1
 62
3
 10
342.3313288336422
 20
356.8697294027094
 30
0
 40
3
  0
CIRCLE
  8
1
 62
7
 10
342.3313288336422
 20
356.8697294027094
 30
0
 40
4
  0
CIRCLE
  8
1
 62
7
 10
342.3313288336422
 20
356.8697294027094
 30
0
 40
8
  0
CIRCLE
  8
1
 62
7
 10
394.2928530607085
 20
402.3697294027094
 30
0
 40
6.650000000000091
  0
CIRCLE
  8
1
 62
7
 10
394.2928530607085
 20
326.8697294027094
 30
0
 40
89
  0
CIRCLE
  8
1
 62
7
 10
394.2928530607085
 20
426.8697294027094
 30
0
 40
4.25
  0
CIRCLE
  8
1
 62
7
 10
-45.35814693929154
 20
326.8697294027094
 30
0
 40
38.75
  0
TEXT
  8
1
 62
7
 10
-48.93404653745802
 20
479.541529990383
 30
0
 40
10
  1
VCE 10
 41
0.8388588131162911
  7
SIMPLEX
  0
ENDSEC
  0
EOF
