  0
SECTION
  2
HEADER
  9
$ACADVER
  1
AC1009
  9
$INSBASE
 10
0
 20
0
  9
$EXTMIN
 10
-170.9867953678489
 20
-56.50000000000018
  9
$EXTMAX
 10
311.7702858718501
 20
144.4599013251446
  9
$LIMMIN
 10
-170.9867953678489
 20
-56.50000000000018
  9
$LIMMAX
 10
311.7702858718501
 20
144.4599013251446
  9
$VIEWCTR
 10
10
 20
10
  9
$VIEWSIZE
 40
10
  9
$SNAPMODE
 70
0
  9
$SNAPUNIT
 10
1
 20
1
  9
$SNAPBASE
 10
0
 20
0
  9
$SNAPANG
 50
0
  9
$SNAPSTYLE
 70
0
  9
$SNAPISOPAIR
 70
0
  9
$GRIDMODE
 70
0
  9
$GRIDUNIT
 10
0
 20
0
  9
$ORTHOMODE
 70
0
  9
$REGENMODE
 70
1
  9
$FILLMODE
 70
1
  9
$QTEXTMODE
 70
0
  9
$DRAGMODE
 70
2
  9
$LTSCALE
 40
1
  9
$OSMODE
 70
0
  9
$ATTMODE
 70
1
  9
$TEXTSIZE
 40
3.5
  9
$TRACEWID
 40
0.5
  9
$TEXTSTYLE
  7
STANDARD
  9
$CLAYER
  8
0
  9
$CELTYPE
  6
BYLAYER
  9
$CECOLOR
 62
256
  9
$DIMSCALE
 40
1
  9
$DIMASZ
 40
0.18
  9
$DIMEXO
 40
0.0625
  9
$DIMDLI
 40
0.38
  9
$DIMRND
 40
0
  9
$DIMDLE
 40
0
  9
$DIMEXE
 40
0.18
  9
$DIMTP
 40
0
  9
$DIMTM
 40
0
  9
$DIMTXT
 40
0.18
  9
$DIMCEN
 40
0.09
  9
$DIMTSZ
 40
0
  9
$DIMTOL
 70
0
  9
$DIMLIM
 70
0
  9
$DIMTIH
 70
1
  9
$DIMTOH
 70
1
  9
$DIMSE1
 70
0
  9
$DIMSE2
 70
0
  9
$DIMTAD
 70
0
  9
$DIMZIN
 70
0
  9
$DIMBLK
  1

  9
$DIMASO
 70
1
  9
$DIMSHO
 70
1
  9
$DIMPOST
  1

  9
$DIMAPOST
  1

  9
$DIMALT
 70
0
  9
$DIMALTD
 70
2
  9
$DIMALTF
 40
25.4
  9
$DIMLFAC
 40
1
  9
$DIMTOFL
 70
0
  9
$DIMTVP
 40
0
  9
$DIMTIX
 70
0
  9
$DIMSOXD
 70
0
  9
$DIMSAH
 70
0
  9
$DIMBLK1
  1

  9
$DIMBLK2
  1

  9
$DIMSTYLE
  2
*UNNAMED
  9
$DIMCLRD
 70
0
  9
$DIMCLRE
 70
0
  9
$DIMCLRT
 70
0
  9
$DIMTFAC
 40
1
  9
$DIMGAP
 40
0.09
  9
$LUNITS
 70
2
  9
$LUPREC
 70
4
  9
$AXISMODE
 70
0
  9
$AXISUNIT
 10
0
 20
0
  9
$SKETCHINC
 40
0.1
  9
$FILLETRAD
 40
2
  9
$AUNITS
 70
0
  9
$AUPREC
 70
0
  9
$MENU
  1
ACAD
  9
$ELEVATION
 40
0
  9
$THICKNESS
 40
0
  9
$VIEWDIR
 10
0
 20
0
 30
1
  9
$LIMCHECK
 70
0
  9
$BLIPMODE
 70
1
  9
$CHAMFERA
 40
0
  9
$CHAMFERB
 40
0
  9
$FASTZOOM
 70
1
  9
$SKPOLY
 70
0
  9
$ANGBASE
 50
0
  9
$ANGDIR
 70
0
  9
$PDMODE
 70
0
  9
$PDSIZE
 40
0
  9
$PLINEWID
 40
0
  9
$COORDS
 70
2
  0
ENDSEC
  0
SECTION
  2
TABLES
  0
TABLE
  2
DIMSTYLE
 70
0
  0
ENDTAB
  0
TABLE
  2
LTYPE
 70
9
  0
LTYPE
  2
CONTINUOUS
 70
64
  3
Solid line
 72
65
 73
0
 40
0
  0
LTYPE
  2
BORDER
 70
64
  3
__ __ . __ __ .
 72
65
 73
6
 40
22.23223400445982
 49
6.352066858417092
 49
-3.176033429208546
 49
6.352066858417092
 49
-3.176033429208546
 49
0
 49
-3.176033429208546
  0
LTYPE
  2
CENTER
 70
64
  3
____ _ ____ _
 72
65
 73
4
 40
25.40826743366837
 49
15.88016714604273
 49
-3.176033429208546
 49
3.176033429208546
 49
-3.176033429208546
  0
LTYPE
  2
DASHDOT
 70
64
  3
__ . __ . __ .
 72
65
 73
4
 40
12.70413371683418
 49
6.352066858417092
 49
-3.176033429208546
 49
0
 49
-3.176033429208546
  0
LTYPE
  2
DASHED
 70
64
  3
__ __ __ __ __
 72
65
 73
2
 40
9.528100287625637
 49
6.352066858417092
 49
-3.176033429208546
  0
LTYPE
  2
DIVIDE
 70
64
  3
__ . . __ . . 
 72
65
 73
6
 40
15.88016714604273
 49
6.352066858417092
 49
-3.176033429208546
 49
0
 49
-3.176033429208546
 49
0
 49
-3.176033429208546
  0
LTYPE
  2
DOT
 70
64
  3
..............
 72
65
 73
4
 40
6.352066858417092
 49
0
 49
-3.176033429208546
 49
0
 49
-3.176033429208546
  0
LTYPE
  2
HIDDEN
 70
64
  3
_ _ _ _ _ _ _
 72
65
 73
2
 40
4.764050143812819
 49
3.176033429208546
 49
-1.588016714604273
  0
LTYPE
  2
PHANTOM
 70
64
  3
_____ _ _ _____ _ _ 
 72
65
 73
6
 40
31.76033429208546
 49
15.88016714604273
 49
-3.176033429208546
 49
3.176033429208546
 49
-3.176033429208546
 49
3.176033429208546
 49
-3.176033429208546
  0
ENDTAB
  0
TABLE
  2
LAYER
 70
3
  0
LAYER
  2
1
 70
0
 62
7
  6
CONTINUOUS
  0
LAYER
  2
0
 70
0
 62
7
  6
CONTINUOUS
  0
ENDTAB
  0
TABLE
  2
STYLE
 70
4
  0
STYLE
  2
STANDARD
 70
0
 40
0
 41
1
 50
0
 71
0
 42
3.5
  3
txt
  4

  0
STYLE
  2
SIMPLEX
 70
0
 40
0
 41
1
 50
0
 71
0
 42
3.5
  3
simplex
  4

  0
STYLE
  2
COMPLEX
 70
0
 40
0
 41
1
 50
0
 71
0
 42
3.5
  3
complex
  4

  0
STYLE
  2
ITALIC
 70
0
 40
0
 41
1
 50
0
 71
0
 42
3.5
  3
italic
  4

  0
ENDTAB
  0
TABLE
  2
VIEW
 70
0
  0
ENDTAB
  0
ENDSEC
  0
SECTION
  2
BLOCKS
  0
ENDSEC
  0
SECTION
  2
ENTITIES
  0
LINE
  8
1
 62
7
 10
105.9
 20
61.75
 30
0
 11
107.9
 21
61.75
 31
0
  0
LINE
  8
1
 62
7
 10
105.9
 20
68.25
 30
0
 11
107.9
 21
68.25
 31
0
  0
LINE
  8
1
 62
7
 10
107.9
 20
71
 30
0
 11
107.9
 21
-47.35
 31
0
  0
LINE
  8
1
 62
7
 10
-117.4867953678487
 20
12.80000000000005
 30
0
 11
-117.4867953678487
 21
9.539392014169492
 31
0
  0
LINE
  8
1
 62
7
 10
-111.4867953678487
 20
12.80000000000005
 30
0
 11
-111.4867953678487
 21
9.539392014169492
 31
0
  0
LINE
  8
1
 62
7
 10
-117.4867953678487
 20
12.80000000000005
 30
0
 11
-111.4867953678487
 21
12.80000000000005
 31
0
  0
LINE
  8
1
 62
7
 10
3
 20
-47.34999999999997
 30
0
 11
3
 21
71
 31
0
  0
LINE
  8
1
 62
7
 10
1
 20
-42.49999999999996
 30
0
 11
1
 21
71
 31
0
  0
LINE
  8
1
 62
7
 10
120.9
 20
27.50000000000001
 30
0
 11
107.8999999999999
 21
27.50000000000001
 31
0
  0
LINE
  8
1
 62
7
 10
120.9
 20
29.00000000000001
 30
0
 11
120.9
 21
15
 31
0
  0
LINE
  8
1
 62
7
 10
120.9
 20
15
 30
0
 11
107.9
 21
15
 31
0
  0
LINE
  8
1
 62
7
 10
132.4
 20
-26.99999999999996
 30
0
 11
132.4
 21
-53.85000000000009
 31
0
  0
LINE
  8
1
 62
7
 10
122.9
 20
-26.99999999999996
 30
0
 11
122.9
 21
-20.49999999999999
 31
0
  0
LINE
  8
1
 62
7
 10
122.9
 20
53.84999999999991
 30
0
 11
122.9
 21
56.50000000000001
 31
0
  0
LINE
  8
1
 62
7
 10
132.4
 20
27.00000000000001
 30
0
 11
132.4
 21
53.84999999999991
 31
0
  0
LINE
  8
1
 62
3
  6
DASHDOT
 10
-0.4813117259483874
 20
65
 30
0
 11
5.093311113613595
 21
65
 31
0
  0
LINE
  8
1
 62
3
  6
DASHDOT
 10
-114.4867953678487
 20
69.119742119511
 30
0
 11
-114.4867953678487
 21
60.8802578804891
 31
0
  0
LINE
  8
1
 62
3
  6
DASHDOT
 10
-110.3670532483378
 20
65
 30
0
 11
-118.6065374873598
 21
65
 31
0
  0
LINE
  8
1
 62
7
 10
-106.4867953678488
 20
69
 30
0
 11
-106.4867953678488
 21
47.89832982474445
 31
0
  0
LINE
  8
1
 62
7
 10
-120.4867953678487
 20
71
 30
0
 11
-108.4867953678488
 21
71
 31
0
  0
LINE
  8
1
 62
7
 10
-122.4867953678487
 20
69
 30
0
 11
-122.4867953678487
 21
47.89832982474445
 31
0
  0
LINE
  8
1
 62
7
 10
-128.2947914240683
 20
51.53214283252181
 30
0
 11
-135.153357951339
 21
77.1286615793879
 31
0
  0
LINE
  8
1
 62
3
  6
DASHDOT
 10
-114.4867953678487
 20
-5.872358899922723
 30
0
 11
-114.4867953678487
 21
5.872358899922801
 31
0
  0
LINE
  8
1
 62
3
  6
DASHDOT
 10
-108.614436467926
 20
4.263256414560601e-014
 30
0
 11
-120.3591542677715
 21
4.263256414560601e-014
 31
0
  0
LINE
  8
1
 62
7
 10
-125.8648080857328
 20
52.12257981519788
 30
0
 11
-132.7385433856165
 21
77.77570919214421
 31
0
  0
LINE
  8
1
 62
7
 10
-130.694437217178
 20
50.82848458968535
 30
0
 11
-137.5681725170619
 21
76.4816139666316
 31
0
  0
LINE
  8
1
 62
7
 10
-137.5681725170619
 20
76.4816139666316
 30
0
 11
-132.7385433856165
 21
77.77570919214421
 31
0
  0
LINE
  8
1
 62
7
 10
-135.7635953179584
 20
76.965148969811
 30
0
 11
-136.5444307959927
 21
79.86175327528041
 31
0
  0
LINE
  8
1
 62
7
 10
-136.2364743969426
 20
76.8384414024796
 30
0
 11
-137.0236225917101
 21
79.7333542205983
 31
0
  0
LINE
  8
1
 62
7
 10
-136.728291626126
 20
76.7066593730962
 30
0
 11
-137.5028143874272
 21
79.6049551659162
 31
0
  0
LINE
  8
1
 62
7
 10
-135.3151993773006
 20
80.19112484122989
 30
0
 11
-134.54312058472
 21
77.29217418896479
 31
0
  0
LINE
  8
1
 62
7
 10
-134.8360075815835
 20
80.3195238959119
 30
0
 11
-134.0702415057357
 21
77.4188817562962
 31
0
  0
LINE
  8
1
 62
7
 10
-134.3568157858661
 20
80.44792295059401
 30
0
 11
-133.5784242765522
 21
77.5506637856796
 31
0
  0
LINE
  8
1
 62
7
 10
18
 20
56.50000000000001
 30
0
 11
18
 21
-56.49999999999996
 31
0
  0
LINE
  8
1
 62
7
 10
30.16794919243109
 20
56.49999999999999
 30
0
 11
30.16794919243109
 21
-56.49999999999996
 31
0
  0
LINE
  8
1
 62
7
 10
31.9
 20
-53.49999999999996
 30
0
 11
31.9
 21
53.50000000000001
 31
0
  0
LINE
  8
1
 62
7
 10
18
 20
-53.34999999999997
 30
0
 11
9
 21
-53.34999999999997
 31
0
  0
LINE
  8
1
 62
3
  6
DASHDOT
 10
1
 20
0
 30
0
 11
-4
 21
0
 31
0
  0
LINE
  8
1
 62
7
 10
9
 20
53.35000000000004
 30
0
 11
18
 21
53.35000000000004
 31
0
  0
LINE
  8
1
 62
7
 10
3.012012890321813
 20
71
 30
0
 11
1
 21
71
 31
0
  0
LINE
  8
1
 62
7
 10
1
 20
-42.49999999999996
 30
0
 11
3
 21
-42.49999999999996
 31
0
  0
LINE
  8
1
 62
7
 10
18
 20
56.50000000000001
 30
0
 11
30.16794919243109
 21
56.49999999999999
 31
0
  0
LINE
  8
1
 62
7
 10
30.16794919243109
 20
56.49999999999999
 30
0
 11
31.9
 21
53.50000000000001
 31
0
  0
LINE
  8
1
 62
7
 10
31.9
 20
53.50000000000001
 30
0
 11
33.4
 21
53.50000000000001
 31
0
  0
LINE
  8
1
 62
7
 10
33.4
 20
53.50000000000001
 30
0
 11
33.4
 21
-53.50000000000006
 31
0
  0
LINE
  8
1
 62
7
 10
33.4
 20
-53.50000000000006
 30
0
 11
31.9
 21
-53.49999999999996
 31
0
  0
LINE
  8
1
 62
7
 10
31.9
 20
-53.49999999999996
 30
0
 11
30.16794919243109
 21
-56.49999999999996
 31
0
  0
LINE
  8
1
 62
7
 10
30.16794919243109
 20
-56.49999999999996
 30
0
 11
18
 21
-56.49999999999996
 31
0
  0
LINE
  8
1
 62
7
 10
10.75
 20
77.9959078761531
 30
0
 11
10.75
 21
53.35000000000004
 31
0
  0
LINE
  8
1
 62
7
 10
13.25
 20
77.9959078761531
 30
0
 11
13.25
 21
53.35000000000004
 31
0
  0
LINE
  8
1
 62
7
 10
10.75
 20
77.9959078761531
 30
0
 11
13.25
 21
77.9959078761531
 31
0
  0
LINE
  8
1
 62
7
 10
11.68754871680559
 20
80.19112484122989
 30
0
 11
11.68754871680559
 21
77.9959078761531
 31
0
  0
LINE
  8
1
 62
7
 10
11.3151188041096
 20
80.19112484122989
 30
0
 11
11.3151188041096
 21
77.9959078761531
 31
0
  0
LINE
  8
1
 62
7
 10
12.31245128319449
 20
77.9959078761531
 30
0
 11
12.31245128319449
 21
80.19112484122989
 31
0
  0
LINE
  8
1
 62
7
 10
12.6848811958904
 20
77.9959078761531
 30
0
 11
12.6848811958904
 21
80.19112484122989
 31
0
  0
LINE
  8
1
 62
3
  6
DASHDOT
 10
105.9
 20
0
 30
0
 11
100.9
 21
0
 31
0
  0
LINE
  8
1
 62
7
 10
275.9368484553405
 20
77.1286615793879
 30
0
 11
269.8935619201426
 21
54.5748091853324
 31
0
  0
LINE
  8
1
 62
3
  6
DASHDOT
 10
255.2702858718501
 20
-30.96910979465186
 30
0
 11
255.2702858718501
 21
-45.50697548819086
 31
0
  0
LINE
  8
1
 62
3
  6
DASHDOT
 10
255.2702858718501
 20
69.196027456731
 30
0
 11
255.2702858718501
 21
60.8039725432691
 31
0
  0
LINE
  8
1
 62
3
  6
DASHDOT
 10
259.4663133285811
 20
65
 30
0
 11
251.0742584151192
 21
65
 31
0
  0
LINE
  8
1
 62
3
  6
DASHDOT
 10
255.2702858718501
 20
5.872358899922801
 30
0
 11
255.2702858718501
 21
-5.872358899922723
 31
0
  0
LINE
  8
1
 62
3
  6
DASHDOT
 10
261.1426447717729
 20
4.263256414560601e-014
 30
0
 11
249.3979269719274
 21
4.263256414560601e-014
 31
0
  0
LINE
  8
1
 62
7
 10
252.2702858718501
 20
12.80000000000005
 30
0
 11
252.2702858718501
 21
9.539392014169492
 31
0
  0
LINE
  8
1
 62
7
 10
258.2702858718501
 20
12.80000000000005
 30
0
 11
258.2702858718501
 21
9.539392014169492
 31
0
  0
LINE
  8
1
 62
7
 10
252.2702858718501
 20
12.80000000000005
 30
0
 11
258.2702858718501
 21
12.80000000000005
 31
0
  0
LINE
  8
1
 62
7
 10
247.2702858718501
 20
55.93076076722008
 30
0
 11
247.2702858718501
 21
69
 31
0
  0
LINE
  8
1
 62
7
 10
263.2702858718501
 20
55.93076076722008
 30
0
 11
263.2702858718501
 21
69
 31
0
  0
LINE
  8
1
 62
7
 10
273.5220338896178
 20
77.77570919214421
 30
0
 11
267.4644251280611
 21
55.16840552164018
 31
0
  0
LINE
  8
1
 62
7
 10
278.3516630210631
 20
76.4816139666316
 30
0
 11
272.2940542595064
 21
53.87431029612759
 31
0
  0
LINE
  8
1
 62
7
 10
273.5220338896178
 20
77.77570919214421
 30
0
 11
278.3516630210631
 21
76.4816139666316
 31
0
  0
LINE
  8
1
 62
3
  6
DASHDOT
 10
215.990338613302
 20
22.67828812347709
 30
0
 11
228.6671621424487
 21
15.35932064645487
 31
0
  0
LINE
  8
1
 62
7
 10
277.327921299994
 20
79.86175327528041
 30
0
 11
276.5470858219597
 21
76.965148969811
 31
0
  0
LINE
  8
1
 62
7
 10
277.8071130957113
 20
79.7333542205983
 30
0
 11
277.0199649009439
 21
76.8384414024796
 31
0
  0
LINE
  8
1
 62
7
 10
278.2863048914286
 20
79.6049551659162
 30
0
 11
277.5117821301273
 21
76.7066593730962
 31
0
  0
LINE
  8
1
 62
7
 10
275.3266110887212
 20
77.29217418896479
 30
0
 11
276.098689881302
 21
80.19112484122989
 31
0
  0
LINE
  8
1
 62
7
 10
274.8537320097371
 20
77.4188817562962
 30
0
 11
275.6194980855847
 21
80.3195238959119
 31
0
  0
LINE
  8
1
 62
7
 10
274.3619147805536
 20
77.5506637856796
 30
0
 11
275.1403062898675
 21
80.44792295059401
 31
0
  0
LINE
  8
1
 62
7
 10
261.2702858718501
 20
71
 30
0
 11
249.2702858718501
 21
71
 31
0
  0
LINE
  8
1
 62
7
 10
122.4
 20
27.50000000000001
 30
0
 11
129.9
 21
27.50000000000001
 31
0
  0
LINE
  8
1
 62
7
 10
129.9
 20
27.50000000000001
 30
0
 11
129.9
 21
53.35000000000004
 31
0
  0
LINE
  8
1
 62
7
 10
122.4
 20
-27.49999999999996
 30
0
 11
129.9
 21
-27.49999999999996
 31
0
  0
LINE
  8
1
 62
7
 10
113.9
 20
53.35000000000004
 30
0
 11
129.9
 21
53.35000000000004
 31
0
  0
LINE
  8
1
 62
7
 10
129.9
 20
-53.35000000000011
 30
0
 11
113.9
 21
-53.35
 31
0
  0
LINE
  8
1
 62
7
 10
107.9
 20
71
 30
0
 11
105.9
 21
71
 31
0
  0
LINE
  8
1
 62
3
  6
DASHDOT
 10
104.8477315230998
 20
65
 30
0
 11
108.9484609998234
 21
65
 31
0
  0
LINE
  8
1
 62
7
 10
105.9
 20
24.50000000000001
 30
0
 11
107.8999999999999
 21
24.5
 31
0
  0
LINE
  8
1
 62
7
 10
105.9
 20
-24.49999999999999
 30
0
 11
107.9
 21
-24.49999999999999
 31
0
  0
LINE
  8
1
 62
7
 10
105.9
 20
-42.49999999999996
 30
0
 11
107.9
 21
-42.49999999999996
 31
0
  0
LINE
  8
1
 62
7
 10
120.9
 20
20.50000000000001
 30
0
 11
122.9
 21
20.50000000000001
 31
0
  0
LINE
  8
1
 62
7
 10
122.9
 20
20.50000000000001
 30
0
 11
122.9
 21
27.00000000000001
 31
0
  0
LINE
  8
1
 62
7
 10
122.9
 20
27.00000000000001
 30
0
 11
132.4
 21
27.00000000000001
 31
0
  0
LINE
  8
1
 62
7
 10
132.4
 20
53.84999999999991
 30
0
 11
122.9
 21
53.84999999999991
 31
0
  0
LINE
  8
1
 62
7
 10
122.9
 20
56.50000000000001
 30
0
 11
135.0679491924311
 21
56.49999999999999
 31
0
  0
LINE
  8
1
 62
7
 10
135.0679491924311
 20
56.49999999999999
 30
0
 11
136.8
 21
53.50000000000001
 31
0
  0
LINE
  8
1
 62
7
 10
136.8
 20
53.50000000000001
 30
0
 11
138.3
 21
53.50000000000001
 31
0
  0
LINE
  8
1
 62
7
 10
138.3
 20
53.50000000000001
 30
0
 11
138.3
 21
-53.50000000000006
 31
0
  0
LINE
  8
1
 62
7
 10
138.3
 20
27.00000000000001
 30
0
 11
136
 21
27.00000000000001
 31
0
  0
LINE
  8
1
 62
7
 10
136
 20
27.00000000000001
 30
0
 11
136
 21
23.50000000000001
 31
0
  0
LINE
  8
1
 62
7
 10
137.9
 20
-23.49999999999999
 30
0
 11
136
 21
-23.49999999999999
 31
0
  0
LINE
  8
1
 62
7
 10
136
 20
-23.49999999999999
 30
0
 11
136
 21
-26.99999999999999
 31
0
  0
LINE
  8
1
 62
7
 10
136
 20
-26.99999999999999
 30
0
 11
138.3
 21
-26.99999999999999
 31
0
  0
LINE
  8
1
 62
7
 10
138.3
 20
-53.50000000000006
 30
0
 11
136.8
 21
-53.49999999999996
 31
0
  0
LINE
  8
1
 62
7
 10
136.8
 20
-53.49999999999996
 30
0
 11
135.0679491924311
 21
-56.49999999999996
 31
0
  0
LINE
  8
1
 62
7
 10
135.0679491924311
 20
-56.49999999999996
 30
0
 11
122.9
 21
-56.49999999999996
 31
0
  0
LINE
  8
1
 62
7
 10
122.9
 20
-56.49999999999996
 30
0
 11
122.9
 21
-53.85000000000009
 31
0
  0
LINE
  8
1
 62
7
 10
122.9
 20
-53.85000000000009
 30
0
 11
132.4
 21
-53.85000000000009
 31
0
  0
LINE
  8
1
 62
7
 10
132.4
 20
-26.99999999999996
 30
0
 11
122.9
 21
-26.99999999999996
 31
0
  0
LINE
  8
1
 62
7
 10
122.9
 20
-20.49999999999999
 30
0
 11
120.9
 21
-20.49999999999999
 31
0
  0
LINE
  8
1
 62
7
 10
129.9
 20
-27.49999999999996
 30
0
 11
129.9
 21
-53.35000000000011
 31
0
  0
LINE
  8
1
 62
7
 10
105.9
 20
-42.49999999999996
 30
0
 11
105.9
 21
71
 31
0
  0
LINE
  8
1
 62
7
 10
120.9
 20
-28.99999999999996
 30
0
 11
122.4
 21
-28.99999999999996
 31
0
  0
LINE
  8
1
 62
7
 10
120.9
 20
23.89999999999998
 30
0
 11
122.4
 21
23.89999999999998
 31
0
  0
LINE
  8
1
 62
7
 10
120.9
 20
-22.49999999999999
 30
0
 11
122.4
 21
-22.49999999999999
 31
0
  0
LINE
  8
1
 62
7
 10
122.4
 20
29.00000000000001
 30
0
 11
122.4
 21
23.31100000000008
 31
0
  0
LINE
  8
1
 62
7
 10
122.4
 20
29.00000000000001
 30
0
 11
120.9
 21
29.00000000000001
 31
0
  0
LINE
  8
1
 62
7
 10
122.4
 20
-21.93699999999999
 30
0
 11
122.4
 21
-28.99999999999996
 31
0
  0
LINE
  8
1
 62
7
 10
107.9064055635585
 20
12.80000000000005
 30
0
 11
137.9
 21
12.80000000000005
 31
0
  0
LINE
  8
1
 62
7
 10
137.9
 20
23.50000000000001
 30
0
 11
137.9
 21
-23.49999999999999
 31
0
  0
LINE
  8
1
 62
7
 10
107.9064055635585
 20
-9.999999999999989
 30
0
 11
137.9064055635585
 21
-9.999999999999989
 31
0
  0
LINE
  8
1
 62
7
 10
136
 20
23.50000000000001
 30
0
 11
137.9
 21
23.50000000000001
 31
0
  0
LINE
  8
1
 62
7
 10
115.65
 20
77.9959078761531
 30
0
 11
115.65
 21
53.35
 31
0
  0
LINE
  8
1
 62
7
 10
118.15
 20
77.9959078761531
 30
0
 11
118.15
 21
53.35
 31
0
  0
LINE
  8
1
 62
7
 10
115.65
 20
77.9959078761531
 30
0
 11
118.15
 21
77.9959078761531
 31
0
  0
LINE
  8
1
 62
7
 10
116.5875487168055
 20
80.19112484122989
 30
0
 11
116.5875487168055
 21
77.9959078761531
 31
0
  0
LINE
  8
1
 62
7
 10
116.2151188041096
 20
80.19112484122989
 30
0
 11
116.2151188041096
 21
77.9959078761531
 31
0
  0
LINE
  8
1
 62
7
 10
117.2124512831945
 20
77.9959078761531
 30
0
 11
117.2124512831945
 21
80.19112484122989
 31
0
  0
LINE
  8
1
 62
7
 10
117.5848811958904
 20
77.9959078761531
 30
0
 11
117.5848811958904
 21
80.19112484122989
 31
0
  0
LINE
  8
1
 62
3
  6
DASHDOT
 10
282.3133988258014
 20
15.61334854368922
 30
0
 11
294.378374250197
 21
22.57906535273025
 31
0
  0
LINE
  8
1
 62
7
 10
120.9
 20
-15
 30
0
 11
120.9
 21
-28.99999999999996
 31
0
  0
LINE
  8
1
 62
7
 10
107.9
 20
-27.49999999999996
 30
0
 11
120.9
 21
-27.49999999999996
 31
0
  0
LINE
  8
1
 62
7
 10
120.9
 20
-15
 30
0
 11
107.9
 21
-15
 31
0
  0
LINE
  8
1
 62
7
 10
137.9
 20
9.999999999999989
 30
0
 11
107.9064055635585
 21
9.999999999999989
 31
0
  0
LINE
  8
1
 62
7
 10
112.4245649213401
 20
18.0625
 30
0
 11
107.9
 21
18.0625
 31
0
  0
LINE
  8
1
 62
7
 10
116.3754350786599
 20
18.0625
 30
0
 11
120.9
 21
18.0625
 31
0
  0
LINE
  8
1
 62
7
 10
112.4245649213401
 20
24.4375
 30
0
 11
107.9
 21
24.4375
 31
0
  0
LINE
  8
1
 62
7
 10
116.3754350786599
 20
24.4375
 30
0
 11
120.9
 21
24.4375
 31
0
  0
LINE
  8
1
 62
7
 10
119.525
 20
25.203125
 30
0
 11
119.525
 21
17.296875
 31
0
  0
LINE
  8
1
 62
7
 10
109.275
 20
25.203125
 30
0
 11
109.275
 21
17.296875
 31
0
  0
LINE
  8
1
 62
7
 10
112.4245649213401
 20
-18.0625
 30
0
 11
107.9
 21
-18.0625
 31
0
  0
LINE
  8
1
 62
7
 10
116.3754350786599
 20
-18.0625
 30
0
 11
120.9
 21
-18.0625
 31
0
  0
LINE
  8
1
 62
7
 10
112.4245649213401
 20
-24.4375
 30
0
 11
107.9
 21
-24.4375
 31
0
  0
LINE
  8
1
 62
7
 10
116.3754350786599
 20
-24.4375
 30
0
 11
120.9
 21
-24.4375
 31
0
  0
LINE
  8
1
 62
7
 10
119.525
 20
-25.203125
 30
0
 11
119.525
 21
-17.296875
 31
0
  0
LINE
  8
1
 62
7
 10
109.275
 20
-25.203125
 30
0
 11
109.275
 21
-17.296875
 31
0
  0
LINE
  8
1
 62
3
  6
DASHDOT
 10
155.678601444535
 20
-38.00000000000011
 30
0
 11
138.4735911580449
 21
-38.00000000000011
 31
0
  0
LINE
  8
1
 62
7
 10
146.4
 20
-40.50000000000011
 30
0
 11
146.4
 21
-43.50000000000011
 31
0
  0
LINE
  8
1
 62
7
 10
146.4
 20
-32.50000000000011
 30
0
 11
146.4
 21
-35.50000000000011
 31
0
  0
LINE
  8
1
 62
7
 10
138.5
 20
53.99999999999994
 30
0
 11
138.5
 21
-54.00000000000011
 31
0
  0
LINE
  8
1
 62
7
 10
138.5
 20
53.99999999999994
 30
0
 11
142.5
 21
53.99999999999994
 31
0
  0
LINE
  8
1
 62
7
 10
142.5
 20
53.99999999999994
 30
0
 11
142.5
 21
37.99999999999994
 31
0
  0
LINE
  8
1
 62
7
 10
142.5
 20
37.99999999999994
 30
0
 11
143.2
 21
37.99999999999994
 31
0
  0
LINE
  8
1
 62
7
 10
143.2
 20
37.99999999999994
 30
0
 11
143.2
 21
-53.00000000000011
 31
0
  0
LINE
  8
1
 62
7
 10
138.5
 20
26.49999999999994
 30
0
 11
143.2000000000001
 21
26.49999999999994
 31
0
  0
LINE
  8
1
 62
7
 10
142.5
 20
52.99999999999994
 30
0
 11
143.1
 21
52.99999999999994
 31
0
  0
LINE
  8
1
 62
7
 10
143.1
 20
52.99999999999994
 30
0
 11
143.1
 21
40.54136836602146
 31
0
  0
LINE
  8
1
 62
7
 10
143.1
 20
40.54136836602146
 30
0
 11
143.8
 21
37.99999999999994
 31
0
  0
LINE
  8
1
 62
7
 10
142.5
 20
40.6124355652982
 30
0
 11
143.2
 21
37.99999999999994
 31
0
  0
LINE
  8
1
 62
7
 10
143.1
 20
42.99999999999994
 30
0
 11
144.9
 21
42.99999999999994
 31
0
  0
LINE
  8
1
 62
7
 10
143.1
 20
51.99999999999994
 30
0
 11
144.9
 21
51.99999999999994
 31
0
  0
LINE
  8
1
 62
7
 10
143.8
 20
51.99999999999994
 30
0
 11
143.8
 21
42.99999999999994
 31
0
  0
LINE
  8
1
 62
7
 10
142.5
 20
41.99999999999994
 30
0
 11
143.1
 21
41.99999999999994
 31
0
  0
LINE
  8
1
 62
7
 10
143.8
 20
37.99999999999994
 30
0
 11
143.8000000000001
 21
-35.50000000000011
 31
0
  0
LINE
  8
1
 62
7
 10
143.2000000000001
 20
-26.50000000000006
 30
0
 11
138.5
 21
-26.50000000000006
 31
0
  0
LINE
  8
1
 62
7
 10
142.5
 20
-54.00000000000011
 30
0
 11
138.5
 21
-54.00000000000011
 31
0
  0
LINE
  8
1
 62
7
 10
143.2
 20
-53.00000000000011
 30
0
 11
143.8
 21
-53.00000000000011
 31
0
  0
LINE
  8
1
 62
7
 10
138.5
 20
-32.75000000000011
 30
0
 11
143.2
 21
-32.75000000000011
 31
0
  0
LINE
  8
1
 62
7
 10
138.5
 20
-43.25000000000011
 30
0
 11
142.5
 21
-43.25000000000011
 31
0
  0
LINE
  8
1
 62
7
 10
143.8000000000001
 20
-40.50000000000011
 30
0
 11
143.8
 21
-53.00000000000011
 31
0
  0
LINE
  8
1
 62
7
 10
143.8000000000001
 20
-32.50000000000011
 30
0
 11
146.4
 21
-32.50000000000011
 31
0
  0
LINE
  8
1
 62
7
 10
143.8000000000001
 20
-43.50000000000011
 30
0
 11
146.4
 21
-43.50000000000011
 31
0
  0
LINE
  8
1
 62
7
 10
143.2
 20
-30.00000000000011
 30
0
 11
143.8
 21
-30.00000000000011
 31
0
  0
LINE
  8
1
 62
3
  6
DASHDOT
 10
148.8000000000001
 20
0
 30
0
 11
143.8000000000001
 21
-5.684341886080802e-014
 31
0
  0
LINE
  8
1
 62
3
  6
DASHDOT
 10
50.77860144453501
 20
-38.00000000000011
 30
0
 11
33.6735911580448
 21
-38.00000000000006
 31
0
  0
LINE
  8
1
 62
7
 10
48.90000000000011
 20
-35.50000000000011
 30
0
 11
41.50000000000001
 21
-35.50000000000011
 31
0
  0
LINE
  8
1
 62
7
 10
33.59999999999999
 20
54
 30
0
 11
33.59999999999999
 21
-54.00000000000006
 31
0
  0
LINE
  8
1
 62
7
 10
33.59999999999999
 20
54
 30
0
 11
37.6
 21
53.99999999999994
 31
0
  0
LINE
  8
1
 62
7
 10
38.30000000000002
 20
37.99999999999994
 30
0
 11
38.30000000000002
 21
-53.00000000000011
 31
0
  0
LINE
  8
1
 62
7
 10
37.6
 20
52.99999999999994
 30
0
 11
38.20000000000001
 21
52.99999999999994
 31
0
  0
LINE
  8
1
 62
7
 10
38.20000000000001
 20
52.99999999999994
 30
0
 11
38.20000000000001
 21
40.54136836602146
 31
0
  0
LINE
  8
1
 62
7
 10
38.20000000000001
 20
40.54136836602146
 30
0
 11
38.90000000000011
 21
37.99999999999994
 31
0
  0
LINE
  8
1
 62
7
 10
37.6
 20
40.6124355652982
 30
0
 11
38.30000000000002
 21
37.99999999999994
 31
0
  0
LINE
  8
1
 62
7
 10
40.50000000000001
 20
51.49999999999994
 30
0
 11
40.50000000000001
 21
43.49999999999994
 31
0
  0
LINE
  8
1
 62
7
 10
38.20000000000001
 20
42.99999999999994
 30
0
 11
40.00000000000001
 21
42.99999999999994
 31
0
  0
LINE
  8
1
 62
7
 10
38.20000000000001
 20
51.99999999999994
 30
0
 11
40.00000000000001
 21
51.99999999999994
 31
0
  0
LINE
  8
1
 62
7
 10
38.90000000000011
 20
51.99999999999994
 30
0
 11
38.90000000000011
 21
42.99999999999994
 31
0
  0
LINE
  8
1
 62
7
 10
40.50000000000001
 20
51.49999999999994
 30
0
 11
40.00000000000001
 21
51.99999999999994
 31
0
  0
LINE
  8
1
 62
7
 10
40.50000000000001
 20
43.49999999999994
 30
0
 11
40.00000000000001
 21
42.99999999999994
 31
0
  0
LINE
  8
1
 62
7
 10
37.6
 20
-54.00000000000011
 30
0
 11
33.59999999999999
 21
-54.00000000000006
 31
0
  0
LINE
  8
1
 62
7
 10
38.30000000000002
 20
-53.00000000000011
 30
0
 11
38.90000000000011
 21
-53.00000000000011
 31
0
  0
LINE
  8
1
 62
7
 10
37.6
 20
53.99999999999994
 30
0
 11
37.6
 21
-54.00000000000011
 31
0
  0
LINE
  8
1
 62
7
 10
48.90000000000011
 20
-40.50000000000011
 30
0
 11
49.70000000000001
 21
-39.7000000000001
 31
0
  0
LINE
  8
1
 62
7
 10
49.70000000000001
 20
-39.7000000000001
 30
0
 11
49.70000000000001
 21
-36.30000000000013
 31
0
  0
LINE
  8
1
 62
7
 10
49.70000000000001
 20
-36.30000000000013
 30
0
 11
48.90000000000011
 21
-35.50000000000011
 31
0
  0
LINE
  8
1
 62
7
 10
48.90000000000011
 20
-40.50000000000011
 30
0
 11
48.90000000000011
 21
-35.50000000000011
 31
0
  0
LINE
  8
1
 62
7
 10
38.90000000000011
 20
-32.50000000000011
 30
0
 11
41.50000000000001
 21
-32.50000000000011
 31
0
  0
LINE
  8
1
 62
7
 10
38.90000000000011
 20
-43.50000000000011
 30
0
 11
41.50000000000001
 21
-43.50000000000011
 31
0
  0
LINE
  8
1
 62
7
 10
38.90000000000011
 20
37.99999999999994
 30
0
 11
38.90000000000011
 21
-53.00000000000011
 31
0
  0
LINE
  8
1
 62
3
  6
DASHDOT
 10
43.90000000000011
 20
0
 30
0
 11
38.90000000000011
 21
-5.684341886080802e-014
 31
0
  0
LINE
  8
1
 62
3
 10
41.50000000000001
 20
-36.30000000000013
 30
0
 11
49.70000000000001
 21
-36.30000000000013
 31
0
  0
LINE
  8
1
 62
3
 10
41.50000000000001
 20
-39.7000000000001
 30
0
 11
49.70000000000001
 21
-39.7000000000001
 31
0
  0
LINE
  8
1
 62
7
 10
41.50000000000001
 20
-40.50000000000011
 30
0
 11
48.90000000000011
 21
-40.50000000000011
 31
0
  0
LINE
  8
1
 62
7
 10
41.50000000000001
 20
-32.50000000000011
 30
0
 11
41.50000000000001
 21
-43.50000000000011
 31
0
  0
LINE
  8
1
 62
7
 10
37.6
 20
37.99999999999994
 30
0
 11
38.30000000000002
 21
37.99999999999994
 31
0
  0
LINE
  8
1
 62
7
 10
145.4
 20
43.49999999999994
 30
0
 11
145.4
 21
51.49999999999994
 31
0
  0
LINE
  8
1
 62
7
 10
145.4
 20
51.49999999999994
 30
0
 11
144.9
 21
51.99999999999994
 31
0
  0
LINE
  8
1
 62
7
 10
145.4
 20
50.99999999999994
 30
0
 11
145.4
 21
51.49999999999994
 31
0
  0
LINE
  8
1
 62
7
 10
145.4
 20
51.49999999999994
 30
0
 11
144.9
 21
51.99999999999994
 31
0
  0
LINE
  8
1
 62
7
 10
145.4
 20
43.49999999999994
 30
0
 11
144.9
 21
42.99999999999994
 31
0
  0
LINE
  8
1
 62
7
 10
145.4
 20
43.49999999999994
 30
0
 11
144.9
 21
42.99999999999994
 31
0
  0
LINE
  8
1
 62
7
 10
143.2000000000001
 20
-42.50000000000011
 30
0
 11
142.6000000000001
 21
-42.50000000000011
 31
0
  0
LINE
  8
1
 62
7
 10
142.6000000000001
 20
-33.50000000000011
 30
0
 11
143.2000000000001
 21
-33.50000000000011
 31
0
  0
LINE
  8
1
 62
7
 10
142.6000000000001
 20
-33.25000000000011
 30
0
 11
142.1000000000001
 21
-33.25000000000011
 31
0
  0
LINE
  8
1
 62
7
 10
142.1000000000001
 20
-33.25000000000011
 30
0
 11
142.1000000000001
 21
-42.75000000000011
 31
0
  0
LINE
  8
1
 62
7
 10
142.1000000000001
 20
-42.75000000000011
 30
0
 11
142.6000000000001
 21
-42.75000000000011
 31
0
  0
LINE
  8
1
 62
7
 10
142.6000000000001
 20
-42.75000000000011
 30
0
 11
142.6000000000001
 21
-33.25000000000011
 31
0
  0
LINE
  8
1
 62
7
 10
139.05
 20
-35.50000000000011
 30
0
 11
139.05
 21
-40.50000000000011
 31
0
  0
LINE
  8
1
 62
7
 10
154.0000000000001
 20
-35.50000000000011
 30
0
 11
154.6000000000001
 21
-36.10000000000011
 31
0
  0
LINE
  8
1
 62
7
 10
154.6000000000001
 20
-36.10000000000011
 30
0
 11
154.6000000000001
 21
-39.90000000000012
 31
0
  0
LINE
  8
1
 62
7
 10
154.6000000000001
 20
-39.90000000000012
 30
0
 11
154.0000000000001
 21
-40.50000000000011
 31
0
  0
LINE
  8
1
 62
7
 10
154.0000000000001
 20
-40.50000000000011
 30
0
 11
143.2000000000001
 21
-40.50000000000011
 31
0
  0
LINE
  8
1
 62
7
 10
154.0000000000001
 20
-35.50000000000011
 30
0
 11
154.0000000000001
 21
-40.50000000000011
 31
0
  0
LINE
  8
1
 62
3
 10
154.6000000000001
 20
-36.10000000000011
 30
0
 11
144.1392304845414
 21
-36.10000000000011
 31
0
  0
LINE
  8
1
 62
3
 10
144.1392304845414
 20
-36.10000000000011
 30
0
 11
143.2000000000001
 21
-35.55773502691909
 31
0
  0
LINE
  8
1
 62
3
 10
154.6000000000001
 20
-39.90000000000012
 30
0
 11
144.1392304845414
 21
-39.90000000000012
 31
0
  0
LINE
  8
1
 62
3
 10
144.1392304845414
 20
-39.90000000000012
 30
0
 11
143.2000000000001
 21
-40.44226497308117
 31
0
  0
LINE
  8
1
 62
3
 10
144.1392304845414
 20
-35.50000000000011
 30
0
 11
144.1392304845414
 21
-40.50000000000011
 31
0
  0
LINE
  8
1
 62
7
 10
142.5
 20
-43.25000000000011
 30
0
 11
142.5
 21
-54.00000000000011
 31
0
  0
LINE
  8
1
 62
7
 10
143.2000000000001
 20
-35.50000000000011
 30
0
 11
154.0000000000001
 21
-35.50000000000011
 31
0
  0
ARC
  8
1
 62
7
 10
-114.4867953678487
 20
4.263256414560601e-014
 30
0
 40
9.999999999999993
 50
107.4576031237221
 51
72.54239687627791
  0
ARC
  8
1
 62
7
 10
255.2702858718501
 20
4.263256414560601e-014
 30
0
 40
9.999999999999993
 50
107.4576031237221
 51
72.54239687627791
  0
ARC
  8
1
 62
7
 10
-114.4867953678487
 20
4.263256414560601e-014
 30
0
 40
42.5
 50
108.4714263052566
 51
71.5285736947437
  0
ARC
  8
1
 62
7
 10
-114.4867953678487
 20
4.263256414560601e-014
 30
0
 40
56.50000000000006
 50
107.5360394802799
 51
81.8599678245748
  0
ARC
  8
1
 62
3
  6
DASHDOT
 10
255.2702858718501
 20
4.263256414560601e-014
 30
0
 40
37.99999999999994
 50
259.2391099239885
 51
280.481405104257
  0
ARC
  8
1
 62
3
  6
DASHDOT
 10
255.2702858718501
 20
4.263256414560601e-014
 30
0
 40
38.00000000000005
 50
19.08852550165121
 51
40.90817220318858
  0
ARC
  8
1
 62
3
  6
DASHDOT
 10
255.2702858718501
 20
4.263256414560601e-014
 30
0
 40
37.99999999999996
 50
137.632238980647
 51
163.2196347893793
  0
ARC
  8
1
 62
7
 10
261.2702858718501
 20
69
 30
0
 40
2
 50
0
 51
90
  0
ARC
  8
1
 62
7
 10
249.2702858718501
 20
69
 30
0
 40
2
 50
90
 51
180
  0
ARC
  8
1
 62
7
 10
255.2702858718501
 20
4.263256414560601e-014
 30
0
 40
52.99999999999996
 50
300.0000000000001
 51
359.9999999999999
  0
ARC
  8
1
 62
7
 10
271.9040025260304
 20
-23.75540928438069
 30
0
 40
13.00000000000001
 50
206.6112609121255
 51
304.9999999999996
  0
ARC
  8
1
 62
7
 10
255.2702858718501
 20
4.263256414560601e-014
 30
0
 40
30.00000000000006
 50
260.3849039049262
 51
279.6150960950737
  0
ARC
  8
1
 62
7
 10
238.6365692176698
 20
-23.75540928438075
 30
0
 40
13.00000000000001
 50
234.9999999999994
 51
333.3887390878741
  0
ARC
  8
1
 62
7
 10
255.2702858718501
 20
4.263256414560601e-014
 30
0
 40
41.99999999999999
 50
185
 51
234.9999999999999
  0
ARC
  8
1
 62
7
 10
255.2702858718501
 20
4.263256414560601e-014
 30
0
 40
53
 50
180
 51
240
  0
ARC
  8
1
 62
7
 10
226.3806396271895
 20
-2.527516539682047
 30
0
 40
13.00000000000004
 50
86.61126091212559
 51
184.9999999999999
  0
ARC
  8
1
 62
7
 10
255.2702858718501
 20
4.263256414560601e-014
 30
0
 40
30
 50
140.3849039049262
 51
159.6150960950737
  0
ARC
  8
1
 62
7
 10
243.0143562813699
 20
26.28292582406289
 30
0
 40
13.00000000000003
 50
115.0000000000001
 51
213.3887390878741
  0
ARC
  8
1
 62
7
 10
255.2702858718501
 20
4.263256414560601e-014
 30
0
 40
41.99999999999995
 50
304.9999999999999
 51
354.9999999999999
  0
ARC
  8
1
 62
7
 10
284.1599321165107
 20
-2.527516539682047
 30
0
 40
13.00000000000003
 50
354.9999999999996
 51
93.38873908787393
  0
ARC
  8
1
 62
7
 10
255.2702858718501
 20
4.263256414560601e-014
 30
0
 40
30.00000000000004
 50
20.3849039049261
 51
29.9999999999999
  0
ARC
  8
1
 62
7
 10
255.2702858718501
 20
4.263256414560601e-014
 30
0
 40
30.00000000000004
 50
20.3849039049261
 51
39.61509609507376
  0
ARC
  8
1
 62
7
 10
267.5262154623304
 20
26.2829258240629
 30
0
 40
12.99999999999997
 50
326.6112609121254
 51
65
  0
ARC
  8
1
 62
7
 10
255.2702858718501
 20
4.263256414560601e-014
 30
0
 40
42.00000000000001
 50
64.99999999999996
 51
114.9999999999999
  0
ARC
  8
1
 62
7
 10
269.2702858718501
 20
24.24871130596433
 30
0
 40
25.00000000000005
 50
8.381727577842929
 51
59.99999999999999
  0
ARC
  8
1
 62
7
 10
255.2702858718501
 20
4.263256414560601e-014
 30
0
 40
53.00000000000001
 50
60.00000000000001
 51
120
  0
ARC
  8
1
 62
7
 10
-98.4867953678488
 20
47.89832982474445
 30
0
 40
8
 50
180
 51
251.528573694743
  0
ARC
  8
1
 62
7
 10
-130.4867953678487
 20
47.89832982474445
 30
0
 40
8
 50
288.4714263052563
 51
0
  0
ARC
  8
1
 62
7
 10
-108.4867953678488
 20
69
 30
0
 40
2
 50
0
 51
90
  0
ARC
  8
1
 62
7
 10
-120.4867953678487
 20
69
 30
0
 40
2
 50
90
 51
180
  0
ARC
  8
1
 62
7
 10
9
 20
-47.34999999999997
 30
0
 40
6
 50
180
 51
270
  0
ARC
  8
1
 62
7
 10
9
 20
47.35000000000004
 30
0
 40
6
 50
90
 51
180
  0
ARC
  8
1
 62
7
 10
113.9
 20
-47.35000000000001
 30
0
 40
6
 50
180
 51
270
  0
ARC
  8
1
 62
7
 10
113.9
 20
-32.99999999999996
 30
0
 40
6.000000000000015
 50
113.5564643091017
 51
180
  0
ARC
  8
1
 62
7
 10
113.9
 20
47.34999999999999
 30
0
 40
6.00000000000005
 50
90
 51
180
  0
ARC
  8
1
 62
7
 10
113.9
 20
33.00000000000001
 30
0
 40
6
 50
180
 51
246.4435356908992
  0
ARC
  8
1
 62
7
 10
283.2702858718501
 20
7.105427357601002e-015
 30
0
 40
25.00000000000011
 50
359.9999999999997
 51
51.61827242215828
  0
ARC
  8
1
 62
7
 10
306.8644029534068
 20
29.78787738563784
 30
0
 40
12.99999999999994
 50
188.3817275778396
 51
231.6182724221579
  0
ARC
  8
1
 62
7
 10
227.2702858718501
 20
7.105427357601002e-015
 30
0
 40
24.99999999999994
 50
128.3817275778417
 51
179.9999999999999
  0
ARC
  8
1
 62
7
 10
203.6761687902934
 20
29.78787738563784
 30
0
 40
13.00000000000006
 50
308.3817275778421
 51
351.6182724221604
  0
ARC
  8
1
 62
7
 10
241.2702858718501
 20
24.24871130596433
 30
0
 40
25.00000000000004
 50
119.9999999999999
 51
171.6182724221571
  0
ARC
  8
1
 62
7
 10
269.2702858718502
 20
-24.24871130596424
 30
0
 40
25.00000000000002
 50
248.3817275778415
 51
299.9999999999998
  0
ARC
  8
1
 62
7
 10
255.2702858718501
 20
-59.57575477127563
 30
0
 40
13.00000000000003
 50
68.38172757784193
 51
111.6182724221604
  0
ARC
  8
1
 62
7
 10
241.2702858718501
 20
-24.24871130596426
 30
0
 40
25.00000000000004
 50
240
 51
291.618272422157
  0
ARC
  8
1
 62
7
 10
-114.4867953678487
 20
4.263256414560601e-014
 30
0
 40
56.5
 50
98.14003217542533
 51
102.4639605197205
  0
ARC
  8
1
 62
7
 10
-114.4867953678487
 20
4.263256414560601e-014
 30
0
 40
53.35000000000001
 50
98.62421094321529
 51
81.37578905678483
  0
ARC
  8
1
 62
7
 10
255.2702858718501
 20
4.263256414560601e-014
 30
0
 40
37.99999999999984
 50
288.7546569117427
 51
11.24534308825681
  0
ARC
  8
1
 62
7
 10
255.2702858718501
 20
4.263256414560601e-014
 30
0
 40
38.00000000000005
 50
48.75465691174309
 51
131.2453430882567
  0
ARC
  8
1
 62
7
 10
255.2702858718501
 20
4.263256414560601e-014
 30
0
 40
37.99999999999994
 50
168.7546569117432
 51
251.245343088257
  0
ARC
  8
1
 62
7
 10
143.449680289129
 20
-38.27178883637492
 30
0
 40
5.200000000000163
 50
105.0435939075576
 51
147.7891631322138
  0
ARC
  8
1
 62
7
 10
143.449680289129
 20
-37.7282111636253
 30
0
 40
5.200000000000198
 50
212.2108368677861
 51
254.9564060924424
  0
CIRCLE
  8
1
 62
7
 10
255.2702858718501
 20
4.263256414560601e-014
 30
0
 40
26.49999999999989
  0
CIRCLE
  8
1
 62
7
 10
-114.4867953678487
 20
4.263256414560601e-014
 30
0
 40
17.50000000000001
  0
CIRCLE
  8
1
 62
7
 10
-114.4867953678487
 20
4.263256414560601e-014
 30
0
 40
24.50000000000001
  0
CIRCLE
  8
1
 62
7
 10
-114.4867953678487
 20
65
 30
0
 40
3.25
  0
CIRCLE
  8
1
 62
7
 10
255.2702858718501
 20
4.263256414560601e-014
 30
0
 40
23.5
  0
CIRCLE
  8
1
 62
7
 10
255.2702858718501
 20
65
 30
0
 40
3.25
  0
CIRCLE
  8
1
 62
7
 10
255.2702858718501
 20
4.263256414560601e-014
 30
0
 40
54
  0
CIRCLE
  8
1
 62
7
 10
214.1340791920893
 20
-23.74999999999999
 30
0
 40
4.5
  0
CIRCLE
  8
1
 62
7
 10
222.3613205280415
 20
19.00000000000003
 30
0
 40
5.5
  0
CIRCLE
  8
1
 62
7
 10
222.3613205280415
 20
19.00000000000003
 30
0
 40
2
  0
CIRCLE
  8
1
 62
7
 10
222.3613205280415
 20
19.00000000000003
 30
0
 40
2.5
  0
CIRCLE
  8
1
 62
7
 10
288.1792512156588
 20
19
 30
0
 40
2
  0
CIRCLE
  8
1
 62
7
 10
288.1792512156588
 20
19
 30
0
 40
2.5
  0
CIRCLE
  8
1
 62
7
 10
288.1792512156588
 20
19
 30
0
 40
5.5
  0
CIRCLE
  8
1
 62
7
 10
296.406492551611
 20
-23.75
 30
0
 40
4.5
  0
CIRCLE
  8
1
 62
7
 10
214.1340791920893
 20
-23.74999999999999
 30
0
 40
4.5
  0
CIRCLE
  8
1
 62
7
 10
255.2702858718501
 20
-37.99999999999996
 30
0
 40
2.000000000000114
  0
CIRCLE
  8
1
 62
7
 10
255.2702858718501
 20
-37.99999999999996
 30
0
 40
2.5
  0
CIRCLE
  8
1
 62
7
 10
255.2702858718501
 20
-37.99999999999996
 30
0
 40
5.5
  0
CIRCLE
  8
1
 62
7
 10
222.3613205280415
 20
19.00000000000003
 30
0
 40
5.5
  0
CIRCLE
  8
1
 62
7
 10
255.2702858718501
 20
47.50000000000003
 30
0
 40
4.5
  0
CIRCLE
  8
1
 62
7
 10
255.2702858718501
 20
4.263256414560601e-014
 30
0
 40
56.5
  0
CIRCLE
  8
1
 62
7
 10
114.4
 20
21.25
 30
0
 40
3.75
  0
CIRCLE
  8
1
 62
7
 10
114.4
 20
-21.25
 30
0
 40
3.75
  0
TEXT
  8
1
 62
7
 10
-130.2367953678487
 20
137.4599013251446
 30
0
 40
7
  1
VCE 2.5
 41
0.9
  7
SIMPLEX
  0
TEXT
  8
1
 62
7
 10
-131.3085063453737
 20
124.6013464375196
 30
0
 40
7
  1
DC8103
 41
0.9
  7
SIMPLEX
  0
ENDSEC
  0
EOF
