  0
SECTION
  2
HEADER
  9
$ACADVER
  1
AC1009
  9
$INSBASE
 10
0.0
 20
0.0
 30
0.0
  9
$EXTMIN
 10
-102.324946575605
 20
-45.0
 30
0.0
  9
$EXTMAX
 10
184.87752582265139
 20
130.9039743433907
 30
0.0
  9
$LIMMIN
 10
-102.324946575605
 20
-45.0
  9
$LIMMAX
 10
183.004458863705
 20
130.9039743433907
  9
$ORTHOMODE
 70
     0
  9
$REGENMODE
 70
     1
  9
$FILLMODE
 70
     1
  9
$QTEXTMODE
 70
     0
  9
$MIRRTEXT
 70
     1
  9
$DRAGMODE
 70
     2
  9
$LTSCALE
 40
1.0
  9
$OSMODE
 70
    37
  9
$ATTMODE
 70
     1
  9
$TEXTSIZE
 40
3.5
  9
$TRACEWID
 40
0.5
  9
$TEXTSTYLE
  7
STANDARD
  9
$CLAYER
  8
0
  9
$CELTYPE
  6
BYLAYER
  9
$CECOLOR
 62
   256
  9
$DIMSCALE
 40
1.0
  9
$DIMASZ
 40
0.18
  9
$DIMEXO
 40
0.0625
  9
$DIMDLI
 40
0.38
  9
$DIMRND
 40
0.0
  9
$DIMDLE
 40
0.0
  9
$DIMEXE
 40
0.18
  9
$DIMTP
 40
0.0
  9
$DIMTM
 40
0.0
  9
$DIMTXT
 40
0.18
  9
$DIMCEN
 40
0.09
  9
$DIMTSZ
 40
0.0
  9
$DIMTOL
 70
     0
  9
$DIMLIM
 70
     0
  9
$DIMTIH
 70
     1
  9
$DIMTOH
 70
     1
  9
$DIMSE1
 70
     0
  9
$DIMSE2
 70
     0
  9
$DIMTAD
 70
     0
  9
$DIMZIN
 70
     0
  9
$DIMBLK
  1

  9
$DIMASO
 70
     1
  9
$DIMSHO
 70
     1
  9
$DIMPOST
  1

  9
$DIMAPOST
  1

  9
$DIMALT
 70
     0
  9
$DIMALTD
 70
     2
  9
$DIMALTF
 40
25.399999999999999
  9
$DIMLFAC
 40
1.0
  9
$DIMTOFL
 70
     0
  9
$DIMTVP
 40
0.0
  9
$DIMTIX
 70
     0
  9
$DIMSOXD
 70
     0
  9
$DIMSAH
 70
     0
  9
$DIMBLK1
  1

  9
$DIMBLK2
  1

  9
$DIMSTYLE
  2
STANDARD
  9
$DIMCLRD
 70
     0
  9
$DIMCLRE
 70
     0
  9
$DIMCLRT
 70
     0
  9
$DIMTFAC
 40
1.0
  9
$DIMGAP
 40
0.09
  9
$LUNITS
 70
     2
  9
$LUPREC
 70
     4
  9
$SKETCHINC
 40
0.1
  9
$FILLETRAD
 40
2.0
  9
$AUNITS
 70
     0
  9
$AUPREC
 70
     0
  9
$MENU
  1
ACAD
  9
$ELEVATION
 40
0.0
  9
$PELEVATION
 40
0.0
  9
$THICKNESS
 40
0.0
  9
$LIMCHECK
 70
     0
  9
$BLIPMODE
 70
     0
  9
$CHAMFERA
 40
0.0
  9
$CHAMFERB
 40
0.0
  9
$SKPOLY
 70
     0
  9
$TDCREATE
 40
2452095.42903993
  9
$TDUPDATE
 40
2452095.4299178231
  9
$TDINDWG
 40
0.0008938657
  9
$TDUSRTIMER
 40
0.0008938657
  9
$USRTIMER
 70
     1
  9
$ANGBASE
 50
0.0
  9
$ANGDIR
 70
     0
  9
$PDMODE
 70
     0
  9
$PDSIZE
 40
0.0
  9
$PLINEWID
 40
0.0
  9
$COORDS
 70
     1
  9
$SPLFRAME
 70
     0
  9
$SPLINETYPE
 70
     6
  9
$SPLINESEGS
 70
     8
  9
$ATTDIA
 70
     0
  9
$ATTREQ
 70
     1
  9
$HANDLING
 70
 10241
  9
$HANDSEED
  5
193
  9
$SURFTAB1
 70
     6
  9
$SURFTAB2
 70
     6
  9
$SURFTYPE
 70
     6
  9
$SURFU
 70
     6
  9
$SURFV
 70
     6
  9
$UCSNAME
  2

  9
$UCSORG
 10
0.0
 20
0.0
 30
0.0
  9
$UCSXDIR
 10
1.0
 20
0.0
 30
0.0
  9
$UCSYDIR
 10
0.0
 20
1.0
 30
0.0
  9
$PUCSNAME
  2

  9
$PUCSORG
 10
0.0
 20
0.0
 30
0.0
  9
$PUCSXDIR
 10
1.0
 20
0.0
 30
0.0
  9
$PUCSYDIR
 10
0.0
 20
1.0
 30
0.0
  9
$USERI1
 70
     0
  9
$USERI2
 70
     0
  9
$USERI3
 70
     0
  9
$USERI4
 70
     0
  9
$USERI5
 70
     0
  9
$USERR1
 40
0.0
  9
$USERR2
 40
0.0
  9
$USERR3
 40
0.0
  9
$USERR4
 40
0.0
  9
$USERR5
 40
0.0
  9
$WORLDVIEW
 70
     1
  9
$SHADEDGE
 70
     3
  9
$SHADEDIF
 70
    70
  9
$TILEMODE
 70
     1
  9
$MAXACTVP
 70
    64
  9
$PLIMCHECK
 70
     0
  9
$PEXTMIN
 10
1.0000000000000000E+020
 20
1.0000000000000000E+020
 30
1.0000000000000000E+020
  9
$PEXTMAX
 10
-1.0000000000000000E+020
 20
-1.0000000000000000E+020
 30
-1.0000000000000000E+020
  9
$PLIMMIN
 10
0.0
 20
0.0
  9
$PLIMMAX
 10
12.0
 20
9.0
  9
$UNITMODE
 70
     0
  9
$VISRETAIN
 70
     1
  9
$PLINEGEN
 70
     0
  9
$PSLTSCALE
 70
     1
  0
ENDSEC
  0
SECTION
  2
TABLES
  0
TABLE
  2
VPORT
 70
     2
  0
VPORT
  2
*ACTIVE
 70
     0
 10
0.0
 20
0.0
 11
1.0
 21
1.0
 12
-85.546247557045064
 22
126.6823243794987
 13
0.0
 23
0.0
 14
1.0
 24
1.0
 15
0.0
 25
0.0
 16
0.0
 26
0.0
 36
1.0
 17
0.0
 27
0.0
 37
0.0
 40
9.0000002325112973
 41
3.0569948186528491
 42
50.0
 43
0.0
 44
0.0
 50
0.0
 51
0.0
 71
     0
 72
   100
 73
     1
 74
     1
 75
     0
 76
     0
 77
     0
 78
     0
  0
ENDTAB
  0
TABLE
  2
LTYPE
 70
     9
  0
LTYPE
  2
CONTINUOUS
 70
     0
  3
Solid line
 72
    65
 73
     0
 40
0.0
  0
LTYPE
  2
BORDER
 70
     0
  3
__ __ . __ __ .
 72
    65
 73
     6
 40
13.14016998733665
 49
3.754334282096186
 49
-1.877167141048093
 49
3.754334282096186
 49
-1.877167141048093
 49
0.0
 49
-1.877167141048093
  0
LTYPE
  2
CENTER
 70
     0
  3
____ _ ____ _
 72
    65
 73
     4
 40
15.017337128384741
 49
9.3858357052404635
 49
-1.877167141048093
 49
1.877167141048093
 49
-1.877167141048093
  0
LTYPE
  2
DASHDOT
 70
     0
  3
__ . __ . __ .
 72
    65
 73
     4
 40
7.5086685641923712
 49
3.754334282096186
 49
-1.877167141048093
 49
0.0
 49
-1.877167141048093
  0
LTYPE
  2
DASHED
 70
     0
  3
__ __ __ __ __
 72
    65
 73
     2
 40
5.6315014231442779
 49
3.754334282096186
 49
-1.877167141048093
  0
LTYPE
  2
DIVIDE
 70
     0
  3
__ . . __ . . 
 72
    65
 73
     6
 40
9.3858357052404635
 49
3.754334282096186
 49
-1.877167141048093
 49
0.0
 49
-1.877167141048093
 49
0.0
 49
-1.877167141048093
  0
LTYPE
  2
DOT
 70
     0
  3
..............
 72
    65
 73
     4
 40
3.754334282096186
 49
0.0
 49
-1.877167141048093
 49
0.0
 49
-1.877167141048093
  0
LTYPE
  2
HIDDEN
 70
     0
  3
_ _ _ _ _ _ _
 72
    65
 73
     2
 40
2.8157507115721381
 49
1.877167141048093
 49
-0.9385835705240463
  0
LTYPE
  2
PHANTOM
 70
     0
  3
_____ _ _ _____ _ _ 
 72
    65
 73
     6
 40
18.771671410480931
 49
9.3858357052404635
 49
-1.877167141048093
 49
1.877167141048093
 49
-1.877167141048093
 49
1.877167141048093
 49
-1.877167141048093
  0
ENDTAB
  0
TABLE
  2
LAYER
 70
     2
  0
LAYER
  2
0
 70
     0
 62
     7
  6
CONTINUOUS
  0
LAYER
  2
1
 70
     0
 62
     7
  6
CONTINUOUS
  0
ENDTAB
  0
TABLE
  2
STYLE
 70
     4
  0
STYLE
  2
STANDARD
 70
     0
 40
0.0
 41
1.0
 50
0.0
 71
     0
 42
3.5
  3
txt
  4

  0
STYLE
  2
SIMPLEX
 70
     0
 40
0.0
 41
1.0
 50
0.0
 71
     0
 42
3.5
  3
simplex
  4

  0
STYLE
  2
COMPLEX
 70
     0
 40
0.0
 41
1.0
 50
0.0
 71
     0
 42
3.5
  3
complex
  4

  0
STYLE
  2
ITALIC
 70
     0
 40
0.0
 41
1.0
 50
0.0
 71
     0
 42
3.5
  3
italic
  4

  0
ENDTAB
  0
TABLE
  2
VIEW
 70
     0
  0
ENDTAB
  0
TABLE
  2
UCS
 70
     0
  0
ENDTAB
  0
TABLE
  2
APPID
 70
     1
  0
APPID
  2
ACAD
 70
     0
  0
ENDTAB
  0
TABLE
  2
DIMSTYLE
 70
     1
  0
DIMSTYLE
  2
STANDARD
 70
     0
  3

  4

  5

  6

  7

 40
1.0
 41
0.18
 42
0.0625
 43
0.38
 44
0.18
 45
0.0
 46
0.0
 47
0.0
 48
0.0
140
0.18
141
0.09
142
0.0
143
25.399999999999999
144
1.0
145
0.0
146
1.0
147
0.09
 71
     0
 72
     0
 73
     1
 74
     1
 75
     0
 76
     0
 77
     0
 78
     0
170
     0
171
     2
172
     0
173
     0
174
     0
175
     0
176
     0
177
     0
178
     0
  0
ENDTAB
  0
ENDSEC
  0
SECTION
  2
BLOCKS
  0
BLOCK
  8
0
  2
$MODEL_SPACE
 70
     0
 10
0.0
 20
0.0
 30
0.0
  3
$MODEL_SPACE
  1

  0
ENDBLK
  5
20
  8
0
  0
BLOCK
 67
     1
  8
0
  2
$PAPER_SPACE
 70
     0
 10
0.0
 20
0.0
 30
0.0
  3
$PAPER_SPACE
  1

  0
ENDBLK
  5
1C
 67
     1
  8
0
  0
ENDSEC
  0
SECTION
  2
ENTITIES
  0
POINT
  5
33
  8
1
  6
DOT
 62
     7
 10
138.004458863705
 20
-7.4999999999999716
 30
0.0
  0
LINE
  5
34
  8
1
 62
     7
 10
7.1386989176729694
 20
23.5
 30
0.0
 11
7.1386989176729694
 21
-23.500000000000011
 31
0.0
  0
LINE
  5
35
  8
1
 62
     7
 10
-86.26900000000002
 20
71.076344712652315
 30
0.0
 11
-88.76900000000002
 21
71.076344712652315
 31
0.0
  0
LINE
  5
36
  8
1
 62
     7
 10
-88.76900000000002
 20
71.076344712652315
 30
0.0
 11
-88.76900000000002
 21
42.350000000000023
 31
0.0
  0
LINE
  5
37
  8
1
 62
     7
 10
-86.26900000000002
 20
71.076344712652315
 30
0.0
 11
-86.26900000000002
 21
42.350000000000023
 31
0.0
  0
LINE
  5
38
  8
1
 62
     7
 10
-86.761521558480155
 20
74.379591790226982
 30
0.0
 11
-86.761521558480155
 21
71.076344712652315
 31
0.0
  0
LINE
  5
39
  8
1
 62
     7
 10
-87.249961378746121
 20
74.379591790226982
 30
0.0
 11
-87.249961378746121
 21
71.076344712652315
 31
0.0
  0
LINE
  5
3A
  8
1
 62
     7
 10
-87.842009645735189
 20
74.379591790226982
 30
0.0
 11
-87.842009645735189
 21
71.076344712652315
 31
0.0
  0
LINE
  5
3B
  8
1
 62
     7
 10
-88.271244639302196
 20
74.379591790226982
 30
0.0
 11
-88.271244639302196
 21
71.076344712652315
 31
0.0
  0
LINE
  5
3C
  8
1
 62
     7
 10
6.1212330304132641
 20
-23.099999999999991
 30
0.0
 11
7.1386989176729694
 21
-23.099999999999991
 31
0.0
  0
LINE
  5
3D
  8
1
 62
     7
 10
5.1386989176729676
 20
26.099999999999991
 30
0.0
 11
1.553102571829228
 21
26.099999999999991
 31
0.0
  0
LINE
  5
3E
  8
1
 62
     7
 10
5.1386989176729676
 20
21.499999999999989
 30
0.0
 11
5.1386989176729676
 21
26.099999999999991
 31
0.0
  0
LINE
  5
3F
  8
1
 62
     7
 10
7.1386989176729694
 20
21.499999999999989
 30
0.0
 11
5.1386989176729676
 21
21.499999999999989
 31
0.0
  0
LINE
  5
40
  8
1
 62
     7
 10
11.88869891767299
 20
71.076344712652315
 30
0.0
 11
9.3886989176729951
 21
71.076344712652315
 31
0.0
  0
LINE
  5
41
  8
1
 62
     7
 10
9.3886989176729951
 20
71.076344712652315
 30
0.0
 11
9.3886989176729951
 21
42.350000000000023
 31
0.0
  0
LINE
  5
42
  8
1
 62
     7
 10
11.88869891767299
 20
71.076344712652315
 30
0.0
 11
11.88869891767299
 21
42.350000000000023
 31
0.0
  0
LINE
  5
43
  8
1
 62
     7
 10
11.396177359192849
 20
74.379591790226982
 30
0.0
 11
11.396177359192849
 21
71.076344712652315
 31
0.0
  0
LINE
  5
44
  8
1
 62
     7
 10
10.907737538926879
 20
74.379591790226982
 30
0.0
 11
10.907737538926879
 21
71.076344712652315
 31
0.0
  0
LINE
  5
45
  8
1
 62
     7
 10
10.315689271937829
 20
74.379591790226982
 30
0.0
 11
10.315689271937829
 21
71.076344712652315
 31
0.0
  0
LINE
  5
46
  8
1
 62
     7
 10
9.8864542783707936
 20
74.379591790226982
 30
0.0
 11
9.8864542783707936
 21
71.076344712652315
 31
0.0
  0
LINE
  5
47
  8
1
 62
     7
 10
-57.918999999999997
 20
-38.0
 30
0.0
 11
-57.918999999999997
 21
38.0
 31
0.0
  0
LINE
  5
48
  8
1
 62
     7
 10
63.138698917672997
 20
7.5
 30
0.0
 11
48.138698917672997
 21
7.5
 31
0.0
  0
LINE
  5
49
  8
1
 62
     7
 10
63.138698917672997
 20
-7.5000000000000071
 30
0.0
 11
48.138698917672997
 21
-7.5000000000000071
 31
0.0
  0
LINE
  5
4A
  8
1
 62
     7
 10
33.638698917672983
 20
-18.5
 30
0.0
 11
33.638698917672983
 21
-20.0
 31
0.0
  0
LINE
  5
4B
  8
1
 62
     7
 10
22.138698917672961
 20
-7.5000000000000071
 30
0.0
 11
7.1386989176729694
 21
-7.5000000000000071
 31
0.0
  0
LINE
  5
4C
  8
1
 62
     7
 10
38.238698917672977
 20
-20.0
 30
0.0
 11
38.238698917672977
 21
-28.0
 31
0.0
  0
LINE
  5
4D
  8
1
 62
     7
 10
34.038698917672981
 20
-20.0
 30
0.0
 11
34.038698917672981
 21
-43.0
 31
0.0
  0
LINE
  5
4E
  8
1
 62
     7
 10
37.73869891767297
 20
20.0
 30
0.0
 11
37.73869891767297
 21
30.0
 31
0.0
  0
LINE
  5
4F
  8
1
 62
     7
 10
-36.618999999999993
 20
-19.050000000000011
 30
0.0
 11
-37.918999999999997
 21
-19.050000000000011
 31
0.0
  0
LINE
  5
50
  8
1
 62
     7
 10
-36.618999999999993
 20
19.050000000000011
 30
0.0
 11
-36.618999999999993
 21
-19.050000000000011
 31
0.0
  0
LINE
  5
51
  8
1
 62
     7
 10
-37.918999999999997
 20
19.050000000000011
 30
0.0
 11
-36.618999999999993
 21
19.050000000000011
 31
0.0
  0
LINE
  5
52
  8
1
 62
     7
 10
-35.018999999999998
 20
-16.0
 30
0.0
 11
-36.618999999999993
 21
-16.0
 31
0.0
  0
LINE
  5
53
  8
1
 62
     7
 10
-35.018999999999998
 20
16.0
 30
0.0
 11
-36.618999999999993
 21
16.0
 31
0.0
  0
LINE
  5
54
  8
1
 62
     7
 10
-50.018999999999998
 20
-38.0
 30
0.0
 11
-50.018999999999998
 21
38.0
 31
0.0
  0
LINE
  5
55
  8
1
 62
     7
 10
-37.918999999999997
 20
27.0
 30
0.0
 11
-37.918999999999997
 21
-27.0
 31
0.0
  0
LINE
  5
56
  8
1
 62
     7
 10
-50.018999999999998
 20
38.0
 30
0.0
 11
-57.918999999999997
 21
38.0
 31
0.0
  0
LINE
  5
57
  8
1
 62
     7
 10
-37.918999999999997
 20
27.0
 30
0.0
 11
-50.018999999999998
 21
27.0
 31
0.0
  0
LINE
  5
58
  8
1
 62
     7
 10
-35.018999999999998
 20
16.0
 30
0.0
 11
-35.018999999999998
 21
0.0
 31
0.0
  0
LINE
  5
59
  8
1
 62
     7
 10
-35.018999999999998
 20
0.0
 30
0.0
 11
-35.018999999999998
 21
-16.0
 31
0.0
  0
LINE
  5
5A
  8
1
 62
     7
 10
-50.018999999999998
 20
-27.0
 30
0.0
 11
-37.918999999999997
 21
-27.0
 31
0.0
  0
LINE
  5
5B
  8
1
 62
     7
 10
-57.918999999999997
 20
-38.0
 30
0.0
 11
-50.018999999999998
 21
-38.0
 31
0.0
  0
LINE
  5
5C
  8
1
  6
DASHDOT
 62
     3
 10
37.73869891767297
 20
33.0
 30
0.0
 11
51.638698917672997
 21
33.000000000000028
 31
0.0
  0
LINE
  5
5D
  8
1
 62
     7
 10
48.138698917672961
 20
31.600000000000009
 30
0.0
 11
40.238698917672963
 21
31.600000000000009
 31
0.0
  0
LINE
  5
5E
  8
1
 62
     7
 10
40.238698917672963
 20
34.400000000000013
 30
0.0
 11
48.138698917672961
 21
34.400000000000013
 31
0.0
  0
LINE
  5
5F
  8
1
 62
     3
 10
48.138698917672961
 20
31.000000000000028
 30
0.0
 11
40.238698917672963
 21
31.000000000000028
 31
0.0
  0
LINE
  5
60
  8
1
 62
     3
 10
40.238698917672963
 20
35.000000000000028
 30
0.0
 11
48.138698917672961
 21
35.000000000000028
 31
0.0
  0
LINE
  5
61
  8
1
 62
     7
 10
60.038698917672988
 20
-16.0
 30
0.0
 11
39.738698917672991
 21
-16.0
 31
0.0
  0
LINE
  5
62
  8
1
 62
     7
 10
61.538698917673003
 20
16.0
 30
0.0
 11
63.138698917672997
 21
16.0
 31
0.0
  0
LINE
  5
63
  8
1
 62
     7
 10
61.538698917673003
 20
-15.150000000000009
 30
0.0
 11
60.038698917672988
 21
-15.150000000000009
 31
0.0
  0
LINE
  5
64
  8
1
 62
     7
 10
61.538698917673003
 20
-19.050000000000011
 30
0.0
 11
61.538698917673003
 21
-15.150000000000009
 31
0.0
  0
LINE
  5
65
  8
1
 62
     7
 10
60.038698917672988
 20
-19.050000000000011
 30
0.0
 11
61.538698917673003
 21
-19.050000000000011
 31
0.0
  0
LINE
  5
66
  8
1
 62
     7
 10
60.038698917672988
 20
-15.150000000000009
 30
0.0
 11
60.038698917672988
 21
-19.5
 31
0.0
  0
LINE
  5
67
  8
1
 62
     7
 10
61.538698917673003
 20
15.150000000000009
 30
0.0
 11
60.038698917672988
 21
15.150000000000009
 31
0.0
  0
LINE
  5
68
  8
1
 62
     7
 10
61.538698917673003
 20
19.050000000000011
 30
0.0
 11
61.538698917673003
 21
15.150000000000009
 31
0.0
  0
LINE
  5
69
  8
1
 62
     7
 10
60.038698917672988
 20
19.050000000000011
 30
0.0
 11
61.538698917673003
 21
19.050000000000011
 31
0.0
  0
LINE
  5
6A
  8
1
 62
     7
 10
60.038698917672988
 20
15.150000000000009
 30
0.0
 11
60.038698917672988
 21
19.5
 31
0.0
  0
LINE
  5
6B
  8
1
 62
     7
 10
57.738698917672949
 20
-19.5
 30
0.0
 11
60.038698917672988
 21
-19.5
 31
0.0
  0
LINE
  5
6C
  8
1
 62
     7
 10
60.038698917672988
 20
19.5
 30
0.0
 11
57.738698917672949
 21
19.5
 31
0.0
  0
LINE
  5
6D
  8
1
 62
     7
 10
48.138698917672997
 20
-8.0
 30
0.0
 11
22.138698917672961
 21
-8.0
 31
0.0
  0
LINE
  5
6E
  8
1
 62
     7
 10
48.138698917672997
 20
8.0
 30
0.0
 11
48.138698917672997
 21
-8.0
 31
0.0
  0
LINE
  5
6F
  8
1
 62
     7
 10
22.138698917672961
 20
8.0
 30
0.0
 11
48.138698917672997
 21
8.0
 31
0.0
  0
LINE
  5
70
  8
1
 62
     7
 10
22.138698917672961
 20
-8.0
 30
0.0
 11
22.138698917672961
 21
8.0
 31
0.0
  0
LINE
  5
71
  8
1
 62
     7
 10
63.138698917672997
 20
16.0
 30
0.0
 11
63.138698917672997
 21
-16.0
 31
0.0
  0
LINE
  5
72
  8
1
 62
     7
 10
39.73869891767297
 20
-18.5
 30
0.0
 11
33.638698917672983
 21
-18.5
 31
0.0
  0
LINE
  5
73
  8
1
 62
     7
 10
57.738698917672949
 20
16.0
 30
0.0
 11
57.738698917672949
 21
23.5
 31
0.0
  0
LINE
  5
74
  8
1
 62
     7
 10
60.238698917672949
 20
19.5
 30
0.0
 11
60.238698917672949
 21
27.0
 31
0.0
  0
LINE
  5
75
  8
1
 62
     7
 10
39.73869891767297
 20
16.0
 30
0.0
 11
60.038698917672988
 21
16.0
 31
0.0
  0
LINE
  5
76
  8
1
 62
     7
 10
33.638698917672983
 20
18.5
 30
0.0
 11
39.73869891767297
 21
18.5
 31
0.0
  0
LINE
  5
77
  8
1
 62
     7
 10
56.838698917672957
 20
-17.5
 30
0.0
 11
56.838698917672957
 21
-22.0
 31
0.0
  0
LINE
  5
78
  8
1
 62
     7
 10
52.113698917672949
 20
-17.801442841485031
 30
0.0
 11
48.738698917672998
 21
-17.801442841485031
 31
0.0
  0
LINE
  5
79
  8
1
 62
     7
 10
54.363698917672949
 20
-17.801442841485031
 30
0.0
 11
57.738698917672949
 21
-17.801442841485031
 31
0.0
  0
LINE
  5
7A
  8
1
 62
     7
 10
54.363698917672949
 20
-21.698557158514959
 30
0.0
 11
57.738698917672949
 21
-21.698557158514959
 31
0.0
  0
LINE
  5
7B
  8
1
 62
     7
 10
52.113698917672949
 20
-21.698557158514959
 30
0.0
 11
48.738698917672998
 21
-21.698557158514959
 31
0.0
  0
LINE
  5
7C
  8
1
 62
     7
 10
57.738698917672949
 20
-23.5
 30
0.0
 11
57.738698917672949
 21
-16.0
 31
0.0
  0
LINE
  5
7D
  8
1
 62
     7
 10
63.138698917672997
 20
-16.0
 30
0.0
 11
61.538698917673003
 21
-16.0
 31
0.0
  0
LINE
  5
7E
  8
1
 62
     7
 10
40.63869891767299
 20
-22.0
 30
0.0
 11
40.63869891767299
 21
-17.5
 31
0.0
  0
LINE
  5
7F
  8
1
 62
     7
 10
48.738698917672998
 20
-17.801442841485031
 30
0.0
 11
45.363698917672991
 21
-17.801442841485031
 31
0.0
  0
LINE
  5
80
  8
1
 62
     7
 10
39.73869891767297
 20
-17.801442841485031
 30
0.0
 11
43.113698917672998
 21
-17.801442841485031
 31
0.0
  0
LINE
  5
81
  8
1
 62
     7
 10
39.73869891767297
 20
-21.698557158514959
 30
0.0
 11
43.113698917672998
 21
-21.698557158514959
 31
0.0
  0
LINE
  5
82
  8
1
 62
     7
 10
48.738698917672998
 20
-21.698557158514959
 30
0.0
 11
45.363698917672991
 21
-21.698557158514959
 31
0.0
  0
LINE
  5
83
  8
1
 62
     7
 10
39.738698917672991
 20
-16.0
 30
0.0
 11
39.73869891767297
 21
-23.5
 31
0.0
  0
LINE
  5
84
  8
1
 62
     7
 10
39.73869891767297
 20
-23.5
 30
0.0
 11
57.738698917672949
 21
-23.5
 31
0.0
  0
LINE
  5
85
  8
1
 62
     7
 10
56.838698917672957
 20
22.0
 30
0.0
 11
56.838698917672957
 21
17.5
 31
0.0
  0
LINE
  5
86
  8
1
 62
     7
 10
48.738698917672998
 20
17.801442841485031
 30
0.0
 11
52.113698917672949
 21
17.801442841484999
 31
0.0
  0
LINE
  5
87
  8
1
 62
     7
 10
57.738698917672949
 20
17.801442841485031
 30
0.0
 11
54.363698917672949
 21
17.801442841484999
 31
0.0
  0
LINE
  5
88
  8
1
 62
     7
 10
57.738698917672949
 20
21.698557158514959
 30
0.0
 11
54.363698917672949
 21
21.698557158515001
 31
0.0
  0
LINE
  5
89
  8
1
 62
     7
 10
48.738698917672998
 20
21.698557158514959
 30
0.0
 11
52.113698917672949
 21
21.698557158515001
 31
0.0
  0
LINE
  5
8A
  8
1
 62
     7
 10
57.738698917672949
 20
16.0
 30
0.0
 11
57.738698917672949
 21
23.5
 31
0.0
  0
LINE
  5
8B
  8
1
 62
     7
 10
40.63869891767299
 20
17.5
 30
0.0
 11
40.63869891767299
 21
22.0
 31
0.0
  0
LINE
  5
8C
  8
1
 62
     7
 10
45.363698917672991
 20
17.801442841484999
 30
0.0
 11
48.738698917672998
 21
17.801442841485031
 31
0.0
  0
LINE
  5
8D
  8
1
 62
     7
 10
43.113698917672998
 20
17.801442841484999
 30
0.0
 11
39.73869891767297
 21
17.801442841485031
 31
0.0
  0
LINE
  5
8E
  8
1
 62
     7
 10
43.113698917672998
 20
21.698557158515001
 30
0.0
 11
39.73869891767297
 21
21.698557158514959
 31
0.0
  0
LINE
  5
8F
  8
1
 62
     7
 10
45.363698917672991
 20
21.698557158515001
 30
0.0
 11
48.738698917672998
 21
21.698557158514959
 31
0.0
  0
LINE
  5
90
  8
1
 62
     7
 10
39.73869891767297
 20
23.5
 30
0.0
 11
39.73869891767297
 21
16.0
 31
0.0
  0
LINE
  5
91
  8
1
 62
     7
 10
60.238698917672949
 20
-20.499999999999961
 30
0.0
 11
57.738698917672949
 21
-20.499999999999961
 31
0.0
  0
LINE
  5
92
  8
1
 62
     7
 10
60.238698917672949
 20
20.500000000000028
 30
0.0
 11
57.738698917672949
 21
20.500000000000028
 31
0.0
  0
LINE
  5
93
  8
1
 62
     7
 10
40.238698917672963
 20
38.0
 30
0.0
 11
40.238698917672998
 21
23.5
 31
0.0
  0
LINE
  5
94
  8
1
 62
     7
 10
57.738698917672949
 20
23.5
 30
0.0
 11
39.73869891767297
 21
23.5
 31
0.0
  0
LINE
  5
95
  8
1
 62
     7
 10
48.138698917672961
 20
38.0
 30
0.0
 11
40.238698917672963
 21
38.0
 31
0.0
  0
LINE
  5
96
  8
1
 62
     7
 10
48.138698917672961
 20
27.0
 30
0.0
 11
48.138698917672961
 21
38.0
 31
0.0
  0
LINE
  5
97
  8
1
 62
     7
 10
60.238698917672949
 20
27.0
 30
0.0
 11
48.138698917672961
 21
27.0
 31
0.0
  0
LINE
  5
98
  8
1
 62
     7
 10
60.238698917672949
 20
-27.0
 30
0.0
 11
60.238698917672949
 21
-19.5
 31
0.0
  0
LINE
  5
99
  8
1
 62
     7
 10
48.138698917672961
 20
-27.0
 30
0.0
 11
60.238698917672949
 21
-27.0
 31
0.0
  0
LINE
  5
9A
  8
1
 62
     7
 10
48.138698917672961
 20
-38.0
 30
0.0
 11
48.138698917672961
 21
-27.0
 31
0.0
  0
LINE
  5
9B
  8
1
 62
     7
 10
40.238698917672963
 20
-38.0
 30
0.0
 11
48.138698917672961
 21
-38.0
 31
0.0
  0
LINE
  5
9C
  8
1
 62
     7
 10
57.738698917672949
 20
-23.5
 30
0.0
 11
57.738698917672949
 21
-16.0
 31
0.0
  0
LINE
  5
9D
  8
1
  6
DASHDOT
 62
     3
 10
170.9134242075136
 20
-19.00000000000006
 30
0.0
 11
162.25317016966929
 21
-14.00000000000006
 31
0.0
  0
LINE
  5
9E
  8
1
  6
DASHDOT
 62
     3
 10
105.09549351989619
 20
-18.999999999999961
 30
0.0
 11
113.7557475577407
 21
-13.99999999999997
 31
0.0
  0
LINE
  5
9F
  8
1
  6
DASHDOT
 62
     3
 10
138.004458863705
 20
38.000000000000028
 30
0.0
 11
138.004458863705
 21
28.000000000000028
 31
0.0
  0
LINE
  5
A0
  8
1
 62
     7
 10
135.50445886370491
 20
9.7999999999999847
 30
0.0
 11
135.50445886370491
 21
7.071067811865503
 31
0.0
  0
LINE
  5
A1
  8
1
 62
     7
 10
140.50445886370491
 20
9.7999999999999847
 30
0.0
 11
140.50445886370491
 21
7.071067811865503
 31
0.0
  0
LINE
  5
A2
  8
1
 62
     7
 10
130.00445886370491
 20
60.0
 30
0.0
 11
130.00445886370491
 21
44.283179650969089
 31
0.0
  0
LINE
  5
A3
  8
1
 62
     7
 10
146.00445886370491
 20
60.0
 30
0.0
 11
146.00445886370491
 21
44.283179650969089
 31
0.0
  0
LINE
  5
A4
  8
1
 62
     7
 10
147.2185138928777
 20
44.046579775498742
 30
0.0
 11
154.4069470453878
 21
70.87417752747902
 31
0.0
  0
LINE
  5
A5
  8
1
 62
     7
 10
152.04814302432291
 20
42.752484549986171
 30
0.0
 11
159.2365761768331
 21
69.580082301966428
 31
0.0
  0
LINE
  5
A6
  8
1
 62
     7
 10
154.4069470453878
 20
70.87417752747902
 30
0.0
 11
159.2365761768331
 21
69.580082301966428
 31
0.0
  0
LINE
  5
A7
  8
1
 62
     7
 10
132.00445886370491
 20
62.0
 30
0.0
 11
144.004458863705
 21
62.0
 31
0.0
  0
LINE
  5
A8
  8
1
 62
     7
 10
158.62539971820249
 20
74.920227442539812
 30
0.0
 11
157.34145816219481
 21
70.087877643550428
 31
0.0
  0
LINE
  5
A9
  8
1
 62
     7
 10
159.20806642459399
 20
74.764102369105728
 30
0.0
 11
157.942415277679
 21
69.926851669770713
 31
0.0
  0
LINE
  5
AA
  8
1
 62
     7
 10
159.7224723949596
 20
74.626267704764501
 30
0.0
 11
158.43853083895189
 21
69.793917905775118
 31
0.0
  0
LINE
  5
AB
  8
1
 62
     7
 10
156.302065060026
 20
70.36638218589502
 30
0.0
 11
157.60631395504339
 21
75.19329064979631
 31
0.0
  0
LINE
  5
AC
  8
1
 62
     7
 10
155.70110794454189
 20
70.52740815967482
 30
0.0
 11
157.0236472486522
 21
75.349415723230408
 31
0.0
  0
LINE
  5
AD
  8
1
 62
     7
 10
155.204992383269
 20
70.660341923670302
 30
0.0
 11
156.5092412782864
 21
75.487250387571606
 31
0.0
  0
LINE
  5
AE
  8
1
  6
DASHDOT
 62
     3
 10
141.90707885271999
 20
0.0000000000000284
 30
0.0
 11
134.10183887469
 21
0.0000000000000284
 31
0.0
  0
LINE
  5
AF
  8
1
  6
DASHDOT
 62
     3
 10
138.004458863705
 20
3.9026199890150219
 30
0.0
 11
138.004458863705
 21
-3.9026199890149931
 31
0.0
  0
LINE
  5
B0
  8
1
  6
DASHDOT
 62
     3
 10
141.56151807159901
 20
56.000000000000028
 30
0.0
 11
134.44739965581101
 21
56.000000000000028
 31
0.0
  0
LINE
  5
B1
  8
1
  6
DASHDOT
 62
     3
 10
138.004458863705
 20
59.557059207894021
 30
0.0
 11
138.004458863705
 21
52.442940792106043
 31
0.0
  0
LINE
  5
B2
  8
1
 62
     7
 10
156.82176161111039
 20
70.227129914722724
 30
0.0
 11
149.65131589331841
 21
43.466662183008083
 31
0.0
  0
LINE
  5
B3
  8
1
  6
DASHDOT
 62
     3
 10
-34.918999999999983
 20
0.0
 30
0.0
 11
-31.620470575479079
 21
0.0
 31
0.0
  0
LINE
  5
B4
  8
1
 62
     7
 10
135.50445886370491
 20
9.7999999999999847
 30
0.0
 11
140.50445886370491
 21
9.7999999999999847
 31
0.0
  0
LINE
  5
B5
  8
1
 62
     7
 10
8.4886989176729628
 20
-21.478750000000002
 30
0.0
 11
8.4886989176729628
 21
-14.52125
 31
0.0
  0
LINE
  5
B6
  8
1
 62
     7
 10
17.78869891767296
 20
-21.478750000000002
 30
0.0
 11
17.78869891767296
 21
-14.52125
 31
0.0
  0
LINE
  5
B7
  8
1
 62
     7
 10
14.877081786893671
 20
-20.805
 30
0.0
 11
19.138698917672961
 21
-20.805
 31
0.0
  0
LINE
  5
B8
  8
1
 62
     7
 10
11.40031604845227
 20
-20.805
 30
0.0
 11
7.1386989176729694
 21
-20.805
 31
0.0
  0
LINE
  5
B9
  8
1
 62
     7
 10
14.877081786893671
 20
-15.195
 30
0.0
 11
19.138698917672961
 21
-15.195
 31
0.0
  0
LINE
  5
BA
  8
1
 62
     7
 10
11.40031604845227
 20
-15.195
 30
0.0
 11
7.1386989176729694
 21
-15.195
 31
0.0
  0
LINE
  5
BB
  8
1
 62
     7
 10
8.4886989176729628
 20
21.478750000000002
 30
0.0
 11
8.4886989176729628
 21
14.52125
 31
0.0
  0
LINE
  5
BC
  8
1
 62
     7
 10
17.78869891767296
 20
21.478750000000002
 30
0.0
 11
17.78869891767296
 21
14.52125
 31
0.0
  0
LINE
  5
BD
  8
1
 62
     7
 10
14.877081786893671
 20
20.805
 30
0.0
 11
19.138698917672961
 21
20.805
 31
0.0
  0
LINE
  5
BE
  8
1
 62
     7
 10
11.40031604845227
 20
20.805
 30
0.0
 11
7.1386989176729694
 21
20.805
 31
0.0
  0
LINE
  5
BF
  8
1
 62
     7
 10
14.877081786893671
 20
15.195
 30
0.0
 11
19.138698917672961
 21
15.195
 31
0.0
  0
LINE
  5
C0
  8
1
 62
     7
 10
11.40031604845227
 20
15.195
 30
0.0
 11
7.1386989176729694
 21
15.195
 31
0.0
  0
LINE
  5
C1
  8
1
 62
     7
 10
-0.861301082327003
 20
62.0
 30
0.0
 11
-0.861301082327003
 21
-35.0
 31
0.0
  0
LINE
  5
C2
  8
1
 62
     7
 10
-65.319000000000003
 20
-42.5
 30
0.0
 11
-66.762375672974102
 21
-45.0
 31
0.0
  0
LINE
  5
C3
  8
1
 62
     7
 10
-97.019000000000005
 20
62.0
 30
0.0
 11
-97.019000000000005
 21
-36.34999999999998
 31
0.0
  0
LINE
  5
C4
  8
1
 62
     7
 10
-99.019000000000005
 20
62.0
 30
0.0
 11
-99.019000000000005
 21
-35.0
 31
0.0
  0
LINE
  5
C5
  8
1
 62
     7
 10
19.138698917672961
 20
24.75
 30
0.0
 11
20.938698917672919
 21
24.75
 31
0.0
  0
LINE
  5
C6
  8
1
 62
     7
 10
21.438698917672959
 20
16.0
 30
0.0
 11
21.438698917672959
 21
23.0
 31
0.0
  0
LINE
  5
C7
  8
1
 62
     7
 10
-0.861301082327003
 20
20.75
 30
0.0
 11
1.1386989176729969
 21
20.75
 31
0.0
  0
LINE
  5
C8
  8
1
 62
     7
 10
7.1386989176729694
 20
23.5
 30
0.0
 11
19.138698917672961
 21
23.5
 31
0.0
  0
LINE
  5
C9
  8
1
 62
     7
 10
19.138698917672961
 20
12.5
 30
0.0
 11
7.1386989176729694
 21
12.5
 31
0.0
  0
LINE
  5
CA
  8
1
 62
     7
 10
19.138698917672961
 20
24.75
 30
0.0
 11
19.138698917672961
 21
12.5
 31
0.0
  0
LINE
  5
CB
  8
1
 62
     7
 10
20.938698917672919
 20
-24.749999999999989
 30
0.0
 11
20.938698917672919
 21
-19.710000000000012
 31
0.0
  0
LINE
  5
CC
  8
1
 62
     7
 10
19.138698917672961
 20
-12.5
 30
0.0
 11
7.1386989176729694
 21
-12.5
 31
0.0
  0
LINE
  5
CD
  8
1
 62
     7
 10
19.138698917672961
 20
-15.5
 30
0.0
 11
19.638698917672968
 21
-16.0
 31
0.0
  0
LINE
  5
CE
  8
1
 62
     7
 10
19.138698917672961
 20
-12.5
 30
0.0
 11
19.138698917672961
 21
-24.750000000000011
 31
0.0
  0
LINE
  5
CF
  8
1
 62
     7
 10
19.138698917672961
 20
-23.500000000000011
 30
0.0
 11
7.1386989176729694
 21
-23.500000000000011
 31
0.0
  0
LINE
  5
D0
  8
1
 62
     7
 10
1.1386989176729969
 20
62.0
 30
0.0
 11
1.1386989176729969
 21
-36.34999999999998
 31
0.0
  0
LINE
  5
D1
  8
1
 62
     7
 10
33.638698917672983
 20
20.0
 30
0.0
 11
33.638698917672983
 21
18.5
 31
0.0
  0
LINE
  5
D2
  8
1
  6
DASHDOT
 62
     3
 10
-100.044569891752
 20
56.000000000000028
 30
0.0
 11
-95.846063243769265
 21
56.000000000000028
 31
0.0
  0
LINE
  5
D3
  8
1
 62
     7
 10
7.1386989176729694
 20
9.7999999999999936
 30
0.0
 11
63.138698917672968
 21
9.7999999999999936
 31
0.0
  0
LINE
  5
D4
  8
1
 62
     7
 10
7.1386989176729694
 20
7.5
 30
0.0
 11
22.138698917672961
 21
7.5
 31
0.0
  0
LINE
  5
D5
  8
1
 62
     7
 10
21.438698917672959
 20
16.0
 30
0.0
 11
19.638698917672968
 21
16.0
 31
0.0
  0
LINE
  5
D6
  8
1
 62
     7
 10
21.438698917672959
 20
45.000000000000021
 30
0.0
 11
21.438698917672959
 21
42.850000000000009
 31
0.0
  0
LINE
  5
D7
  8
1
 62
     7
 10
33.838698917672978
 20
42.5
 30
0.0
 11
32.838698917672978
 21
42.5
 31
0.0
  0
LINE
  5
D8
  8
1
 62
     7
 10
32.838698917672978
 20
42.5
 30
0.0
 11
31.39532324469889
 21
45.000000000000021
 31
0.0
  0
LINE
  5
D9
  8
1
 62
     7
 10
31.39532324469889
 20
45.000000000000021
 30
0.0
 11
21.438698917672959
 21
45.000000000000021
 31
0.0
  0
LINE
  5
DA
  8
1
 62
     7
 10
19.638698917672968
 20
16.0
 30
0.0
 11
19.138698917672961
 21
15.5
 31
0.0
  0
LINE
  5
DB
  8
1
 62
     7
 10
33.838698917672978
 20
42.5
 30
0.0
 11
33.838698917672978
 21
21.667999999999999
 31
0.0
  0
LINE
  5
DC
  8
1
 62
     7
 10
33.838698917672978
 20
23.0
 30
0.0
 11
33.238698917672977
 21
23.0
 31
0.0
  0
LINE
  5
DD
  8
1
 62
     7
 10
33.238698917672977
 20
23.0
 30
0.0
 11
33.238698917672977
 21
20.0
 31
0.0
  0
LINE
  5
DE
  8
1
 62
     7
 10
33.238698917672977
 20
-23.000000000000011
 30
0.0
 11
33.838698917672978
 21
-23.000000000000011
 31
0.0
  0
LINE
  5
DF
  8
1
 62
     7
 10
33.838698917672978
 20
-21.667999999999999
 30
0.0
 11
33.838698917672978
 21
-42.5
 31
0.0
  0
LINE
  5
E0
  8
1
 62
     7
 10
21.438698917672959
 20
-45.0
 30
0.0
 11
31.39532324469889
 21
-45.0
 31
0.0
  0
LINE
  5
E1
  8
1
 62
     7
 10
31.39532324469889
 20
-45.0
 30
0.0
 11
32.838698917672978
 21
-42.5
 31
0.0
  0
LINE
  5
E2
  8
1
 62
     7
 10
32.838698917672978
 20
-42.5
 30
0.0
 11
33.838698917672978
 21
-42.5
 31
0.0
  0
LINE
  5
E3
  8
1
 62
     7
 10
19.638698917672968
 20
-16.0
 30
0.0
 11
21.838698917672961
 21
-16.0
 31
0.0
  0
LINE
  5
E4
  8
1
 62
     7
 10
-0.861301082327003
 20
53.250000000000021
 30
0.0
 11
1.1386989176729969
 21
53.250000000000021
 31
0.0
  0
LINE
  5
E5
  8
1
 62
     7
 10
-0.861301082327003
 20
58.75
 30
0.0
 11
1.1386989176729969
 21
58.75
 31
0.0
  0
LINE
  5
E6
  8
1
  6
DASHDOT
 62
     3
 10
-2.5470889579719662
 20
56.000000000000028
 30
0.0
 11
2.4021145370422499
 21
56.000000000000028
 31
0.0
  0
LINE
  5
E7
  8
1
 62
     7
 10
-0.861301082327003
 20
-20.75
 30
0.0
 11
1.1386989176729969
 21
-20.75
 31
0.0
  0
LINE
  5
E8
  8
1
 62
     7
 10
-0.861301082327003
 20
62.0
 30
0.0
 11
1.1386989176729969
 21
62.0
 31
0.0
  0
LINE
  5
E9
  8
1
 62
     7
 10
1.1212330304132641
 20
-35.0
 30
0.0
 11
-0.861301082327003
 21
-35.0
 31
0.0
  0
LINE
  5
EA
  8
1
 62
     7
 10
20.938698917672919
 20
-23.499999999999989
 30
0.0
 11
27.038698917672988
 21
-23.499999999999989
 31
0.0
  0
LINE
  5
EB
  8
1
 62
     7
 10
27.038698917672988
 20
-42.34999999999998
 30
0.0
 11
27.038698917672988
 21
-23.499999999999989
 31
0.0
  0
LINE
  5
EC
  8
1
 62
     7
 10
27.038698917672988
 20
-42.34999999999998
 30
0.0
 11
7.138698917672996
 21
-42.34999999999998
 31
0.0
  0
LINE
  5
ED
  8
1
 62
     7
 10
27.038698917672988
 20
23.5
 30
0.0
 11
20.938698917672919
 21
23.5
 31
0.0
  0
LINE
  5
EE
  8
1
 62
     7
 10
7.138698917672996
 20
42.350000000000009
 30
0.0
 11
27.038698917672988
 21
42.350000000000009
 31
0.0
  0
LINE
  5
EF
  8
1
 62
     7
 10
20.938698917672919
 20
24.75
 30
0.0
 11
20.938698917672919
 21
19.710000000000012
 31
0.0
  0
LINE
  5
F0
  8
1
 62
     7
 10
20.938698917672919
 20
20.75
 30
0.0
 11
19.138698917672961
 21
20.75
 31
0.0
  0
LINE
  5
F1
  8
1
 62
     7
 10
27.038698917672988
 20
23.5
 30
0.0
 11
27.038698917672988
 21
42.350000000000009
 31
0.0
  0
LINE
  5
F2
  8
1
 62
     7
 10
19.138698917672961
 20
-20.750000000000011
 30
0.0
 11
20.938698917672919
 21
-20.750000000000011
 31
0.0
  0
LINE
  5
F3
  8
1
 62
     7
 10
20.938698917672919
 20
-24.749999999999989
 30
0.0
 11
19.138698917672961
 21
-24.750000000000011
 31
0.0
  0
LINE
  5
F4
  8
1
 62
     7
 10
19.638698917672968
 20
-16.0
 30
0.0
 11
21.838698917672961
 21
-16.0
 31
0.0
  0
LINE
  5
F5
  8
1
 62
     7
 10
33.638698917672983
 20
20.0
 30
0.0
 11
33.238698917672977
 21
20.0
 31
0.0
  0
LINE
  5
F6
  8
1
 62
     7
 10
21.438698917672959
 20
23.0
 30
0.0
 11
29.338698917672978
 21
23.0
 31
0.0
  0
LINE
  5
F7
  8
1
 62
     7
 10
21.438698917672959
 20
42.850000000000009
 30
0.0
 11
29.338698917672978
 21
42.850000000000009
 31
0.0
  0
LINE
  5
F8
  8
1
 62
     7
 10
29.338698917672978
 20
42.850000000000009
 30
0.0
 11
29.338698917672978
 21
23.0
 31
0.0
  0
LINE
  5
F9
  8
1
 62
     7
 10
29.338698917672978
 20
-22.999999999999979
 30
0.0
 11
21.838698917672961
 21
-22.999999999999979
 31
0.0
  0
LINE
  5
FA
  8
1
 62
     7
 10
29.338698917672978
 20
-42.849999999999987
 30
0.0
 11
21.438698917672959
 21
-42.849999999999987
 31
0.0
  0
LINE
  5
FB
  8
1
 62
     7
 10
33.238698917672977
 20
-20.0
 30
0.0
 11
33.638698917672983
 21
-20.0
 31
0.0
  0
LINE
  5
FC
  8
1
 62
     7
 10
33.238698917672977
 20
-20.0
 30
0.0
 11
33.238698917672977
 21
-23.000000000000011
 31
0.0
  0
LINE
  5
FD
  8
1
 62
     7
 10
21.438698917672959
 20
-42.849999999999987
 30
0.0
 11
21.438698917672959
 21
-45.0
 31
0.0
  0
LINE
  5
FE
  8
1
 62
     7
 10
29.338698917672978
 20
-42.849999999999987
 30
0.0
 11
29.338698917672978
 21
-22.999999999999979
 31
0.0
  0
LINE
  5
FF
  8
1
 62
     7
 10
21.838698917672961
 20
-16.0
 30
0.0
 11
21.838698917672961
 21
-22.999999999999979
 31
0.0
  0
LINE
  5
100
  8
1
  6
DASHDOT
 62
     3
 10
-0.861301082327003
 20
0.0
 30
0.0
 11
-4.1672476579321076
 21
0.0
 31
0.0
  0
LINE
  5
101
  8
1
 62
     7
 10
-76.719000000000023
 20
45.000000000000021
 30
0.0
 11
-76.719000000000023
 21
42.649999999999991
 31
0.0
  0
LINE
  5
102
  8
1
 62
     7
 10
-64.319000000000003
 20
42.5
 30
0.0
 11
-65.319000000000003
 21
42.5
 31
0.0
  0
LINE
  5
103
  8
1
 62
     7
 10
-65.319000000000003
 20
42.5
 30
0.0
 11
-66.762375672974102
 21
45.000000000000021
 31
0.0
  0
LINE
  5
104
  8
1
 62
     7
 10
-66.762375672974102
 20
45.000000000000021
 30
0.0
 11
-76.719000000000023
 21
45.000000000000021
 31
0.0
  0
LINE
  5
105
  8
1
 62
     7
 10
-64.319000000000003
 20
42.5
 30
0.0
 11
-64.319000000000003
 21
-42.5
 31
0.0
  0
LINE
  5
106
  8
1
 62
     7
 10
-76.719000000000023
 20
-45.0
 30
0.0
 11
-66.762375672974102
 21
-45.0
 31
0.0
  0
LINE
  5
107
  8
1
 62
     7
 10
-65.319000000000003
 20
-42.5
 30
0.0
 11
-64.319000000000003
 21
-42.5
 31
0.0
  0
LINE
  5
108
  8
1
 62
     7
 10
-99.019000000000005
 20
62.0
 30
0.0
 11
-97.019000000000005
 21
62.0
 31
0.0
  0
LINE
  5
109
  8
1
 62
     7
 10
-97.019000000000005
 20
-35.0
 30
0.0
 11
-99.019000000000005
 21
-35.0
 31
0.0
  0
LINE
  5
10A
  8
1
 62
     7
 10
-91.019000000000005
 20
42.350000000000009
 30
0.0
 11
-76.719000000000023
 21
42.350000000000009
 31
0.0
  0
LINE
  5
10B
  8
1
  6
DASHDOT
 62
     3
 10
-99.019000000000005
 20
0.0
 30
0.0
 11
-102.324946575605
 21
0.0
 31
0.0
  0
LINE
  5
10C
  8
1
 62
     7
 10
-76.719000000000023
 20
43.562565441379817
 30
0.0
 11
-76.719000000000023
 21
-45.0
 31
0.0
  0
LINE
  5
10D
  8
1
 62
     7
 10
-76.719000000000023
 20
-42.34999999999998
 30
0.0
 11
-91.01900000000002
 21
-42.34999999999998
 31
0.0
  0
LINE
  5
10E
  8
1
 62
     7
 10
-66.762375672974102
 20
45.000000000000021
 30
0.0
 11
-66.762375672974102
 21
-45.0
 31
0.0
  0
LINE
  5
10F
  8
1
 62
     7
 10
-65.319000000000003
 20
42.5
 30
0.0
 11
-65.319000000000003
 21
-42.5
 31
0.0
  0
LINE
  5
110
  8
1
 62
     7
 10
40.23869891767297
 20
-31.400000000000009
 30
0.0
 11
40.238698917672963
 21
-38.0
 31
0.0
  0
LINE
  5
111
  8
1
 62
     7
 10
40.238698917672998
 20
-23.5
 30
0.0
 11
40.23869891767297
 21
-28.599999999999991
 31
0.0
  0
LINE
  5
112
  8
1
 62
     7
 10
-59.918999999999997
 20
-34.5
 30
0.0
 11
-57.918999999999997
 21
-34.5
 31
0.0
  0
LINE
  5
113
  8
1
 62
     7
 10
-59.918999999999997
 20
-25.5
 30
0.0
 11
-57.918999999999997
 21
-25.5
 31
0.0
  0
LINE
  5
114
  8
1
 62
     7
 10
-60.418999999999997
 20
-42.0
 30
0.0
 11
-59.918999999999997
 21
-42.0
 31
0.0
  0
LINE
  5
115
  8
1
 62
     7
 10
-59.018999999999998
 20
33.900000000000013
 30
0.0
 11
-58.518999999999998
 21
34.400000000000013
 31
0.0
  0
LINE
  5
116
  8
1
 62
     7
 10
-58.518999999999998
 20
40.59999999999998
 30
0.0
 11
-59.018999999999998
 21
41.09999999999998
 31
0.0
  0
LINE
  5
117
  8
1
 62
     7
 10
-59.918999999999997
 20
41.09999999999998
 30
0.0
 11
-59.918999999999997
 21
33.900000000000013
 31
0.0
  0
LINE
  5
118
  8
1
 62
     7
 10
-60.418999999999997
 20
33.900000000000013
 30
0.0
 11
-59.018999999999998
 21
33.900000000000013
 31
0.0
  0
LINE
  5
119
  8
1
 62
     7
 10
-58.518999999999998
 20
40.59999999999998
 30
0.0
 11
-58.518999999999998
 21
34.400000000000013
 31
0.0
  0
LINE
  5
11A
  8
1
 62
     7
 10
-60.418999999999997
 20
41.09999999999998
 30
0.0
 11
-59.018999999999998
 21
41.09999999999998
 31
0.0
  0
LINE
  5
11B
  8
1
 62
     7
 10
-60.91899999999999
 20
31.86602540378442
 30
0.0
 11
-60.418999999999997
 21
30.0
 31
0.0
  0
LINE
  5
11C
  8
1
 62
     7
 10
-60.418999999999997
 20
31.931851652578121
 30
0.0
 11
-59.918999999999997
 21
30.06582624879367
 31
0.0
  0
LINE
  5
11D
  8
1
 62
     7
 10
-60.418999999999997
 20
42.0
 30
0.0
 11
-60.418999999999997
 21
31.931851652578121
 31
0.0
  0
LINE
  5
11E
  8
1
 62
     7
 10
-60.91899999999999
 20
42.0
 30
0.0
 11
-60.418999999999997
 21
42.0
 31
0.0
  0
LINE
  5
11F
  8
1
 62
     7
 10
-60.91899999999999
 20
-43.0
 30
0.0
 11
-64.119
 21
-43.0
 31
0.0
  0
LINE
  5
120
  8
1
 62
     7
 10
-60.418999999999997
 20
30.0
 30
0.0
 11
-60.418999999999997
 21
-42.0
 31
0.0
  0
LINE
  5
121
  8
1
 62
     7
 10
-64.119
 20
43.0
 30
0.0
 11
-60.91899999999999
 21
43.0
 31
0.0
  0
LINE
  5
122
  8
1
 62
     7
 10
-64.119
 20
43.0
 30
0.0
 11
-64.119
 21
-43.0
 31
0.0
  0
LINE
  5
123
  8
1
  6
DASHDOT
 62
     3
 10
63.138698917672997
 20
0.0
 30
0.0
 11
66.437228342193805
 21
0.0
 31
0.0
  0
LINE
  5
124
  8
1
 62
     7
 10
37.73869891767297
 20
-23.75
 30
0.0
 11
38.238698917672977
 21
-23.75
 31
0.0
  0
LINE
  5
125
  8
1
 62
     7
 10
38.238698917672977
 20
-32.0
 30
0.0
 11
38.238698917672977
 21
-42.0
 31
0.0
  0
LINE
  5
126
  8
1
 62
     7
 10
37.73869891767297
 20
-37.0
 30
0.0
 11
38.238698917672977
 21
-37.0
 31
0.0
  0
LINE
  5
127
  8
1
 62
     7
 10
37.73869891767297
 20
-42.0
 30
0.0
 11
37.73869891767297
 21
-20.0
 31
0.0
  0
LINE
  5
128
  8
1
 62
     7
 10
37.23869891767297
 20
-34.25
 30
0.0
 11
37.23869891767297
 21
-43.0
 31
0.0
  0
LINE
  5
129
  8
1
 62
     7
 10
38.238698917672977
 20
-34.5
 30
0.0
 11
40.23869891767297
 21
-34.5
 31
0.0
  0
LINE
  5
12A
  8
1
 62
     7
 10
38.238698917672977
 20
-25.5
 30
0.0
 11
40.23869891767297
 21
-25.5
 31
0.0
  0
LINE
  5
12B
  8
1
 62
     7
 10
34.038698917672981
 20
-34.25
 30
0.0
 11
37.23869891767297
 21
-34.25
 31
0.0
  0
LINE
  5
12C
  8
1
 62
     7
 10
34.038698917672981
 20
-25.75
 30
0.0
 11
37.73869891767297
 21
-25.75
 31
0.0
  0
LINE
  5
12D
  8
1
 62
     7
 10
37.73869891767297
 20
-42.0
 30
0.0
 11
38.238698917672977
 21
-42.0
 31
0.0
  0
LINE
  5
12E
  8
1
 62
     7
 10
39.138698917672968
 20
33.900000000000013
 30
0.0
 11
39.638698917672968
 21
34.400000000000013
 31
0.0
  0
LINE
  5
12F
  8
1
 62
     7
 10
39.638698917672968
 20
40.59999999999998
 30
0.0
 11
39.138698917672968
 21
41.09999999999998
 31
0.0
  0
LINE
  5
130
  8
1
 62
     7
 10
38.238698917672977
 20
41.09999999999998
 30
0.0
 11
38.238698917672977
 21
33.900000000000013
 31
0.0
  0
LINE
  5
131
  8
1
 62
     7
 10
37.73869891767297
 20
33.900000000000013
 30
0.0
 11
39.138698917672968
 21
33.900000000000013
 31
0.0
  0
LINE
  5
132
  8
1
 62
     7
 10
39.638698917672968
 20
40.59999999999998
 30
0.0
 11
39.638698917672968
 21
34.400000000000013
 31
0.0
  0
LINE
  5
133
  8
1
 62
     7
 10
37.73869891767297
 20
41.09999999999998
 30
0.0
 11
39.138698917672968
 21
41.09999999999998
 31
0.0
  0
LINE
  5
134
  8
1
 62
     7
 10
37.23869891767297
 20
33.0
 30
0.0
 11
37.73869891767297
 21
33.0
 31
0.0
  0
LINE
  5
135
  8
1
 62
     7
 10
37.23869891767297
 20
31.86602540378442
 30
0.0
 11
37.73869891767297
 21
30.0
 31
0.0
  0
LINE
  5
136
  8
1
 62
     7
 10
38.238698917672977
 20
30.06582624879367
 30
0.0
 11
38.238698917672977
 21
20.0
 31
0.0
  0
LINE
  5
137
  8
1
 62
     7
 10
37.73869891767297
 20
31.931851652578121
 30
0.0
 11
38.238698917672977
 21
30.06582624879367
 31
0.0
  0
LINE
  5
138
  8
1
 62
     7
 10
37.73869891767297
 20
42.0
 30
0.0
 11
37.73869891767297
 21
31.931851652578121
 31
0.0
  0
LINE
  5
139
  8
1
 62
     7
 10
37.23869891767297
 20
42.0
 30
0.0
 11
37.73869891767297
 21
42.0
 31
0.0
  0
LINE
  5
13A
  8
1
 62
     7
 10
37.23869891767297
 20
-43.0
 30
0.0
 11
34.038698917672981
 21
-43.0
 31
0.0
  0
LINE
  5
13B
  8
1
 62
     7
 10
37.73869891767297
 20
-22.5
 30
0.0
 11
34.038698917672981
 21
-22.5
 31
0.0
  0
LINE
  5
13C
  8
1
 62
     7
 10
34.038698917672981
 20
22.5
 30
0.0
 11
37.73869891767297
 21
22.5
 31
0.0
  0
LINE
  5
13D
  8
1
 62
     7
 10
37.23869891767297
 20
30.0
 30
0.0
 11
37.73869891767297
 21
30.0
 31
0.0
  0
LINE
  5
13E
  8
1
 62
     7
 10
34.038698917672981
 20
43.0
 30
0.0
 11
37.23869891767297
 21
43.0
 31
0.0
  0
LINE
  5
13F
  8
1
 62
     7
 10
34.038698917672981
 20
43.0
 30
0.0
 11
34.038698917672981
 21
20.0
 31
0.0
  0
LINE
  5
140
  8
1
 62
     7
 10
37.23869891767297
 20
30.0
 30
0.0
 11
37.23869891767297
 21
43.0
 31
0.0
  0
LINE
  5
141
  8
1
 62
     7
 10
37.73869891767297
 20
-33.5
 30
0.0
 11
37.23869891767297
 21
-33.5
 31
0.0
  0
LINE
  5
142
  8
1
 62
     7
 10
37.23869891767297
 20
-26.5
 30
0.0
 11
37.73869891767297
 21
-26.5
 31
0.0
  0
LINE
  5
143
  8
1
 62
     7
 10
37.23869891767297
 20
-26.25
 30
0.0
 11
36.838698917672993
 21
-26.25
 31
0.0
  0
LINE
  5
144
  8
1
 62
     7
 10
36.838698917672993
 20
-26.25
 30
0.0
 11
36.838698917672993
 21
-33.75
 31
0.0
  0
LINE
  5
145
  8
1
 62
     7
 10
36.838698917672993
 20
-33.75
 30
0.0
 11
37.23869891767297
 21
-33.75
 31
0.0
  0
LINE
  5
146
  8
1
 62
     7
 10
37.23869891767297
 20
-33.75
 30
0.0
 11
37.23869891767297
 21
-26.25
 31
0.0
  0
LINE
  5
147
  8
1
 62
     7
 10
34.488698917672977
 20
-28.0
 30
0.0
 11
34.488698917672977
 21
-32.0
 31
0.0
  0
LINE
  5
148
  8
1
 62
     7
 10
37.73869891767297
 20
-28.0
 30
0.0
 11
46.638698917672968
 21
-28.0
 31
0.0
  0
LINE
  5
149
  8
1
 62
     7
 10
46.638698917672968
 20
-28.0
 30
0.0
 11
47.23869891767297
 21
-28.599999999999991
 31
0.0
  0
LINE
  5
14A
  8
1
 62
     7
 10
47.23869891767297
 20
-28.599999999999991
 30
0.0
 11
47.23869891767297
 21
-31.400000000000009
 31
0.0
  0
LINE
  5
14B
  8
1
 62
     7
 10
47.23869891767297
 20
-31.400000000000009
 30
0.0
 11
46.638698917672968
 21
-32.0
 31
0.0
  0
LINE
  5
14C
  8
1
 62
     7
 10
46.638698917672968
 20
-32.0
 30
0.0
 11
37.73869891767297
 21
-32.0
 31
0.0
  0
LINE
  5
14D
  8
1
 62
     7
 10
46.638698917672968
 20
-28.0
 30
0.0
 11
46.638698917672968
 21
-32.0
 31
0.0
  0
LINE
  5
14E
  8
1
 62
     3
 10
47.23869891767297
 20
-28.599999999999991
 30
0.0
 11
38.777929402214269
 21
-28.599999999999991
 31
0.0
  0
LINE
  5
14F
  8
1
 62
     3
 10
38.777929402214269
 20
-28.599999999999991
 30
0.0
 11
37.73869891767297
 21
-28.0
 31
0.0
  0
LINE
  5
150
  8
1
 62
     3
 10
47.23869891767297
 20
-31.400000000000009
 30
0.0
 11
38.777929402214269
 21
-31.400000000000009
 31
0.0
  0
LINE
  5
151
  8
1
 62
     3
 10
38.777929402214269
 20
-31.400000000000009
 30
0.0
 11
37.73869891767297
 21
-32.0
 31
0.0
  0
LINE
  5
152
  8
1
 62
     3
 10
38.777929402214269
 20
-28.0
 30
0.0
 11
38.777929402214269
 21
-32.0
 31
0.0
  0
LINE
  5
153
  8
1
 62
     7
 10
-59.918999999999997
 20
30.06582624879367
 30
0.0
 11
-59.918999999999997
 21
-42.0
 31
0.0
  0
LINE
  5
154
  8
1
 62
     7
 10
-60.91899999999999
 20
-43.0
 30
0.0
 11
-60.91899999999999
 21
43.0
 31
0.0
  0
LINE
  5
155
  8
1
 62
     7
 10
-60.91899999999999
 20
30.0
 30
0.0
 11
-60.418999999999997
 21
30.0
 31
0.0
  0
ARC
  5
156
  8
1
 62
     7
 10
6.1299659740431443
 20
28.091267056370121
 30
0.0
 40
4.991274696138289
 50
179.89975284902829
 51
258.54489837466491
  0
ARC
  5
157
  8
1
 62
     7
 10
6.12996597404313
 20
-28.091267056370121
 30
0.0
 40
4.9912746961382783
 50
90.100247150971796
 51
180.10024715097171
  0
ARC
  5
158
  8
1
  6
DASHDOT
 62
     3
 10
138.004458863705
 20
0.0000000000000213
 30
0.0
 40
33.000000000000071
 50
321.28525798138179
 51
338.7147420186181
  0
ARC
  5
159
  8
1
  6
DASHDOT
 62
     3
 10
138.004458863705
 20
0.0000000000000213
 30
0.0
 40
33.000000000000028
 50
201.2852579813819
 51
218.71474201861801
  0
ARC
  5
15A
  8
1
  6
DASHDOT
 62
     3
 10
138.004458863705
 20
0.0000000000000213
 30
0.0
 40
33.0
 50
81.285257981381889
 51
98.714742018618111
  0
ARC
  5
15B
  8
1
 62
     7
 10
105.5285062217885
 20
-18.749999999999961
 30
0.0
 40
3.6000000000000378
 50
125.2680206752789
 51
294.73197932472181
  0
ARC
  5
15C
  8
1
 62
     7
 10
138.004458863705
 20
37.5
 30
0.0
 40
3.59999999999989
 50
5.2680206752795291
 51
174.73197932472041
  0
ARC
  5
15D
  8
1
 62
     7
 10
170.48041150562139
 20
-18.75
 30
0.0
 40
3.6000000000000041
 50
245.26802067528001
 51
54.731979324720513
  0
ARC
  5
15E
  8
1
 62
     7
 10
127.004458863705
 20
19.05255888325766
 30
0.0
 40
20.000113214388769
 50
120.0000000000007
 51
170.4794534315746
  0
ARC
  5
15F
  8
1
 62
     7
 10
160.00445886370491
 20
0.0
 30
0.0
 40
20.000113214388591
 50
0.0
 51
50.479453431575209
  0
ARC
  5
160
  8
1
 62
     7
 10
127.0044588637049
 20
-19.052558883257621
 30
0.0
 40
20.00011321438873
 50
240.00000000000091
 51
290.47945343157483
  0
ARC
  5
161
  8
1
 62
     7
 10
149.00445886370491
 20
-19.052558883257621
 30
0.0
 40
20.00011321438862
 50
249.52054656842489
 51
299.99999999999989
  0
ARC
  5
162
  8
1
 62
     7
 10
116.004458863705
 20
0.0
 30
0.0
 40
20.000113214388609
 50
129.52054656842509
 51
180.0
  0
ARC
  5
163
  8
1
 62
     7
 10
149.00445886370491
 20
19.05255888325766
 30
0.0
 40
20.000113214388801
 50
9.520546568424141
 51
59.999999999999282
  0
ARC
  5
164
  8
1
 62
     7
 10
138.004458863705
 20
0.0000000000000213
 30
0.0
 40
7.5000000000000071
 50
109.47122063449071
 51
70.528779365509351
  0
ARC
  5
165
  8
1
 62
     7
 10
138.004458863705
 20
0.0000000000000213
 30
0.0
 40
42.000000000000007
 50
60.0
 51
119.9999999999999
  0
ARC
  5
166
  8
1
 62
     7
 10
138.004458863705
 20
0.0000000000000213
 30
0.0
 40
42.000000000000099
 50
180.0
 51
239.99999999999989
  0
ARC
  5
167
  8
1
 62
     7
 10
138.004458863705
 20
0.0000000000000213
 30
0.0
 40
42.0
 50
299.99999999999977
 51
359.99999999999977
  0
ARC
  5
168
  8
1
 62
     7
 10
144.004458863705
 20
60.0
 30
0.0
 40
2.0
 50
0.0
 51
90.0
  0
ARC
  5
169
  8
1
 62
     7
 10
132.00445886370491
 20
60.0
 30
0.0
 40
2.0
 50
90.0
 51
180.0
  0
ARC
  5
16A
  8
1
 62
     7
 10
-91.019000000000005
 20
36.35000000000003
 30
0.0
 40
5.9999999999999778
 50
90.0
 51
180.0
  0
ARC
  5
16B
  8
1
 62
     7
 10
7.1386989176729534
 20
36.350000000000023
 30
0.0
 40
5.9999999999999858
 50
89.999999999999602
 51
180.0
  0
ARC
  5
16C
  8
1
 62
     7
 10
37.95082666537408
 20
-30.196285832627179
 30
0.0
 40
4.1000000000000831
 50
105.7387025673125
 51
147.60999677183381
  0
ARC
  5
16D
  8
1
 62
     7
 10
37.95082666537408
 20
-29.803714167372789
 30
0.0
 40
4.1000000000001124
 50
212.39000322816639
 51
254.2612974326876
  0
CIRCLE
  5
16E
  8
1
 62
     7
 10
53.238698917672949
 20
-19.75
 30
0.0
 40
2.25
  0
CIRCLE
  5
16F
  8
1
 62
     7
 10
44.238698917672991
 20
-19.75
 30
0.0
 40
2.25
  0
CIRCLE
  5
170
  8
1
 62
     7
 10
53.238698917672949
 20
19.75
 30
0.0
 40
2.25
  0
CIRCLE
  5
171
  8
1
 62
     7
 10
44.238698917672991
 20
19.75
 30
0.0
 40
2.25
  0
CIRCLE
  5
172
  8
1
 62
     7
 10
138.004458863705
 20
0.0000000000000213
 30
0.0
 40
20.5
  0
CIRCLE
  5
173
  8
1
 62
     7
 10
138.004458863705
 20
0.0000000000000213
 30
0.0
 40
16.0
  0
CIRCLE
  5
174
  8
1
 62
     3
 10
166.5832971885915
 20
-16.50000000000006
 30
0.0
 40
1.999999999999992
  0
CIRCLE
  5
175
  8
1
 62
     7
 10
166.5832971885915
 20
-16.50000000000006
 30
0.0
 40
1.399999999999997
  0
CIRCLE
  5
176
  8
1
 62
     3
 10
109.42562053881851
 20
-16.499999999999972
 30
0.0
 40
1.9999999999999949
  0
CIRCLE
  5
177
  8
1
 62
     7
 10
109.42562053881851
 20
-16.499999999999972
 30
0.0
 40
1.4000000000000079
  0
CIRCLE
  5
178
  8
1
 62
     3
 10
138.004458863705
 20
33.000000000000028
 30
0.0
 40
2.0
  0
CIRCLE
  5
179
  8
1
 62
     7
 10
138.004458863705
 20
33.000000000000028
 30
0.0
 40
1.400000000000005
  0
CIRCLE
  5
17A
  8
1
 62
     7
 10
138.004458863705
 20
0.0000000000000213
 30
0.0
 40
38.0
  0
CIRCLE
  5
17B
  8
1
 62
     7
 10
138.004458863705
 20
0.0000000000000213
 30
0.0
 40
27.0
  0
CIRCLE
  5
17C
  8
1
 62
     7
 10
138.004458863705
 20
0.0000000000000213
 30
0.0
 40
45.0
  0
CIRCLE
  5
17D
  8
1
 62
     7
 10
138.004458863705
 20
56.000000000000028
 30
0.0
 40
2.75
  0
CIRCLE
  5
17E
  8
1
 62
     7
 10
112.02369675017169
 20
15.0
 30
0.0
 40
2.0
  0
CIRCLE
  5
17F
  8
1
 62
     7
 10
112.02369675017169
 20
15.0
 30
0.0
 40
1.5
  0
CIRCLE
  5
180
  8
1
 62
     7
 10
138.00445886370491
 20
-29.999999999999961
 30
0.0
 40
1.5
  0
CIRCLE
  5
181
  8
1
 62
     3
 10
138.00445886370491
 20
-29.999999999999961
 30
0.0
 40
1.5
  0
CIRCLE
  5
182
  8
1
 62
     7
 10
138.00445886370491
 20
-29.999999999999961
 30
0.0
 40
2.0
  0
CIRCLE
  5
183
  8
1
 62
     7
 10
163.9852209772381
 20
15.0
 30
0.0
 40
2.0
  0
CIRCLE
  5
184
  8
1
 62
     7
 10
163.9852209772381
 20
15.0
 30
0.0
 40
1.5
  0
CIRCLE
  5
185
  8
1
 62
     7
 10
138.004458863705
 20
0.0000000000000213
 30
0.0
 40
43.0
  0
CIRCLE
  5
186
  8
1
 62
     7
 10
13.13869891767297
 20
-18.0
 30
0.0
 40
3.299999999999998
  0
CIRCLE
  5
187
  8
1
 62
     7
 10
13.13869891767297
 20
18.0
 30
0.0
 40
3.299999999999998
  0
ARC
  5
188
  8
1
 62
     7
 10
-91.019000000000005
 20
-36.34999999999998
 30
0.0
 40
6.0000000000000133
 50
180.0
 51
270.0
  0
ARC
  5
189
  8
1
 62
     7
 10
7.1386989176729694
 20
-36.34999999999998
 30
0.0
 40
5.9999999999999716
 50
180.0
 51
270.0
  0
TEXT
  5
18B
  8
1
 62
     7
 10
-101.364044699183
 20
127.4039743433907
 30
0.0
 40
3.5
  1
VCEH 1.2P
 41
0.9
  7
SIMPLEX
  0
ENDSEC
  0
EOF
