  0
SECTION
  2
HEADER
  9
$ACADVER
  1
AC1009
  9
$INSBASE
 10
0.0
 20
0.0
 30
0.0
  9
$EXTMIN
 10
-130.23679536784871
 20
-56.5
 30
0.0
  9
$EXTMAX
 10
212.88963227242519
 20
142.4599013251445
 30
0.0
  9
$LIMMIN
 10
-130.23679536784871
 20
-56.5
  9
$LIMMAX
 10
210.24028587185001
 20
142.4599013251445
  9
$ORTHOMODE
 70
     0
  9
$REGENMODE
 70
     1
  9
$FILLMODE
 70
     1
  9
$QTEXTMODE
 70
     0
  9
$MIRRTEXT
 70
     1
  9
$DRAGMODE
 70
     2
  9
$LTSCALE
 40
1.0
  9
$OSMODE
 70
    37
  9
$ATTMODE
 70
     1
  9
$TEXTSIZE
 40
3.5
  9
$TRACEWID
 40
0.5
  9
$TEXTSTYLE
  7
STANDARD
  9
$CLAYER
  8
0
  9
$CELTYPE
  6
BYLAYER
  9
$CECOLOR
 62
   256
  9
$DIMSCALE
 40
1.0
  9
$DIMASZ
 40
0.18
  9
$DIMEXO
 40
0.0625
  9
$DIMDLI
 40
0.38
  9
$DIMRND
 40
0.0
  9
$DIMDLE
 40
0.0
  9
$DIMEXE
 40
0.18
  9
$DIMTP
 40
0.0
  9
$DIMTM
 40
0.0
  9
$DIMTXT
 40
0.18
  9
$DIMCEN
 40
0.09
  9
$DIMTSZ
 40
0.0
  9
$DIMTOL
 70
     0
  9
$DIMLIM
 70
     0
  9
$DIMTIH
 70
     1
  9
$DIMTOH
 70
     1
  9
$DIMSE1
 70
     0
  9
$DIMSE2
 70
     0
  9
$DIMTAD
 70
     0
  9
$DIMZIN
 70
     0
  9
$DIMBLK
  1

  9
$DIMASO
 70
     1
  9
$DIMSHO
 70
     1
  9
$DIMPOST
  1

  9
$DIMAPOST
  1

  9
$DIMALT
 70
     0
  9
$DIMALTD
 70
     2
  9
$DIMALTF
 40
25.399999999999999
  9
$DIMLFAC
 40
1.0
  9
$DIMTOFL
 70
     0
  9
$DIMTVP
 40
0.0
  9
$DIMTIX
 70
     0
  9
$DIMSOXD
 70
     0
  9
$DIMSAH
 70
     0
  9
$DIMBLK1
  1

  9
$DIMBLK2
  1

  9
$DIMSTYLE
  2
STANDARD
  9
$DIMCLRD
 70
     0
  9
$DIMCLRE
 70
     0
  9
$DIMCLRT
 70
     0
  9
$DIMTFAC
 40
1.0
  9
$DIMGAP
 40
0.09
  9
$LUNITS
 70
     2
  9
$LUPREC
 70
     4
  9
$SKETCHINC
 40
0.1
  9
$FILLETRAD
 40
2.0
  9
$AUNITS
 70
     0
  9
$AUPREC
 70
     0
  9
$MENU
  1
ACAD
  9
$ELEVATION
 40
0.0
  9
$PELEVATION
 40
0.0
  9
$THICKNESS
 40
0.0
  9
$LIMCHECK
 70
     0
  9
$BLIPMODE
 70
     0
  9
$CHAMFERA
 40
0.0
  9
$CHAMFERB
 40
0.0
  9
$SKPOLY
 70
     0
  9
$TDCREATE
 40
2452095.4304880779
  9
$TDUPDATE
 40
2452095.4312254628
  9
$TDINDWG
 40
0.000752662
  9
$TDUSRTIMER
 40
0.000752662
  9
$USRTIMER
 70
     1
  9
$ANGBASE
 50
0.0
  9
$ANGDIR
 70
     0
  9
$PDMODE
 70
     0
  9
$PDSIZE
 40
0.0
  9
$PLINEWID
 40
0.0
  9
$COORDS
 70
     1
  9
$SPLFRAME
 70
     0
  9
$SPLINETYPE
 70
     6
  9
$SPLINESEGS
 70
     8
  9
$ATTDIA
 70
     0
  9
$ATTREQ
 70
     1
  9
$HANDLING
 70
 10241
  9
$HANDSEED
  5
198
  9
$SURFTAB1
 70
     6
  9
$SURFTAB2
 70
     6
  9
$SURFTYPE
 70
     6
  9
$SURFU
 70
     6
  9
$SURFV
 70
     6
  9
$UCSNAME
  2

  9
$UCSORG
 10
0.0
 20
0.0
 30
0.0
  9
$UCSXDIR
 10
1.0
 20
0.0
 30
0.0
  9
$UCSYDIR
 10
0.0
 20
1.0
 30
0.0
  9
$PUCSNAME
  2

  9
$PUCSORG
 10
0.0
 20
0.0
 30
0.0
  9
$PUCSXDIR
 10
1.0
 20
0.0
 30
0.0
  9
$PUCSYDIR
 10
0.0
 20
1.0
 30
0.0
  9
$USERI1
 70
     0
  9
$USERI2
 70
     0
  9
$USERI3
 70
     0
  9
$USERI4
 70
     0
  9
$USERI5
 70
     0
  9
$USERR1
 40
0.0
  9
$USERR2
 40
0.0
  9
$USERR3
 40
0.0
  9
$USERR4
 40
0.0
  9
$USERR5
 40
0.0
  9
$WORLDVIEW
 70
     1
  9
$SHADEDGE
 70
     3
  9
$SHADEDIF
 70
    70
  9
$TILEMODE
 70
     1
  9
$MAXACTVP
 70
    64
  9
$PLIMCHECK
 70
     0
  9
$PEXTMIN
 10
1.0000000000000000E+020
 20
1.0000000000000000E+020
 30
1.0000000000000000E+020
  9
$PEXTMAX
 10
-1.0000000000000000E+020
 20
-1.0000000000000000E+020
 30
-1.0000000000000000E+020
  9
$PLIMMIN
 10
0.0
 20
0.0
  9
$PLIMMAX
 10
12.0
 20
9.0
  9
$UNITMODE
 70
     0
  9
$VISRETAIN
 70
     1
  9
$PLINEGEN
 70
     0
  9
$PSLTSCALE
 70
     1
  0
ENDSEC
  0
SECTION
  2
TABLES
  0
TABLE
  2
VPORT
 70
     2
  0
VPORT
  2
*ACTIVE
 70
     0
 10
0.0
 20
0.0
 11
1.0
 21
1.0
 12
-106.57989149792429
 22
136.93585220180131
 13
0.0
 23
0.0
 14
1.0
 24
1.0
 15
0.0
 25
0.0
 16
0.0
 26
0.0
 36
1.0
 17
0.0
 27
0.0
 37
0.0
 40
8.9999999872093213
 41
3.0569948186528491
 42
50.0
 43
0.0
 44
0.0
 50
0.0
 51
0.0
 71
     0
 72
   100
 73
     1
 74
     1
 75
     0
 76
     0
 77
     0
 78
     0
  0
ENDTAB
  0
TABLE
  2
LTYPE
 70
     9
  0
LTYPE
  2
CONTINUOUS
 70
     0
  3
Solid line
 72
    65
 73
     0
 40
0.0
  0
LTYPE
  2
BORDER
 70
     0
  3
__ __ . __ __ .
 72
    65
 73
     6
 40
15.679865583407169
 49
4.4799615952591951
 49
-2.239980797629598
 49
4.4799615952591951
 49
-2.239980797629598
 49
0.0
 49
-2.239980797629598
  0
LTYPE
  2
CENTER
 70
     0
  3
____ _ ____ _
 72
    65
 73
     4
 40
17.919846381036781
 49
11.199903988147989
 49
-2.239980797629598
 49
2.239980797629598
 49
-2.239980797629598
  0
LTYPE
  2
DASHDOT
 70
     0
  3
__ . __ . __ .
 72
    65
 73
     4
 40
8.9599231905183903
 49
4.4799615952591951
 49
-2.239980797629598
 49
0.0
 49
-2.239980797629598
  0
LTYPE
  2
DASHED
 70
     0
  3
__ __ __ __ __
 72
    65
 73
     2
 40
6.7199423928887931
 49
4.4799615952591951
 49
-2.239980797629598
  0
LTYPE
  2
DIVIDE
 70
     0
  3
__ . . __ . . 
 72
    65
 73
     6
 40
11.199903988147989
 49
4.4799615952591951
 49
-2.239980797629598
 49
0.0
 49
-2.239980797629598
 49
0.0
 49
-2.239980797629598
  0
LTYPE
  2
DOT
 70
     0
  3
..............
 72
    65
 73
     4
 40
4.4799615952591951
 49
0.0
 49
-2.239980797629598
 49
0.0
 49
-2.239980797629598
  0
LTYPE
  2
HIDDEN
 70
     0
  3
_ _ _ _ _ _ _
 72
    65
 73
     2
 40
3.359971196444397
 49
2.239980797629598
 49
-1.119990398814799
  0
LTYPE
  2
PHANTOM
 70
     0
  3
_____ _ _ _____ _ _ 
 72
    65
 73
     6
 40
22.399807976295978
 49
11.199903988147989
 49
-2.239980797629598
 49
2.239980797629598
 49
-2.239980797629598
 49
2.239980797629598
 49
-2.239980797629598
  0
ENDTAB
  0
TABLE
  2
LAYER
 70
     2
  0
LAYER
  2
0
 70
     0
 62
     7
  6
CONTINUOUS
  0
LAYER
  2
1
 70
     0
 62
     7
  6
CONTINUOUS
  0
ENDTAB
  0
TABLE
  2
STYLE
 70
     4
  0
STYLE
  2
STANDARD
 70
     0
 40
0.0
 41
1.0
 50
0.0
 71
     0
 42
3.5
  3
txt
  4

  0
STYLE
  2
SIMPLEX
 70
     0
 40
0.0
 41
1.0
 50
0.0
 71
     0
 42
3.5
  3
simplex
  4

  0
STYLE
  2
COMPLEX
 70
     0
 40
0.0
 41
1.0
 50
0.0
 71
     0
 42
3.5
  3
complex
  4

  0
STYLE
  2
ITALIC
 70
     0
 40
0.0
 41
1.0
 50
0.0
 71
     0
 42
3.5
  3
italic
  4

  0
ENDTAB
  0
TABLE
  2
VIEW
 70
     0
  0
ENDTAB
  0
TABLE
  2
UCS
 70
     0
  0
ENDTAB
  0
TABLE
  2
APPID
 70
     1
  0
APPID
  2
ACAD
 70
     0
  0
ENDTAB
  0
TABLE
  2
DIMSTYLE
 70
     1
  0
DIMSTYLE
  2
STANDARD
 70
     0
  3

  4

  5

  6

  7

 40
1.0
 41
0.18
 42
0.0625
 43
0.38
 44
0.18
 45
0.0
 46
0.0
 47
0.0
 48
0.0
140
0.18
141
0.09
142
0.0
143
25.399999999999999
144
1.0
145
0.0
146
1.0
147
0.09
 71
     0
 72
     0
 73
     1
 74
     1
 75
     0
 76
     0
 77
     0
 78
     0
170
     0
171
     2
172
     0
173
     0
174
     0
175
     0
176
     0
177
     0
178
     0
  0
ENDTAB
  0
ENDSEC
  0
SECTION
  2
BLOCKS
  0
BLOCK
  8
0
  2
$MODEL_SPACE
 70
     0
 10
0.0
 20
0.0
 30
0.0
  3
$MODEL_SPACE
  1

  0
ENDBLK
  5
20
  8
0
  0
BLOCK
 67
     1
  8
0
  2
$PAPER_SPACE
 70
     0
 10
0.0
 20
0.0
 30
0.0
  3
$PAPER_SPACE
  1

  0
ENDBLK
  5
1C
 67
     1
  8
0
  0
ENDSEC
  0
SECTION
  2
ENTITIES
  0
LINE
  5
33
  8
1
 62
     7
 10
6.3699999999999051
 20
27.500000000000011
 30
0.0
 11
6.3700000000000037
 21
-27.499999999999961
 31
0.0
  0
LINE
  5
34
  8
1
 62
     7
 10
-95.479999999999961
 20
77.995907876153126
 30
0.0
 11
-95.479999999999961
 21
53.350000000000009
 31
0.0
  0
LINE
  5
35
  8
1
 62
     7
 10
-92.979999999999961
 20
77.995907876153126
 30
0.0
 11
-92.979999999999961
 21
53.350000000000009
 31
0.0
  0
LINE
  5
36
  8
1
 62
     7
 10
-95.479999999999961
 20
77.995907876153126
 30
0.0
 11
-92.979999999999961
 21
77.995907876153126
 31
0.0
  0
LINE
  5
37
  8
1
 62
     7
 10
-94.542451283194467
 20
80.191124841229893
 30
0.0
 11
-94.542451283194467
 21
77.995907876153126
 31
0.0
  0
LINE
  5
38
  8
1
 62
     7
 10
-94.914881195890345
 20
80.191124841229893
 30
0.0
 11
-94.914881195890345
 21
77.995907876153126
 31
0.0
  0
LINE
  5
39
  8
1
 62
     7
 10
-93.91754871680547
 20
77.995907876153126
 30
0.0
 11
-93.91754871680547
 21
80.191124841229893
 31
0.0
  0
LINE
  5
3A
  8
1
 62
     7
 10
-93.545118804109549
 20
77.995907876153126
 30
0.0
 11
-93.545118804109549
 21
80.191124841229893
 31
0.0
  0
LINE
  5
3B
  8
1
 62
     7
 10
3.47208423834374
 20
27.0
 30
0.0
 11
4.3700000000000472
 21
27.0
 31
0.0
  0
LINE
  5
3C
  8
1
 62
     7
 10
4.3699999999999468
 20
31.5
 30
0.0
 11
-0.0460797830995574
 21
31.5
 31
0.0
  0
LINE
  5
3D
  8
1
 62
     7
 10
4.3699999999999468
 20
25.0
 30
0.0
 11
4.3699999999999468
 21
31.5
 31
0.0
  0
LINE
  5
3E
  8
1
 62
     7
 10
6.3699999999999468
 20
25.0
 30
0.0
 11
4.3699999999999468
 21
25.0
 31
0.0
  0
LINE
  5
3F
  8
1
 62
     7
 10
3.4720842383436401
 20
-27.0
 30
0.0
 11
6.3700000000000481
 21
-27.0
 31
0.0
  0
LINE
  5
40
  8
1
 62
     7
 10
9.4200000000000426
 20
77.995907876153126
 30
0.0
 11
9.4200000000000426
 21
53.350000000000009
 31
0.0
  0
LINE
  5
41
  8
1
 62
     7
 10
11.92000000000003
 20
77.995907876153126
 30
0.0
 11
11.92000000000003
 21
53.350000000000009
 31
0.0
  0
LINE
  5
42
  8
1
 62
     7
 10
9.4200000000000426
 20
77.995907876153126
 30
0.0
 11
11.92000000000003
 21
77.995907876153126
 31
0.0
  0
LINE
  5
43
  8
1
 62
     7
 10
10.357548716805541
 20
80.191124841229893
 30
0.0
 11
10.357548716805541
 21
77.995907876153126
 31
0.0
  0
LINE
  5
44
  8
1
 62
     7
 10
9.9851188041096464
 20
80.191124841229893
 30
0.0
 11
9.9851188041096464
 21
77.995907876153126
 31
0.0
  0
LINE
  5
45
  8
1
 62
     7
 10
10.98245128319453
 20
77.995907876153126
 30
0.0
 11
10.98245128319453
 21
80.191124841229893
 31
0.0
  0
LINE
  5
46
  8
1
 62
     7
 10
11.35488119589043
 20
77.995907876153126
 30
0.0
 11
11.35488119589043
 21
80.191124841229893
 31
0.0
  0
LINE
  5
47
  8
1
 62
     7
 10
44.869999999999997
 20
-23.887000000000111
 30
0.0
 11
44.869999999999997
 21
-36.100000000000101
 31
0.0
  0
LINE
  5
48
  8
1
 62
     7
 10
44.869999999999997
 20
-23.887000000000111
 30
0.0
 11
44.869999999999997
 21
-23.499999999999769
 31
0.0
  0
LINE
  5
49
  8
1
 62
     7
 10
36.369999999999997
 20
-18.99999999999994
 30
0.0
 11
36.370000000000012
 21
-23.499999999999989
 31
0.0
  0
LINE
  5
4A
  8
1
 62
     7
 10
42.270000000000067
 20
-24.49999999999994
 30
0.0
 11
42.270000000000103
 21
-35.500000000000099
 31
0.0
  0
LINE
  5
4B
  8
1
 62
     7
 10
41.66999999999998
 20
-24.49999999999994
 30
0.0
 11
41.66999999999998
 21
-53.000000000000107
 31
0.0
  0
LINE
  5
4C
  8
1
 62
     7
 10
36.77000000000001
 20
-24.49999999999994
 30
0.0
 11
36.77000000000001
 21
-53.500000000000057
 31
0.0
  0
LINE
  5
4D
  8
1
 62
     7
 10
36.969999999999999
 20
-24.49999999999994
 30
0.0
 11
36.969999999999999
 21
-54.000000000000107
 31
0.0
  0
LINE
  5
4E
  8
1
  6
DASHDOT
 62
     3
 10
56.870000000000012
 20
35.00000000000005
 30
0.0
 11
42.77000000000001
 21
35.00000000000005
 31
0.0
  0
LINE
  5
4F
  8
1
 62
     7
 10
44.869999999999997
 20
36.900000000000027
 30
0.0
 11
53.870000000000012
 21
36.900000000000027
 31
0.0
  0
LINE
  5
50
  8
1
 62
     7
 10
53.870000000000012
 20
33.100000000000009
 30
0.0
 11
44.869999999999997
 21
33.100000000000009
 31
0.0
  0
LINE
  5
51
  8
1
 62
     3
 10
44.869999999999997
 20
37.500000000000057
 30
0.0
 11
53.870000000000012
 21
37.500000000000057
 31
0.0
  0
LINE
  5
52
  8
1
 62
     3
 10
53.870000000000012
 20
32.50000000000005
 30
0.0
 11
44.869999999999997
 21
32.50000000000005
 31
0.0
  0
LINE
  5
53
  8
1
 62
     7
 10
-43.02999999999998
 20
-19.049999999999969
 30
0.0
 11
-41.330000000000027
 21
-19.049999999999969
 31
0.0
  0
LINE
  5
54
  8
1
 62
     7
 10
-39.530000000000022
 20
-15.999999999999879
 30
0.0
 11
-41.330000000000027
 21
-15.999999999999879
 31
0.0
  0
LINE
  5
55
  8
1
 62
     7
 10
-41.330000000000027
 20
16.0
 30
0.0
 11
-39.530000000000022
 21
16.0
 31
0.0
  0
LINE
  5
56
  8
1
 62
     7
 10
-43.02999999999998
 20
19.050000000000011
 30
0.0
 11
-41.330000000000027
 21
19.050000000000011
 31
0.0
  0
LINE
  5
57
  8
1
 62
     7
 10
-41.330000000000027
 20
19.050000000000011
 30
0.0
 11
-41.330000000000027
 21
-19.049999999999969
 31
0.0
  0
LINE
  5
58
  8
1
 62
     7
 10
-39.530000000000022
 20
16.0
 30
0.0
 11
-39.530000000000022
 21
-15.999999999999879
 31
0.0
  0
LINE
  5
59
  8
1
 62
     7
 10
-51.02999999999998
 20
-26.99999999999989
 30
0.0
 11
-51.02999999999998
 21
26.999999999999918
 31
0.0
  0
LINE
  5
5A
  8
1
 62
     7
 10
-43.02999999999998
 20
-26.99999999999989
 30
0.0
 11
-43.02999999999998
 21
26.999999999999918
 31
0.0
  0
LINE
  5
5B
  8
1
 62
     7
 10
-43.02999999999998
 20
26.999999999999918
 30
0.0
 11
-51.02999999999998
 21
26.999999999999918
 31
0.0
  0
LINE
  5
5C
  8
1
 62
     7
 10
-51.02999999999998
 20
26.999999999999918
 30
0.0
 11
-51.02999999999998
 21
43.0
 31
0.0
  0
LINE
  5
5D
  8
1
 62
     7
 10
-51.02999999999998
 20
43.0
 30
0.0
 11
-60.02999999999998
 21
43.0
 31
0.0
  0
LINE
  5
5E
  8
1
 62
     7
 10
-60.029999999999987
 20
-43.0
 30
0.0
 11
-51.02999999999998
 21
-43.0
 31
0.0
  0
LINE
  5
5F
  8
1
 62
     7
 10
-51.02999999999998
 20
-43.0
 30
0.0
 11
-51.02999999999998
 21
-26.99999999999989
 31
0.0
  0
LINE
  5
60
  8
1
 62
     7
 10
-51.02999999999998
 20
-26.99999999999989
 30
0.0
 11
-43.02999999999998
 21
-26.99999999999989
 31
0.0
  0
LINE
  5
61
  8
1
 62
     7
 10
50.370000000000012
 20
-10.00000000000005
 30
0.0
 11
65.370000000000005
 21
-10.00000000000005
 31
0.0
  0
LINE
  5
62
  8
1
 62
     7
 10
50.370000000000537
 20
10.50000000000048
 30
0.0
 11
21.370000000000012
 21
10.50000000000122
 31
0.0
  0
LINE
  5
63
  8
1
 62
     7
 10
50.370000000000012
 20
-10.49999999999952
 30
0.0
 11
50.370000000000537
 21
10.50000000000048
 31
0.0
  0
LINE
  5
64
  8
1
 62
     7
 10
21.370000000000012
 20
-10.49999999999881
 30
0.0
 11
50.370000000000012
 21
-10.49999999999952
 31
0.0
  0
LINE
  5
65
  8
1
 62
     7
 10
21.370000000000012
 20
10.50000000000122
 30
0.0
 11
21.370000000000012
 21
-10.49999999999881
 31
0.0
  0
LINE
  5
66
  8
1
 62
     7
 10
63.57
 20
15.99999999999997
 30
0.0
 11
65.370000000000019
 21
15.999999999999909
 31
0.0
  0
LINE
  5
67
  8
1
 62
     7
 10
62.07
 20
-15.99999999999986
 30
0.0
 11
41.37000000000004
 21
-15.99999999999976
 31
0.0
  0
LINE
  5
68
  8
1
 62
     7
 10
59.370000000000012
 20
-23.499999999999769
 30
0.0
 11
59.370000000000012
 21
-15.99999999999986
 31
0.0
  0
LINE
  5
69
  8
1
 62
     7
 10
62.07
 20
19.500000000000028
 30
0.0
 11
59.369999999999983
 21
19.500000000000028
 31
0.0
  0
LINE
  5
6A
  8
1
 62
     7
 10
59.369999999999983
 20
-19.499999999999961
 30
0.0
 11
62.07
 21
-19.499999999999961
 31
0.0
  0
LINE
  5
6B
  8
1
 62
     7
 10
62.07
 20
15.150000000000031
 30
0.0
 11
62.07
 21
19.500000000000028
 31
0.0
  0
LINE
  5
6C
  8
1
 62
     7
 10
62.07
 20
19.050000000000029
 30
0.0
 11
63.57
 21
19.050000000000029
 31
0.0
  0
LINE
  5
6D
  8
1
 62
     7
 10
63.57
 20
19.050000000000029
 30
0.0
 11
63.57
 21
15.150000000000031
 31
0.0
  0
LINE
  5
6E
  8
1
 62
     7
 10
63.57
 20
15.150000000000031
 30
0.0
 11
62.07
 21
15.150000000000031
 31
0.0
  0
LINE
  5
6F
  8
1
 62
     7
 10
62.07
 20
-15.149999999999981
 30
0.0
 11
62.07
 21
-19.499999999999961
 31
0.0
  0
LINE
  5
70
  8
1
 62
     7
 10
62.07
 20
-19.049999999999969
 30
0.0
 11
63.570000000000007
 21
-19.049999999999969
 31
0.0
  0
LINE
  5
71
  8
1
 62
     7
 10
63.570000000000007
 20
-19.049999999999969
 30
0.0
 11
63.57
 21
-15.149999999999981
 31
0.0
  0
LINE
  5
72
  8
1
 62
     7
 10
63.57
 20
-15.149999999999981
 30
0.0
 11
62.07
 21
-15.149999999999981
 31
0.0
  0
LINE
  5
73
  8
1
 62
     7
 10
65.370000000000019
 20
15.999999999999909
 30
0.0
 11
65.370000000000019
 21
-15.999999999999909
 31
0.0
  0
LINE
  5
74
  8
1
 62
     7
 10
65.370000000000019
 20
-15.999999999999909
 30
0.0
 11
63.57
 21
-15.99999999999986
 31
0.0
  0
LINE
  5
75
  8
1
 62
     7
 10
41.370000000000012
 20
-18.99999999999994
 30
0.0
 11
36.369999999999997
 21
-18.99999999999994
 31
0.0
  0
LINE
  5
76
  8
1
 62
     7
 10
61.870000000000012
 20
20.000000000000028
 30
0.0
 11
61.870000000000012
 21
26.99999999999989
 31
0.0
  0
LINE
  5
77
  8
1
 62
     7
 10
41.37000000000004
 20
15.99999999999997
 30
0.0
 11
62.07
 21
15.99999999999997
 31
0.0
  0
LINE
  5
78
  8
1
 62
     7
 10
36.369999999999997
 20
18.99999999999994
 30
0.0
 11
41.370000000000033
 21
18.99999999999994
 31
0.0
  0
LINE
  5
79
  8
1
 62
     7
 10
59.370000000000012
 20
20.500000000000171
 30
0.0
 11
61.870000000000012
 21
20.500000000000171
 31
0.0
  0
LINE
  5
7A
  8
1
 62
     7
 10
59.370000000000012
 20
23.499999999999961
 30
0.0
 11
41.37000000000004
 21
23.499999999999961
 31
0.0
  0
LINE
  5
7B
  8
1
 62
     7
 10
41.37000000000004
 20
23.499999999999961
 30
0.0
 11
41.37000000000004
 21
15.99999999999997
 31
0.0
  0
LINE
  5
7C
  8
1
 62
     7
 10
46.99500000000004
 20
21.698557158514959
 30
0.0
 11
50.37000000000004
 21
21.698557158514959
 31
0.0
  0
LINE
  5
7D
  8
1
 62
     7
 10
44.74500000000004
 20
21.698557158514959
 30
0.0
 11
41.37000000000004
 21
21.698557158514959
 31
0.0
  0
LINE
  5
7E
  8
1
 62
     7
 10
44.74500000000004
 20
17.80144284148497
 30
0.0
 11
41.37000000000004
 21
17.80144284148497
 31
0.0
  0
LINE
  5
7F
  8
1
 62
     7
 10
46.99500000000004
 20
17.80144284148497
 30
0.0
 11
50.37000000000004
 21
17.80144284148497
 31
0.0
  0
LINE
  5
80
  8
1
 62
     7
 10
42.270000000000032
 20
17.499999999999972
 30
0.0
 11
42.270000000000032
 21
21.999999999999972
 31
0.0
  0
LINE
  5
81
  8
1
 62
     7
 10
59.370000000000012
 20
15.99999999999997
 30
0.0
 11
59.370000000000012
 21
23.499999999999961
 31
0.0
  0
LINE
  5
82
  8
1
 62
     7
 10
50.37000000000004
 20
21.698557158514959
 30
0.0
 11
53.745000000000012
 21
21.698557158514959
 31
0.0
  0
LINE
  5
83
  8
1
 62
     7
 10
59.370000000000012
 20
21.698557158514959
 30
0.0
 11
55.995000000000012
 21
21.698557158514959
 31
0.0
  0
LINE
  5
84
  8
1
 62
     7
 10
59.370000000000012
 20
17.80144284148497
 30
0.0
 11
55.995000000000012
 21
17.80144284148497
 31
0.0
  0
LINE
  5
85
  8
1
 62
     7
 10
50.37000000000004
 20
17.80144284148497
 30
0.0
 11
53.745000000000012
 21
17.80144284148497
 31
0.0
  0
LINE
  5
86
  8
1
 62
     7
 10
58.469999999999999
 20
21.999999999999972
 30
0.0
 11
58.469999999999999
 21
17.499999999999972
 31
0.0
  0
LINE
  5
87
  8
1
 62
     7
 10
59.370000000000012
 20
15.99999999999997
 30
0.0
 11
59.370000000000012
 21
23.499999999999961
 31
0.0
  0
LINE
  5
88
  8
1
 62
     7
 10
41.37000000000004
 20
-23.499999999999769
 30
0.0
 11
59.370000000000012
 21
-23.499999999999769
 31
0.0
  0
LINE
  5
89
  8
1
 62
     7
 10
41.37000000000004
 20
-15.99999999999976
 30
0.0
 11
41.37000000000004
 21
-23.499999999999769
 31
0.0
  0
LINE
  5
8A
  8
1
 62
     7
 10
50.37000000000004
 20
-21.69855715851477
 30
0.0
 11
46.99500000000004
 21
-21.69855715851477
 31
0.0
  0
LINE
  5
8B
  8
1
 62
     7
 10
41.37000000000004
 20
-21.69855715851477
 30
0.0
 11
44.74500000000004
 21
-21.69855715851477
 31
0.0
  0
LINE
  5
8C
  8
1
 62
     7
 10
41.37000000000004
 20
-17.801442841484761
 30
0.0
 11
44.74500000000004
 21
-17.801442841484761
 31
0.0
  0
LINE
  5
8D
  8
1
 62
     7
 10
50.37000000000004
 20
-17.801442841484761
 30
0.0
 11
46.99500000000004
 21
-17.801442841484761
 31
0.0
  0
LINE
  5
8E
  8
1
 62
     7
 10
42.270000000000039
 20
-21.999999999999769
 30
0.0
 11
42.270000000000039
 21
-17.499999999999758
 31
0.0
  0
LINE
  5
8F
  8
1
 62
     7
 10
53.745000000000012
 20
-21.69855715851477
 30
0.0
 11
50.37000000000004
 21
-21.69855715851477
 31
0.0
  0
LINE
  5
90
  8
1
 62
     7
 10
55.995000000000012
 20
-21.69855715851477
 30
0.0
 11
59.370000000000012
 21
-21.69855715851477
 31
0.0
  0
LINE
  5
91
  8
1
 62
     7
 10
55.995000000000012
 20
-17.801442841484761
 30
0.0
 11
59.370000000000012
 21
-17.801442841484761
 31
0.0
  0
LINE
  5
92
  8
1
 62
     7
 10
53.745000000000012
 20
-17.801442841484761
 30
0.0
 11
50.37000000000004
 21
-17.801442841484761
 31
0.0
  0
LINE
  5
93
  8
1
 62
     7
 10
58.470000000000013
 20
-17.499999999999758
 30
0.0
 11
58.470000000000013
 21
-21.999999999999769
 31
0.0
  0
LINE
  5
94
  8
1
  6
DASHDOT
 62
     3
 10
-34.43
 20
0.0
 30
0.0
 11
-39.430000000000007
 21
0.0
 31
0.0
  0
LINE
  5
95
  8
1
  6
DASHDOT
 62
     3
 10
70.370000000000047
 20
0.0
 30
0.0
 11
65.370000000000019
 21
0.0000000000001137
 31
0.0
  0
LINE
  5
96
  8
1
 62
     7
 10
174.40684845534051
 20
77.12866157938781
 30
0.0
 11
168.3635619201425
 21
54.574809185332349
 31
0.0
  0
LINE
  5
97
  8
1
  6
DASHDOT
 62
     3
 10
153.74028587185001
 20
69.196027456730945
 30
0.0
 11
153.74028587185001
 21
60.80397254326904
 31
0.0
  0
LINE
  5
98
  8
1
  6
DASHDOT
 62
     3
 10
157.93631332858101
 20
64.999999999999915
 30
0.0
 11
149.5442584151192
 21
64.999999999999915
 31
0.0
  0
LINE
  5
99
  8
1
  6
DASHDOT
 62
     3
 10
153.74028587185001
 20
5.8723588999227454
 30
0.0
 11
153.74028587185001
 21
-5.8723588999227223
 31
0.0
  0
LINE
  5
9A
  8
1
  6
DASHDOT
 62
     3
 10
159.61264477177289
 20
0.0
 30
0.0
 11
147.8679269719274
 21
0.0
 31
0.0
  0
LINE
  5
9B
  8
1
 62
     7
 10
150.74028587185001
 20
12.799999999999979
 30
0.0
 11
150.74028587185001
 21
9.5393920141694348
 31
0.0
  0
LINE
  5
9C
  8
1
 62
     7
 10
156.74028587185001
 20
12.799999999999979
 30
0.0
 11
156.74028587185001
 21
9.5393920141694348
 31
0.0
  0
LINE
  5
9D
  8
1
 62
     7
 10
150.74028587185001
 20
12.799999999999979
 30
0.0
 11
156.74028587185001
 21
12.799999999999979
 31
0.0
  0
LINE
  5
9E
  8
1
 62
     7
 10
145.74028587185001
 20
55.930760767220022
 30
0.0
 11
145.74028587185001
 21
68.999999999999929
 31
0.0
  0
LINE
  5
9F
  8
1
 62
     7
 10
161.74028587185001
 20
55.930760767220022
 30
0.0
 11
161.74028587185001
 21
68.999999999999929
 31
0.0
  0
LINE
  5
A0
  8
1
 62
     7
 10
171.9920338896178
 20
77.77570919214412
 30
0.0
 11
165.93442512806101
 21
55.168405521640132
 31
0.0
  0
LINE
  5
A1
  8
1
 62
     7
 10
176.82166302106299
 20
76.481613966631514
 30
0.0
 11
170.76405425950639
 21
53.874310296127533
 31
0.0
  0
LINE
  5
A2
  8
1
 62
     7
 10
171.9920338896178
 20
77.77570919214412
 30
0.0
 11
176.82166302106299
 21
76.481613966631514
 31
0.0
  0
LINE
  5
A3
  8
1
 62
     7
 10
175.79792129999399
 20
79.861753275280364
 30
0.0
 11
175.0170858219596
 21
76.965148969810969
 31
0.0
  0
LINE
  5
A4
  8
1
 62
     7
 10
176.27711309571129
 20
79.73335422059823
 30
0.0
 11
175.4899649009439
 21
76.838441402479532
 31
0.0
  0
LINE
  5
A5
  8
1
 62
     7
 10
176.75630489142861
 20
79.604955165916124
 30
0.0
 11
175.98178213012719
 21
76.706659373096159
 31
0.0
  0
LINE
  5
A6
  8
1
 62
     7
 10
173.79661108872111
 20
77.292174188964736
 30
0.0
 11
174.56868988130191
 21
80.191124841229836
 31
0.0
  0
LINE
  5
A7
  8
1
 62
     7
 10
173.323732009737
 20
77.41888175629613
 30
0.0
 11
174.08949808558461
 21
80.319523895911857
 31
0.0
  0
LINE
  5
A8
  8
1
 62
     7
 10
172.83191478055349
 20
77.550663785679546
 30
0.0
 11
173.61030628986751
 21
80.447922950594005
 31
0.0
  0
LINE
  5
A9
  8
1
 62
     7
 10
159.74028587185001
 20
70.999999999999929
 30
0.0
 11
147.74028587185001
 21
70.999999999999929
 31
0.0
  0
LINE
  5
AA
  8
1
 62
     7
 10
65.370000000000019
 20
9.9999999999999432
 30
0.0
 11
50.370000000000012
 21
9.9999999999999432
 31
0.0
  0
LINE
  5
AB
  8
1
  6
DASHDOT
 62
     3
 10
153.74028587185001
 20
40.499999999999993
 30
0.0
 11
153.74028587185001
 21
29.499999999999972
 31
0.0
  0
LINE
  5
AC
  8
1
  6
DASHDOT
 62
     3
 10
118.6662570185802
 20
-20.250000000000028
 30
0.0
 11
128.19253646020911
 21
-14.75000000000003
 31
0.0
  0
LINE
  5
AD
  8
1
  6
DASHDOT
 62
     3
 10
188.8143147251198
 20
-20.25000000000006
 30
0.0
 11
179.2880352834909
 21
-14.75000000000006
 31
0.0
  0
LINE
  5
AE
  8
1
 62
     7
 10
44.869999999999997
 20
-42.999999999999972
 30
0.0
 11
53.870000000000012
 21
-42.999999999999972
 31
0.0
  0
LINE
  5
AF
  8
1
 62
     7
 10
53.870000000000012
 20
-42.999999999999972
 30
0.0
 11
53.870000000000012
 21
-26.99999999999989
 31
0.0
  0
LINE
  5
B0
  8
1
 62
     7
 10
53.870000000000012
 20
-26.99999999999989
 30
0.0
 11
61.870000000000012
 21
-26.99999999999989
 31
0.0
  0
LINE
  5
B1
  8
1
 62
     7
 10
61.870000000000012
 20
26.99999999999989
 30
0.0
 11
53.870000000000012
 21
26.99999999999989
 31
0.0
  0
LINE
  5
B2
  8
1
 62
     7
 10
61.870000000000012
 20
-26.99999999999989
 30
0.0
 11
61.870000000000012
 21
-19.999999999999961
 31
0.0
  0
LINE
  5
B3
  8
1
 62
     7
 10
53.870000000000012
 20
26.99999999999989
 30
0.0
 11
53.870000000000012
 21
43.0
 31
0.0
  0
LINE
  5
B4
  8
1
 62
     7
 10
53.870000000000012
 20
43.0
 30
0.0
 11
44.869999999999997
 21
43.0
 31
0.0
  0
LINE
  5
B5
  8
1
 62
     7
 10
61.870000000000012
 20
-20.499999999999819
 30
0.0
 11
59.370000000000012
 21
-20.499999999999819
 31
0.0
  0
LINE
  5
B6
  8
1
 62
     7
 10
44.869999999999997
 20
43.0
 30
0.0
 11
44.869999999999997
 21
23.499999999999961
 31
0.0
  0
LINE
  5
B7
  8
1
 62
     7
 10
-2.1299999999999528
 20
61.75
 30
0.0
 11
-0.1299999999999528
 21
61.75
 31
0.0
  0
LINE
  5
B8
  8
1
 62
     7
 10
-2.1299999999999528
 20
68.25
 30
0.0
 11
-0.1299999999999528
 21
68.25
 31
0.0
  0
LINE
  5
B9
  8
1
 62
     7
 10
-0.1299999999999528
 20
71.0
 30
0.0
 11
-0.1299999999999528
 21
-47.350000000000001
 31
0.0
  0
LINE
  5
BA
  8
1
 62
     7
 10
-105.03
 20
-47.349999999999973
 30
0.0
 11
-105.03
 21
71.0
 31
0.0
  0
LINE
  5
BB
  8
1
 62
     7
 10
-107.03
 20
-42.499999999999957
 30
0.0
 11
-107.03
 21
71.0
 31
0.0
  0
LINE
  5
BC
  8
1
 62
     7
 10
19.370000000000012
 20
27.500000000000011
 30
0.0
 11
6.3699999999999051
 21
27.500000000000011
 31
0.0
  0
LINE
  5
BD
  8
1
 62
     7
 10
19.370000000000012
 20
29.000000000000011
 30
0.0
 11
19.370000000000012
 21
15.0
 31
0.0
  0
LINE
  5
BE
  8
1
 62
     7
 10
19.370000000000012
 20
15.0
 30
0.0
 11
6.3700000000000037
 21
15.0
 31
0.0
  0
LINE
  5
BF
  8
1
 62
     7
 10
30.870000000000012
 20
-26.999999999999961
 30
0.0
 11
30.870000000000012
 21
-53.850000000000087
 31
0.0
  0
LINE
  5
C0
  8
1
 62
     7
 10
21.370000000000012
 20
-26.999999999999961
 30
0.0
 11
21.370000000000012
 21
-20.499999999999979
 31
0.0
  0
LINE
  5
C1
  8
1
 62
     7
 10
21.370000000000012
 20
53.849999999999902
 30
0.0
 11
21.370000000000012
 21
56.500000000000007
 31
0.0
  0
LINE
  5
C2
  8
1
 62
     7
 10
30.870000000000012
 20
27.000000000000011
 30
0.0
 11
30.870000000000012
 21
53.849999999999902
 31
0.0
  0
LINE
  5
C3
  8
1
  6
DASHDOT
 62
     3
 10
-108.5113117259484
 20
65.0
 30
0.0
 11
-102.93668888638641
 21
65.0
 31
0.0
  0
LINE
  5
C4
  8
1
 62
     7
 10
-83.529999999999987
 20
56.500000000000007
 30
0.0
 11
-83.529999999999987
 21
-56.499999999999957
 31
0.0
  0
LINE
  5
C5
  8
1
 62
     7
 10
-71.362050807568906
 20
56.499999999999993
 30
0.0
 11
-71.362050807568906
 21
-56.499999999999957
 31
0.0
  0
LINE
  5
C6
  8
1
 62
     7
 10
-69.629999999999995
 20
-53.499999999999957
 30
0.0
 11
-69.629999999999995
 21
53.500000000000007
 31
0.0
  0
LINE
  5
C7
  8
1
 62
     7
 10
-83.529999999999987
 20
-53.349999999999973
 30
0.0
 11
-99.029999999999959
 21
-53.349999999999973
 31
0.0
  0
LINE
  5
C8
  8
1
  6
DASHDOT
 62
     3
 10
-107.03
 20
0.0
 30
0.0
 11
-112.03
 21
0.0
 31
0.0
  0
LINE
  5
C9
  8
1
 62
     7
 10
-99.029999999999959
 20
53.350000000000037
 30
0.0
 11
-83.529999999999987
 21
53.350000000000037
 31
0.0
  0
LINE
  5
CA
  8
1
 62
     7
 10
-105.0179871096782
 20
71.0
 30
0.0
 11
-107.03
 21
71.0
 31
0.0
  0
LINE
  5
CB
  8
1
 62
     7
 10
-107.03
 20
-42.499999999999957
 30
0.0
 11
-105.03
 21
-42.499999999999957
 31
0.0
  0
LINE
  5
CC
  8
1
 62
     7
 10
-83.529999999999987
 20
56.500000000000007
 30
0.0
 11
-71.362050807568906
 21
56.499999999999993
 31
0.0
  0
LINE
  5
CD
  8
1
 62
     7
 10
-71.362050807568906
 20
56.499999999999993
 30
0.0
 11
-69.629999999999995
 21
53.500000000000007
 31
0.0
  0
LINE
  5
CE
  8
1
 62
     7
 10
-69.629999999999995
 20
53.500000000000007
 30
0.0
 11
-68.129999999999995
 21
53.500000000000007
 31
0.0
  0
LINE
  5
CF
  8
1
 62
     7
 10
-68.129999999999995
 20
53.500000000000007
 30
0.0
 11
-68.129999999999995
 21
-53.500000000000057
 31
0.0
  0
LINE
  5
D0
  8
1
 62
     7
 10
-68.129999999999995
 20
-53.500000000000057
 30
0.0
 11
-69.629999999999995
 21
-53.499999999999957
 31
0.0
  0
LINE
  5
D1
  8
1
 62
     7
 10
-69.629999999999995
 20
-53.499999999999957
 30
0.0
 11
-71.362050807568906
 21
-56.499999999999957
 31
0.0
  0
LINE
  5
D2
  8
1
 62
     7
 10
-71.362050807568906
 20
-56.499999999999957
 30
0.0
 11
-83.529999999999987
 21
-56.499999999999957
 31
0.0
  0
LINE
  5
D3
  8
1
  6
DASHDOT
 62
     3
 10
-2.1299999999999528
 20
0.0
 30
0.0
 11
-7.1299999999999528
 21
0.0
 31
0.0
  0
LINE
  5
D4
  8
1
 62
     7
 10
20.870000000000012
 20
27.500000000000011
 30
0.0
 11
28.370000000000012
 21
27.500000000000011
 31
0.0
  0
LINE
  5
D5
  8
1
 62
     7
 10
28.370000000000012
 20
27.500000000000011
 30
0.0
 11
28.370000000000012
 21
53.350000000000037
 31
0.0
  0
LINE
  5
D6
  8
1
 62
     7
 10
20.870000000000012
 20
-27.499999999999961
 30
0.0
 11
28.370000000000012
 21
-27.499999999999961
 31
0.0
  0
LINE
  5
D7
  8
1
 62
     7
 10
5.8700000000000507
 20
53.350000000000037
 30
0.0
 11
28.370000000000012
 21
53.350000000000037
 31
0.0
  0
LINE
  5
D8
  8
1
 62
     7
 10
28.370000000000012
 20
-53.350000000000108
 30
0.0
 11
5.8700000000000516
 21
-53.350000000000001
 31
0.0
  0
LINE
  5
D9
  8
1
 62
     7
 10
-0.1299999999999528
 20
71.0
 30
0.0
 11
-2.1299999999999528
 21
71.0
 31
0.0
  0
LINE
  5
DA
  8
1
  6
DASHDOT
 62
     3
 10
-3.182268476900163
 20
65.0
 30
0.0
 11
0.9184609998234369
 21
65.0
 31
0.0
  0
LINE
  5
DB
  8
1
 62
     7
 10
-2.1299999999999528
 20
24.500000000000011
 30
0.0
 11
-0.1300000000000532
 21
24.5
 31
0.0
  0
LINE
  5
DC
  8
1
 62
     7
 10
-2.1299999999999231
 20
-24.499999999999989
 30
0.0
 11
-0.1299999999999244
 21
-24.499999999999989
 31
0.0
  0
LINE
  5
DD
  8
1
 62
     7
 10
-2.1299999999999528
 20
-42.499999999999957
 30
0.0
 11
-0.1299999999999528
 21
-42.499999999999957
 31
0.0
  0
LINE
  5
DE
  8
1
 62
     7
 10
19.370000000000012
 20
20.500000000000011
 30
0.0
 11
21.370000000000012
 21
20.500000000000011
 31
0.0
  0
LINE
  5
DF
  8
1
 62
     7
 10
21.370000000000012
 20
20.500000000000011
 30
0.0
 11
21.370000000000012
 21
27.000000000000011
 31
0.0
  0
LINE
  5
E0
  8
1
 62
     7
 10
21.370000000000012
 20
27.000000000000011
 30
0.0
 11
30.870000000000012
 21
27.000000000000011
 31
0.0
  0
LINE
  5
E1
  8
1
 62
     7
 10
30.870000000000012
 20
53.849999999999902
 30
0.0
 11
21.370000000000012
 21
53.849999999999902
 31
0.0
  0
LINE
  5
E2
  8
1
 62
     7
 10
21.370000000000012
 20
56.500000000000007
 30
0.0
 11
33.537949192431078
 21
56.499999999999993
 31
0.0
  0
LINE
  5
E3
  8
1
 62
     7
 10
33.537949192431078
 20
56.499999999999993
 30
0.0
 11
35.27000000000001
 21
53.500000000000007
 31
0.0
  0
LINE
  5
E4
  8
1
 62
     7
 10
35.27000000000001
 20
53.500000000000007
 30
0.0
 11
36.77000000000001
 21
53.500000000000007
 31
0.0
  0
LINE
  5
E5
  8
1
 62
     7
 10
36.77000000000001
 20
53.500000000000007
 30
0.0
 11
36.77000000000001
 21
24.500000000000171
 31
0.0
  0
LINE
  5
E6
  8
1
 62
     7
 10
36.77000000000001
 20
27.000000000000011
 30
0.0
 11
34.469999999999999
 21
27.000000000000011
 31
0.0
  0
LINE
  5
E7
  8
1
 62
     7
 10
34.469999999999999
 20
27.000000000000011
 30
0.0
 11
34.469999999999999
 21
23.5
 31
0.0
  0
LINE
  5
E8
  8
1
 62
     7
 10
36.370000000000012
 20
-23.499999999999989
 30
0.0
 11
34.469999999999999
 21
-23.499999999999989
 31
0.0
  0
LINE
  5
E9
  8
1
 62
     7
 10
34.469999999999999
 20
-23.499999999999989
 30
0.0
 11
34.469999999999999
 21
-26.999999999999989
 31
0.0
  0
LINE
  5
EA
  8
1
 62
     7
 10
34.469999999999999
 20
-26.999999999999989
 30
0.0
 11
36.77000000000001
 21
-26.999999999999989
 31
0.0
  0
LINE
  5
EB
  8
1
 62
     7
 10
36.77000000000001
 20
-53.500000000000057
 30
0.0
 11
35.27000000000001
 21
-53.499999999999957
 31
0.0
  0
LINE
  5
EC
  8
1
 62
     7
 10
35.27000000000001
 20
-53.499999999999957
 30
0.0
 11
33.537949192431078
 21
-56.499999999999957
 31
0.0
  0
LINE
  5
ED
  8
1
 62
     7
 10
33.537949192431078
 20
-56.499999999999957
 30
0.0
 11
21.370000000000012
 21
-56.499999999999957
 31
0.0
  0
LINE
  5
EE
  8
1
 62
     7
 10
21.370000000000012
 20
-56.499999999999957
 30
0.0
 11
21.370000000000012
 21
-53.850000000000087
 31
0.0
  0
LINE
  5
EF
  8
1
 62
     7
 10
21.370000000000012
 20
-53.850000000000087
 30
0.0
 11
30.870000000000012
 21
-53.850000000000087
 31
0.0
  0
LINE
  5
F0
  8
1
 62
     7
 10
30.870000000000012
 20
-26.999999999999961
 30
0.0
 11
21.370000000000012
 21
-26.999999999999961
 31
0.0
  0
LINE
  5
F1
  8
1
 62
     7
 10
21.370000000000012
 20
-20.499999999999979
 30
0.0
 11
19.370000000000012
 21
-20.499999999999979
 31
0.0
  0
LINE
  5
F2
  8
1
 62
     7
 10
28.370000000000012
 20
-27.499999999999961
 30
0.0
 11
28.370000000000012
 21
-53.350000000000108
 31
0.0
  0
LINE
  5
F3
  8
1
 62
     7
 10
-2.1299999999999528
 20
-42.499999999999957
 30
0.0
 11
-2.1299999999999528
 21
71.0
 31
0.0
  0
LINE
  5
F4
  8
1
 62
     7
 10
19.370000000000012
 20
-28.999999999999961
 30
0.0
 11
20.870000000000012
 21
-28.999999999999961
 31
0.0
  0
LINE
  5
F5
  8
1
 62
     7
 10
19.370000000000012
 20
23.899999999999981
 30
0.0
 11
20.870000000000012
 21
23.899999999999981
 31
0.0
  0
LINE
  5
F6
  8
1
 62
     7
 10
19.370000000000012
 20
-22.499999999999989
 30
0.0
 11
20.870000000000012
 21
-22.499999999999989
 31
0.0
  0
LINE
  5
F7
  8
1
 62
     7
 10
20.870000000000012
 20
29.000000000000011
 30
0.0
 11
20.870000000000012
 21
23.311000000000071
 31
0.0
  0
LINE
  5
F8
  8
1
 62
     7
 10
20.870000000000012
 20
29.000000000000011
 30
0.0
 11
19.370000000000012
 21
29.000000000000011
 31
0.0
  0
LINE
  5
F9
  8
1
 62
     7
 10
20.870000000000012
 20
-21.936999999999991
 30
0.0
 11
20.870000000000012
 21
-28.999999999999961
 31
0.0
  0
LINE
  5
FA
  8
1
 62
     7
 10
6.3699999999999308
 20
12.80000000000005
 30
0.0
 11
65.370000000000019
 21
12.80000000000005
 31
0.0
  0
LINE
  5
FB
  8
1
 62
     7
 10
36.370000000000012
 20
23.5
 30
0.0
 11
36.369999999999997
 21
18.99999999999994
 31
0.0
  0
LINE
  5
FC
  8
1
 62
     7
 10
6.3764055635584924
 20
-9.9999999999999876
 30
0.0
 11
21.370000000000012
 21
-9.9999999999999876
 31
0.0
  0
LINE
  5
FD
  8
1
 62
     7
 10
34.469999999999999
 20
23.5
 30
0.0
 11
36.370000000000012
 21
23.5
 31
0.0
  0
LINE
  5
FE
  8
1
 62
     7
 10
19.370000000000012
 20
-15.0
 30
0.0
 11
19.370000000000012
 21
-28.999999999999961
 31
0.0
  0
LINE
  5
FF
  8
1
 62
     7
 10
6.3700000000000037
 20
-27.499999999999961
 30
0.0
 11
19.370000000000012
 21
-27.499999999999961
 31
0.0
  0
LINE
  5
100
  8
1
 62
     7
 10
19.370000000000012
 20
-15.0
 30
0.0
 11
6.3700000000000037
 21
-15.0
 31
0.0
  0
LINE
  5
101
  8
1
 62
     7
 10
21.363594436441488
 20
9.9999999999999876
 30
0.0
 11
6.3764055635584924
 21
9.9999999999999876
 31
0.0
  0
LINE
  5
102
  8
1
 62
     7
 10
10.894564921340111
 20
18.0625
 30
0.0
 11
6.3700000000000037
 21
18.0625
 31
0.0
  0
LINE
  5
103
  8
1
 62
     7
 10
14.8454350786599
 20
18.0625
 30
0.0
 11
19.370000000000012
 21
18.0625
 31
0.0
  0
LINE
  5
104
  8
1
 62
     7
 10
10.894564921340111
 20
24.4375
 30
0.0
 11
6.3700000000000037
 21
24.4375
 31
0.0
  0
LINE
  5
105
  8
1
 62
     7
 10
14.8454350786599
 20
24.4375
 30
0.0
 11
19.370000000000012
 21
24.4375
 31
0.0
  0
LINE
  5
106
  8
1
 62
     7
 10
17.995000000000012
 20
25.203125
 30
0.0
 11
17.995000000000012
 21
17.296875
 31
0.0
  0
LINE
  5
107
  8
1
 62
     7
 10
7.7450000000000037
 20
25.203125
 30
0.0
 11
7.7450000000000037
 21
17.296875
 31
0.0
  0
LINE
  5
108
  8
1
 62
     7
 10
10.894564921340111
 20
-18.0625
 30
0.0
 11
6.3700000000000037
 21
-18.0625
 31
0.0
  0
LINE
  5
109
  8
1
 62
     7
 10
14.8454350786599
 20
-18.0625
 30
0.0
 11
19.370000000000012
 21
-18.0625
 31
0.0
  0
LINE
  5
10A
  8
1
 62
     7
 10
10.894564921340111
 20
-24.4375
 30
0.0
 11
6.3700000000000037
 21
-24.4375
 31
0.0
  0
LINE
  5
10B
  8
1
 62
     7
 10
14.8454350786599
 20
-24.4375
 30
0.0
 11
19.370000000000012
 21
-24.4375
 31
0.0
  0
LINE
  5
10C
  8
1
 62
     7
 10
17.995000000000012
 20
-25.203125
 30
0.0
 11
17.995000000000012
 21
-17.296875
 31
0.0
  0
LINE
  5
10D
  8
1
 62
     7
 10
7.7450000000000037
 20
-25.203125
 30
0.0
 11
7.7450000000000037
 21
-17.296875
 31
0.0
  0
LINE
  5
10E
  8
1
 62
     7
 10
44.869999999999997
 20
-39.900000000000119
 30
0.0
 11
44.869999999999997
 21
-43.500000000000107
 31
0.0
  0
LINE
  5
10F
  8
1
 62
     7
 10
36.969999999999999
 20
53.999999999999943
 30
0.0
 11
36.969999999999999
 21
24.500000000000171
 31
0.0
  0
LINE
  5
110
  8
1
 62
     7
 10
36.969999999999999
 20
53.999999999999943
 30
0.0
 11
40.969999999999999
 21
53.999999999999943
 31
0.0
  0
LINE
  5
111
  8
1
 62
     7
 10
40.969999999999999
 20
53.999999999999943
 30
0.0
 11
40.969999999999999
 21
37.999999999999929
 31
0.0
  0
LINE
  5
112
  8
1
 62
     7
 10
40.969999999999999
 20
37.999999999999929
 30
0.0
 11
41.66999999999998
 21
37.999999999999929
 31
0.0
  0
LINE
  5
113
  8
1
 62
     7
 10
41.66999999999998
 20
37.999999999999929
 30
0.0
 11
41.66999999999998
 21
24.500000000000171
 31
0.0
  0
LINE
  5
114
  8
1
 62
     7
 10
36.969999999999999
 20
26.49999999999994
 30
0.0
 11
41.670000000000101
 21
26.49999999999994
 31
0.0
  0
LINE
  5
115
  8
1
 62
     7
 10
40.969999999999999
 20
52.999999999999929
 30
0.0
 11
41.569999999999993
 21
52.999999999999929
 31
0.0
  0
LINE
  5
116
  8
1
 62
     7
 10
41.569999999999993
 20
52.999999999999929
 30
0.0
 11
41.569999999999993
 21
40.541368366021459
 31
0.0
  0
LINE
  5
117
  8
1
 62
     7
 10
41.569999999999993
 20
40.541368366021459
 30
0.0
 11
42.27000000000001
 21
37.999999999999929
 31
0.0
  0
LINE
  5
118
  8
1
 62
     7
 10
40.969999999999999
 20
40.612435565298199
 30
0.0
 11
41.66999999999998
 21
37.999999999999929
 31
0.0
  0
LINE
  5
119
  8
1
 62
     7
 10
41.569999999999993
 20
42.999999999999929
 30
0.0
 11
43.370000000000012
 21
42.999999999999929
 31
0.0
  0
LINE
  5
11A
  8
1
 62
     7
 10
41.569999999999993
 20
51.999999999999929
 30
0.0
 11
43.370000000000012
 21
51.999999999999929
 31
0.0
  0
LINE
  5
11B
  8
1
 62
     7
 10
42.27000000000001
 20
51.999999999999929
 30
0.0
 11
42.27000000000001
 21
42.999999999999929
 31
0.0
  0
LINE
  5
11C
  8
1
 62
     7
 10
40.969999999999999
 20
41.999999999999929
 30
0.0
 11
41.569999999999993
 21
41.999999999999929
 31
0.0
  0
LINE
  5
11D
  8
1
 62
     7
 10
42.27000000000001
 20
37.999999999999929
 30
0.0
 11
42.270000000000017
 21
24.500000000000171
 31
0.0
  0
LINE
  5
11E
  8
1
 62
     7
 10
41.670000000000101
 20
-26.50000000000005
 30
0.0
 11
36.969999999999999
 21
-26.50000000000005
 31
0.0
  0
LINE
  5
11F
  8
1
 62
     7
 10
40.969999999999999
 20
-54.000000000000107
 30
0.0
 11
36.969999999999999
 21
-54.000000000000107
 31
0.0
  0
LINE
  5
120
  8
1
 62
     7
 10
41.66999999999998
 20
-53.000000000000107
 30
0.0
 11
42.27000000000001
 21
-53.000000000000107
 31
0.0
  0
LINE
  5
121
  8
1
 62
     7
 10
36.969999999999999
 20
-32.750000000000107
 30
0.0
 11
41.66999999999998
 21
-32.750000000000107
 31
0.0
  0
LINE
  5
122
  8
1
 62
     7
 10
36.969999999999999
 20
-43.250000000000099
 30
0.0
 11
40.969999999999999
 21
-43.250000000000099
 31
0.0
  0
LINE
  5
123
  8
1
 62
     7
 10
42.270000000000103
 20
-40.500000000000099
 30
0.0
 11
42.27000000000001
 21
-53.000000000000107
 31
0.0
  0
LINE
  5
124
  8
1
 62
     7
 10
42.270000000000103
 20
-32.500000000000099
 30
0.0
 11
44.869999999999997
 21
-32.500000000000099
 31
0.0
  0
LINE
  5
125
  8
1
 62
     7
 10
42.270000000000103
 20
-43.500000000000107
 30
0.0
 11
44.869999999999997
 21
-43.500000000000107
 31
0.0
  0
LINE
  5
126
  8
1
 62
     7
 10
41.66999999999998
 20
-30.00000000000011
 30
0.0
 11
42.27000000000001
 21
-30.00000000000011
 31
0.0
  0
LINE
  5
127
  8
1
 62
     7
 10
-67.930000000000007
 20
54.0
 30
0.0
 11
-67.930000000000007
 21
-54.000000000000057
 31
0.0
  0
LINE
  5
128
  8
1
 62
     7
 10
-67.930000000000007
 20
54.0
 30
0.0
 11
-63.93
 21
53.999999999999943
 31
0.0
  0
LINE
  5
129
  8
1
 62
     7
 10
-63.229999999999983
 20
37.999999999999929
 30
0.0
 11
-63.229999999999983
 21
-53.000000000000107
 31
0.0
  0
LINE
  5
12A
  8
1
 62
     7
 10
-63.93
 20
52.999999999999929
 30
0.0
 11
-63.329999999999991
 21
52.999999999999929
 31
0.0
  0
LINE
  5
12B
  8
1
 62
     7
 10
-63.329999999999991
 20
52.999999999999929
 30
0.0
 11
-63.329999999999991
 21
40.541368366021459
 31
0.0
  0
LINE
  5
12C
  8
1
 62
     7
 10
-63.329999999999991
 20
40.541368366021459
 30
0.0
 11
-62.629999999999903
 21
37.999999999999929
 31
0.0
  0
LINE
  5
12D
  8
1
 62
     7
 10
-63.93
 20
40.612435565298199
 30
0.0
 11
-63.229999999999983
 21
37.999999999999929
 31
0.0
  0
LINE
  5
12E
  8
1
 62
     7
 10
-61.02999999999998
 20
51.499999999999943
 30
0.0
 11
-61.02999999999998
 21
43.499999999999929
 31
0.0
  0
LINE
  5
12F
  8
1
 62
     7
 10
-63.329999999999991
 20
42.999999999999929
 30
0.0
 11
-61.52999999999998
 21
42.999999999999929
 31
0.0
  0
LINE
  5
130
  8
1
 62
     7
 10
-63.329999999999991
 20
51.999999999999929
 30
0.0
 11
-61.52999999999998
 21
51.999999999999929
 31
0.0
  0
LINE
  5
131
  8
1
 62
     7
 10
-62.629999999999903
 20
51.999999999999929
 30
0.0
 11
-62.629999999999903
 21
42.999999999999929
 31
0.0
  0
LINE
  5
132
  8
1
 62
     7
 10
-61.02999999999998
 20
51.499999999999943
 30
0.0
 11
-61.52999999999998
 21
51.999999999999929
 31
0.0
  0
LINE
  5
133
  8
1
 62
     7
 10
-61.02999999999998
 20
43.499999999999929
 30
0.0
 11
-61.52999999999998
 21
42.999999999999929
 31
0.0
  0
LINE
  5
134
  8
1
 62
     7
 10
-63.93
 20
-54.000000000000107
 30
0.0
 11
-67.930000000000007
 21
-54.000000000000057
 31
0.0
  0
LINE
  5
135
  8
1
 62
     7
 10
-63.229999999999983
 20
-53.000000000000107
 30
0.0
 11
-62.629999999999903
 21
-53.000000000000107
 31
0.0
  0
LINE
  5
136
  8
1
 62
     7
 10
-63.93
 20
53.999999999999943
 30
0.0
 11
-63.93
 21
-54.000000000000107
 31
0.0
  0
LINE
  5
137
  8
1
 62
     7
 10
-62.629999999999903
 20
-32.500000000000099
 30
0.0
 11
-60.029999999999987
 21
-32.500000000000099
 31
0.0
  0
LINE
  5
138
  8
1
 62
     7
 10
-62.629999999999903
 20
-43.500000000000107
 30
0.0
 11
-60.029999999999987
 21
-43.500000000000107
 31
0.0
  0
LINE
  5
139
  8
1
 62
     7
 10
-62.629999999999903
 20
37.999999999999929
 30
0.0
 11
-62.629999999999903
 21
-53.000000000000107
 31
0.0
  0
LINE
  5
13A
  8
1
 62
     7
 10
-63.93
 20
37.999999999999929
 30
0.0
 11
-63.229999999999983
 21
37.999999999999929
 31
0.0
  0
LINE
  5
13B
  8
1
 62
     7
 10
43.870000000000012
 20
43.499999999999929
 30
0.0
 11
43.870000000000012
 21
51.499999999999943
 31
0.0
  0
LINE
  5
13C
  8
1
 62
     7
 10
43.870000000000012
 20
51.499999999999943
 30
0.0
 11
43.370000000000012
 21
51.999999999999929
 31
0.0
  0
LINE
  5
13D
  8
1
 62
     7
 10
43.870000000000012
 20
50.999999999999943
 30
0.0
 11
43.870000000000012
 21
51.499999999999943
 31
0.0
  0
LINE
  5
13E
  8
1
 62
     7
 10
43.870000000000012
 20
51.499999999999943
 30
0.0
 11
43.370000000000012
 21
51.999999999999929
 31
0.0
  0
LINE
  5
13F
  8
1
 62
     7
 10
43.870000000000012
 20
43.499999999999929
 30
0.0
 11
43.370000000000012
 21
42.999999999999929
 31
0.0
  0
LINE
  5
140
  8
1
 62
     7
 10
43.870000000000012
 20
43.499999999999929
 30
0.0
 11
43.370000000000012
 21
42.999999999999929
 31
0.0
  0
LINE
  5
141
  8
1
 62
     7
 10
41.670000000000101
 20
-42.500000000000099
 30
0.0
 11
41.0700000000001
 21
-42.500000000000099
 31
0.0
  0
LINE
  5
142
  8
1
 62
     7
 10
41.0700000000001
 20
-33.500000000000099
 30
0.0
 11
41.670000000000101
 21
-33.500000000000099
 31
0.0
  0
LINE
  5
143
  8
1
 62
     7
 10
41.0700000000001
 20
-33.250000000000099
 30
0.0
 11
40.570000000000107
 21
-33.250000000000099
 31
0.0
  0
LINE
  5
144
  8
1
 62
     7
 10
40.570000000000107
 20
-33.250000000000099
 30
0.0
 11
40.570000000000107
 21
-42.750000000000107
 31
0.0
  0
LINE
  5
145
  8
1
 62
     7
 10
40.570000000000107
 20
-42.750000000000107
 30
0.0
 11
41.0700000000001
 21
-42.750000000000107
 31
0.0
  0
LINE
  5
146
  8
1
 62
     7
 10
41.0700000000001
 20
-42.750000000000107
 30
0.0
 11
41.0700000000001
 21
-33.250000000000099
 31
0.0
  0
LINE
  5
147
  8
1
 62
     7
 10
37.52000000000001
 20
-35.500000000000099
 30
0.0
 11
37.52000000000001
 21
-40.500000000000099
 31
0.0
  0
LINE
  5
148
  8
1
 62
     7
 10
52.470000000000098
 20
-35.500000000000099
 30
0.0
 11
53.070000000000107
 21
-36.100000000000101
 31
0.0
  0
LINE
  5
149
  8
1
 62
     7
 10
53.070000000000107
 20
-36.100000000000101
 30
0.0
 11
53.070000000000107
 21
-39.900000000000119
 31
0.0
  0
LINE
  5
14A
  8
1
 62
     7
 10
53.070000000000107
 20
-39.900000000000119
 30
0.0
 11
52.470000000000098
 21
-40.500000000000099
 31
0.0
  0
LINE
  5
14B
  8
1
 62
     7
 10
52.470000000000098
 20
-40.500000000000099
 30
0.0
 11
41.670000000000101
 21
-40.500000000000099
 31
0.0
  0
LINE
  5
14C
  8
1
 62
     7
 10
52.470000000000098
 20
-35.500000000000099
 30
0.0
 11
52.470000000000098
 21
-40.500000000000099
 31
0.0
  0
LINE
  5
14D
  8
1
 62
     3
 10
53.070000000000107
 20
-36.100000000000101
 30
0.0
 11
42.609230484541399
 21
-36.100000000000101
 31
0.0
  0
LINE
  5
14E
  8
1
 62
     3
 10
42.609230484541399
 20
-36.100000000000101
 30
0.0
 11
41.670000000000101
 21
-35.55773502691909
 31
0.0
  0
LINE
  5
14F
  8
1
 62
     3
 10
53.070000000000107
 20
-39.900000000000119
 30
0.0
 11
42.609230484541399
 21
-39.900000000000119
 31
0.0
  0
LINE
  5
150
  8
1
 62
     3
 10
42.609230484541399
 20
-39.900000000000119
 30
0.0
 11
41.670000000000101
 21
-40.442264973081173
 31
0.0
  0
LINE
  5
151
  8
1
 62
     3
 10
42.609230484541399
 20
-35.500000000000099
 30
0.0
 11
42.609230484541399
 21
-40.500000000000099
 31
0.0
  0
LINE
  5
152
  8
1
 62
     7
 10
40.969999999999999
 20
-43.250000000000099
 30
0.0
 11
40.969999999999999
 21
-54.000000000000107
 31
0.0
  0
LINE
  5
153
  8
1
 62
     7
 10
41.670000000000101
 20
-35.500000000000099
 30
0.0
 11
52.470000000000098
 21
-35.500000000000099
 31
0.0
  0
LINE
  5
154
  8
1
 62
     7
 10
-60.029999999999987
 20
-43.500000000000107
 30
0.0
 11
-60.02999999999998
 21
43.0
 31
0.0
  0
ARC
  5
155
  8
1
 62
     7
 10
5.8700000000000481
 20
-32.5
 30
0.0
 40
6.0000000000000178
 50
113.5564643091016
 51
180.0
  0
ARC
  5
156
  8
1
 62
     7
 10
5.8700000000000481
 20
32.5
 30
0.0
 40
6.0
 50
180.0
 51
246.44353569089921
  0
ARC
  5
157
  8
1
 62
     7
 10
153.74028587185001
 20
0.0
 30
0.0
 40
9.9999999999999822
 50
107.45760312372209
 51
72.542396876277877
  0
ARC
  5
158
  8
1
 62
     7
 10
159.74028587185001
 20
68.999999999999929
 30
0.0
 40
2.0
 50
0.0
 51
90.0
  0
ARC
  5
159
  8
1
 62
     7
 10
147.74028587185001
 20
68.999999999999929
 30
0.0
 40
2.0
 50
90.0
 51
180.0
  0
ARC
  5
15A
  8
1
 62
     7
 10
153.74028587185001
 20
0.0
 30
0.0
 40
52.999999999999972
 50
300.00000000000011
 51
359.99999999999977
  0
ARC
  5
15B
  8
1
 62
     7
 10
153.74028587185001
 20
0.0
 30
0.0
 40
52.999999999999993
 50
180.0
 51
240.0
  0
ARC
  5
15C
  8
1
 62
     7
 10
167.74028587185009
 20
24.24871130596426
 30
0.0
 40
25.000000000000028
 50
8.3817275778429625
 51
60.0
  0
ARC
  5
15D
  8
1
 62
     7
 10
153.74028587185001
 20
0.0
 30
0.0
 40
52.999999999999972
 50
60.0
 51
119.9999999999999
  0
ARC
  5
15E
  8
1
 62
     7
 10
181.74028587185001
 20
-0.0000000000000568
 30
0.0
 40
25.00000000000011
 50
359.99999999999972
 51
51.618272422158263
  0
ARC
  5
15F
  8
1
 62
     7
 10
205.33440295340679
 20
29.787877385637788
 30
0.0
 40
12.99999999999997
 50
188.3817275778396
 51
231.61827242215799
  0
ARC
  5
160
  8
1
 62
     7
 10
125.74028587185001
 20
-0.0000000000000568
 30
0.0
 40
24.999999999999961
 50
128.38172757784159
 51
179.99999999999989
  0
ARC
  5
161
  8
1
 62
     7
 10
102.1461687902934
 20
29.787877385637842
 30
0.0
 40
13.000000000000091
 50
308.3817275778419
 51
351.61827242216009
  0
ARC
  5
162
  8
1
 62
     7
 10
139.74028587185009
 20
24.24871130596426
 30
0.0
 40
25.000000000000028
 50
119.9999999999999
 51
171.6182724221571
  0
ARC
  5
163
  8
1
 62
     7
 10
167.74028587185009
 20
-24.248711305964289
 30
0.0
 40
25.000000000000028
 50
248.3817275778415
 51
299.99999999999977
  0
ARC
  5
164
  8
1
 62
     7
 10
153.74028587185001
 20
-59.575754771275683
 30
0.0
 40
13.00000000000002
 50
68.381727577841914
 51
111.6182724221604
  0
ARC
  5
165
  8
1
 62
     7
 10
139.74028587185009
 20
-24.248711305964321
 30
0.0
 40
25.000000000000028
 50
240.0
 51
291.61827242215691
  0
ARC
  5
166
  8
1
  6
DASHDOT
 62
     3
 10
153.74028587185001
 20
0.0
 30
0.0
 40
34.999999999999957
 50
80.95890385142485
 51
99.041096148575164
  0
ARC
  5
167
  8
1
  6
DASHDOT
 62
     3
 10
153.74028587185001
 20
0.0
 30
0.0
 40
35.000000000000028
 50
200.95890385142491
 51
219.04109614857509
  0
ARC
  5
168
  8
1
  6
DASHDOT
 62
     3
 10
153.74028587185001
 20
0.0
 30
0.0
 40
34.999999999999993
 50
320.95890385142462
 51
339.04109614857509
  0
ARC
  5
169
  8
1
 62
     7
 10
153.74028587185001
 20
-38.0
 30
0.0
 40
5.4999999999999858
 50
243.7057771055218
 51
296.29422289447842
  0
ARC
  5
16A
  8
1
 62
     7
 10
186.64925121565881
 20
18.99999999999994
 30
0.0
 40
5.499999999999913
 50
3.705777105521832
 51
56.29422289447939
  0
ARC
  5
16B
  8
1
 62
     7
 10
120.8313205280415
 20
18.999999999999961
 30
0.0
 40
5.5000000000000453
 50
123.7057771055217
 51
176.29422289447859
  0
ARC
  5
16C
  8
1
 62
     7
 10
-99.029999999999959
 20
-47.349999999999973
 30
0.0
 40
6.0000000000000417
 50
180.0
 51
270.0
  0
ARC
  5
16D
  8
1
 62
     7
 10
-99.029999999999959
 20
47.35000000000003
 30
0.0
 40
6.0
 50
90.0
 51
180.0
  0
ARC
  5
16E
  8
1
 62
     7
 10
5.8700000000000516
 20
-47.350000000000009
 30
0.0
 40
6.0000000000000027
 50
180.0
 51
270.0
  0
ARC
  5
16F
  8
1
 62
     7
 10
5.8700000000000516
 20
47.34999999999998
 30
0.0
 40
6.0000000000000488
 50
90.0
 51
180.0
  0
ARC
  5
170
  8
1
 62
     7
 10
41.919680289128983
 20
-38.271788836374917
 30
0.0
 40
5.2000000000001627
 50
105.04359390755759
 51
147.78916313221379
  0
ARC
  5
171
  8
1
 62
     7
 10
41.919680289128983
 20
-37.728211163625289
 30
0.0
 40
5.2000000000001982
 50
212.21083686778601
 51
254.95640609244231
  0
CIRCLE
  5
172
  8
1
 62
     7
 10
45.87000000000004
 20
19.749999999999961
 30
0.0
 40
2.25
  0
CIRCLE
  5
173
  8
1
 62
     7
 10
54.870000000000012
 20
19.749999999999961
 30
0.0
 40
2.25
  0
CIRCLE
  5
174
  8
1
 62
     7
 10
45.87000000000004
 20
-19.749999999999758
 30
0.0
 40
2.25
  0
CIRCLE
  5
175
  8
1
 62
     7
 10
54.870000000000012
 20
-19.749999999999758
 30
0.0
 40
2.25
  0
CIRCLE
  5
176
  8
1
 62
     7
 10
153.74028587185001
 20
64.999999999999915
 30
0.0
 40
3.25
  0
CIRCLE
  5
177
  8
1
 62
     7
 10
153.74028587185001
 20
0.0
 30
0.0
 40
54.0
  0
CIRCLE
  5
178
  8
1
 62
     7
 10
112.6040791920892
 20
-23.75000000000005
 30
0.0
 40
4.5
  0
CIRCLE
  5
179
  8
1
 62
     7
 10
120.8313205280415
 20
18.999999999999961
 30
0.0
 40
2.0
  0
CIRCLE
  5
17A
  8
1
 62
     7
 10
120.8313205280415
 20
18.999999999999961
 30
0.0
 40
2.5
  0
CIRCLE
  5
17B
  8
1
 62
     7
 10
186.64925121565881
 20
18.99999999999994
 30
0.0
 40
2.0
  0
CIRCLE
  5
17C
  8
1
 62
     7
 10
186.64925121565881
 20
18.99999999999994
 30
0.0
 40
2.5
  0
CIRCLE
  5
17D
  8
1
 62
     7
 10
194.87649255161091
 20
-23.75000000000005
 30
0.0
 40
4.5
  0
CIRCLE
  5
17E
  8
1
 62
     7
 10
112.6040791920892
 20
-23.75000000000005
 30
0.0
 40
4.5
  0
CIRCLE
  5
17F
  8
1
 62
     7
 10
153.74028587185001
 20
-38.0
 30
0.0
 40
2.0000000000001141
  0
CIRCLE
  5
180
  8
1
 62
     7
 10
153.74028587185001
 20
-38.0
 30
0.0
 40
2.5
  0
CIRCLE
  5
181
  8
1
 62
     7
 10
153.74028587185001
 20
47.499999999999929
 30
0.0
 40
4.5
  0
CIRCLE
  5
182
  8
1
 62
     7
 10
153.74028587185001
 20
0.0
 30
0.0
 40
56.5
  0
CIRCLE
  5
183
  8
1
 62
     7
 10
153.74028587185001
 20
0.0
 30
0.0
 40
27.0
  0
CIRCLE
  5
184
  8
1
 62
     7
 10
153.74028587185001
 20
0.0
 30
0.0
 40
43.0
  0
CIRCLE
  5
185
  8
1
 62
     7
 10
153.74028587185001
 20
35.0
 30
0.0
 40
1.900000000000005
  0
CIRCLE
  5
186
  8
1
 62
     3
 10
153.74028587185001
 20
35.0
 30
0.0
 40
2.5
  0
CIRCLE
  5
187
  8
1
 62
     7
 10
123.4293967393947
 20
-17.500000000000021
 30
0.0
 40
1.900000000000023
  0
CIRCLE
  5
188
  8
1
 62
     3
 10
123.4293967393947
 20
-17.500000000000021
 30
0.0
 40
2.5000000000000351
  0
CIRCLE
  5
189
  8
1
 62
     7
 10
184.05117500430541
 20
-17.50000000000006
 30
0.0
 40
1.9000000000000039
  0
CIRCLE
  5
18A
  8
1
 62
     3
 10
184.05117500430541
 20
-17.50000000000006
 30
0.0
 40
2.4999999999999858
  0
CIRCLE
  5
18B
  8
1
 62
     7
 10
153.74028587185001
 20
0.0
 30
0.0
 40
16.0
  0
CIRCLE
  5
18C
  8
1
 62
     7
 10
153.74028587185001
 20
0.0
 30
0.0
 40
20.499999999999918
  0
CIRCLE
  5
18D
  8
1
 62
     7
 10
12.87000000000001
 20
21.25
 30
0.0
 40
3.7500000000000009
  0
CIRCLE
  5
18E
  8
1
 62
     7
 10
12.87000000000001
 20
-21.25
 30
0.0
 40
3.7500000000000009
  0
TEXT
  5
18F
  8
1
 62
     7
 10
-130.23679536784871
 20
137.4599013251445
 30
0.0
 40
5.0
  1
VCEH 2.5P
 41
0.9
  7
SIMPLEX
  0
ENDSEC
  0
EOF
