  0
SECTION
  2
HEADER
  9
$ACADVER
  1
AC1009
  9
$INSBASE
 10
0.0
 20
0.0
 30
0.0
  9
$EXTMIN
 10
-170.98679536784871
 20
-56.500000000000021
 30
0.0
  9
$EXTMAX
 10
314.41963227242519
 20
144.45990132514461
 30
0.0
  9
$LIMMIN
 10
-170.98679536784891
 20
-56.500000000000192
  9
$LIMMAX
 10
311.77028587185009
 20
144.4599013251445
  9
$ORTHOMODE
 70
     0
  9
$REGENMODE
 70
     1
  9
$FILLMODE
 70
     1
  9
$QTEXTMODE
 70
     0
  9
$MIRRTEXT
 70
     1
  9
$DRAGMODE
 70
     2
  9
$LTSCALE
 40
1.0
  9
$OSMODE
 70
    37
  9
$ATTMODE
 70
     1
  9
$TEXTSIZE
 40
3.5
  9
$TRACEWID
 40
0.5
  9
$TEXTSTYLE
  7
STANDARD
  9
$CLAYER
  8
0
  9
$CELTYPE
  6
BYLAYER
  9
$CECOLOR
 62
   256
  9
$DIMSCALE
 40
1.0
  9
$DIMASZ
 40
0.18
  9
$DIMEXO
 40
0.0625
  9
$DIMDLI
 40
0.38
  9
$DIMRND
 40
0.0
  9
$DIMDLE
 40
0.0
  9
$DIMEXE
 40
0.18
  9
$DIMTP
 40
0.0
  9
$DIMTM
 40
0.0
  9
$DIMTXT
 40
0.18
  9
$DIMCEN
 40
0.09
  9
$DIMTSZ
 40
0.0
  9
$DIMTOL
 70
     0
  9
$DIMLIM
 70
     0
  9
$DIMTIH
 70
     1
  9
$DIMTOH
 70
     1
  9
$DIMSE1
 70
     0
  9
$DIMSE2
 70
     0
  9
$DIMTAD
 70
     0
  9
$DIMZIN
 70
     0
  9
$DIMBLK
  1

  9
$DIMASO
 70
     1
  9
$DIMSHO
 70
     1
  9
$DIMPOST
  1

  9
$DIMAPOST
  1

  9
$DIMALT
 70
     0
  9
$DIMALTD
 70
     2
  9
$DIMALTF
 40
25.399999999999999
  9
$DIMLFAC
 40
1.0
  9
$DIMTOFL
 70
     0
  9
$DIMTVP
 40
0.0
  9
$DIMTIX
 70
     0
  9
$DIMSOXD
 70
     0
  9
$DIMSAH
 70
     0
  9
$DIMBLK1
  1

  9
$DIMBLK2
  1

  9
$DIMSTYLE
  2
STANDARD
  9
$DIMCLRD
 70
     0
  9
$DIMCLRE
 70
     0
  9
$DIMCLRT
 70
     0
  9
$DIMTFAC
 40
1.0
  9
$DIMGAP
 40
0.09
  9
$LUNITS
 70
     2
  9
$LUPREC
 70
     4
  9
$SKETCHINC
 40
0.1
  9
$FILLETRAD
 40
2.0
  9
$AUNITS
 70
     0
  9
$AUPREC
 70
     0
  9
$MENU
  1
ACAD
  9
$ELEVATION
 40
0.0
  9
$PELEVATION
 40
0.0
  9
$THICKNESS
 40
0.0
  9
$LIMCHECK
 70
     0
  9
$BLIPMODE
 70
     0
  9
$CHAMFERA
 40
0.0
  9
$CHAMFERB
 40
0.0
  9
$SKPOLY
 70
     0
  9
$TDCREATE
 40
2452095.3701945599
  9
$TDUPDATE
 40
2452095.3706586799
  9
$TDINDWG
 40
0.0004792824
  9
$TDUSRTIMER
 40
0.0004792824
  9
$USRTIMER
 70
     1
  9
$ANGBASE
 50
0.0
  9
$ANGDIR
 70
     0
  9
$PDMODE
 70
     0
  9
$PDSIZE
 40
0.0
  9
$PLINEWID
 40
0.0
  9
$COORDS
 70
     1
  9
$SPLFRAME
 70
     0
  9
$SPLINETYPE
 70
     6
  9
$SPLINESEGS
 70
     8
  9
$ATTDIA
 70
     0
  9
$ATTREQ
 70
     1
  9
$HANDLING
 70
 10241
  9
$HANDSEED
  5
173
  9
$SURFTAB1
 70
     6
  9
$SURFTAB2
 70
     6
  9
$SURFTYPE
 70
     6
  9
$SURFU
 70
     6
  9
$SURFV
 70
     6
  9
$UCSNAME
  2

  9
$UCSORG
 10
0.0
 20
0.0
 30
0.0
  9
$UCSXDIR
 10
1.0
 20
0.0
 30
0.0
  9
$UCSYDIR
 10
0.0
 20
1.0
 30
0.0
  9
$PUCSNAME
  2

  9
$PUCSORG
 10
0.0
 20
0.0
 30
0.0
  9
$PUCSXDIR
 10
1.0
 20
0.0
 30
0.0
  9
$PUCSYDIR
 10
0.0
 20
1.0
 30
0.0
  9
$USERI1
 70
     0
  9
$USERI2
 70
     0
  9
$USERI3
 70
     0
  9
$USERI4
 70
     0
  9
$USERI5
 70
     0
  9
$USERR1
 40
0.0
  9
$USERR2
 40
0.0
  9
$USERR3
 40
0.0
  9
$USERR4
 40
0.0
  9
$USERR5
 40
0.0
  9
$WORLDVIEW
 70
     1
  9
$SHADEDGE
 70
     3
  9
$SHADEDIF
 70
    70
  9
$TILEMODE
 70
     1
  9
$MAXACTVP
 70
    64
  9
$PLIMCHECK
 70
     0
  9
$PEXTMIN
 10
1.0000000000000000E+020
 20
1.0000000000000000E+020
 30
1.0000000000000000E+020
  9
$PEXTMAX
 10
-1.0000000000000000E+020
 20
-1.0000000000000000E+020
 30
-1.0000000000000000E+020
  9
$PLIMMIN
 10
0.0
 20
0.0
  9
$PLIMMAX
 10
12.0
 20
9.0
  9
$UNITMODE
 70
     0
  9
$VISRETAIN
 70
     1
  9
$PLINEGEN
 70
     0
  9
$PSLTSCALE
 70
     1
  0
ENDSEC
  0
SECTION
  2
TABLES
  0
TABLE
  2
VPORT
 70
     2
  0
VPORT
  2
*ACTIVE
 70
     0
 10
0.0
 20
0.0
 11
1.0
 21
1.0
 12
-95.089907798354517
 22
125.9069032748731
 13
0.0
 23
0.0
 14
1.0
 24
1.0
 15
0.0
 25
0.0
 16
0.0
 26
0.0
 36
1.0
 17
0.0
 27
0.0
 37
0.0
 40
8.9999999344018988
 41
2.4144144144144142
 42
50.0
 43
0.0
 44
0.0
 50
0.0
 51
0.0
 71
     0
 72
   100
 73
     1
 74
     1
 75
     0
 76
     0
 77
     0
 78
     0
  0
ENDTAB
  0
TABLE
  2
LTYPE
 70
     9
  0
LTYPE
  2
CONTINUOUS
 70
     0
  3
Solid line
 72
    65
 73
     0
 40
0.0
  0
LTYPE
  2
BORDER
 70
     0
  3
__ __ . __ __ .
 72
    65
 73
     6
 40
22.232234004459819
 49
6.3520668584170918
 49
-3.1760334292085459
 49
6.3520668584170918
 49
-3.1760334292085459
 49
0.0
 49
-3.1760334292085459
  0
LTYPE
  2
CENTER
 70
     0
  3
____ _ ____ _
 72
    65
 73
     4
 40
25.408267433668371
 49
15.88016714604273
 49
-3.1760334292085459
 49
3.1760334292085459
 49
-3.1760334292085459
  0
LTYPE
  2
DASHDOT
 70
     0
  3
__ . __ . __ .
 72
    65
 73
     4
 40
12.70413371683418
 49
6.3520668584170918
 49
-3.1760334292085459
 49
0.0
 49
-3.1760334292085459
  0
LTYPE
  2
DASHED
 70
     0
  3
__ __ __ __ __
 72
    65
 73
     2
 40
9.5281002876256373
 49
6.3520668584170918
 49
-3.1760334292085459
  0
LTYPE
  2
DIVIDE
 70
     0
  3
__ . . __ . . 
 72
    65
 73
     6
 40
15.88016714604273
 49
6.3520668584170918
 49
-3.1760334292085459
 49
0.0
 49
-3.1760334292085459
 49
0.0
 49
-3.1760334292085459
  0
LTYPE
  2
DOT
 70
     0
  3
..............
 72
    65
 73
     4
 40
6.3520668584170918
 49
0.0
 49
-3.1760334292085459
 49
0.0
 49
-3.1760334292085459
  0
LTYPE
  2
HIDDEN
 70
     0
  3
_ _ _ _ _ _ _
 72
    65
 73
     2
 40
4.7640501438128178
 49
3.1760334292085459
 49
-1.588016714604273
  0
LTYPE
  2
PHANTOM
 70
     0
  3
_____ _ _ _____ _ _ 
 72
    65
 73
     6
 40
31.76033429208546
 49
15.88016714604273
 49
-3.1760334292085459
 49
3.1760334292085459
 49
-3.1760334292085459
 49
3.1760334292085459
 49
-3.1760334292085459
  0
ENDTAB
  0
TABLE
  2
LAYER
 70
     2
  0
LAYER
  2
0
 70
     0
 62
     7
  6
CONTINUOUS
  0
LAYER
  2
1
 70
     0
 62
     7
  6
CONTINUOUS
  0
ENDTAB
  0
TABLE
  2
STYLE
 70
     4
  0
STYLE
  2
STANDARD
 70
     0
 40
0.0
 41
1.0
 50
0.0
 71
     0
 42
3.5
  3
txt
  4

  0
STYLE
  2
SIMPLEX
 70
     0
 40
0.0
 41
1.0
 50
0.0
 71
     0
 42
3.5
  3
simplex
  4

  0
STYLE
  2
COMPLEX
 70
     0
 40
0.0
 41
1.0
 50
0.0
 71
     0
 42
3.5
  3
complex
  4

  0
STYLE
  2
ITALIC
 70
     0
 40
0.0
 41
1.0
 50
0.0
 71
     0
 42
3.5
  3
italic
  4

  0
ENDTAB
  0
TABLE
  2
VIEW
 70
     0
  0
ENDTAB
  0
TABLE
  2
UCS
 70
     0
  0
ENDTAB
  0
TABLE
  2
APPID
 70
     1
  0
APPID
  2
ACAD
 70
     0
  0
ENDTAB
  0
TABLE
  2
DIMSTYLE
 70
     1
  0
DIMSTYLE
  2
STANDARD
 70
     0
  3

  4

  5

  6

  7

 40
1.0
 41
0.18
 42
0.0625
 43
0.38
 44
0.18
 45
0.0
 46
0.0
 47
0.0
 48
0.0
140
0.18
141
0.09
142
0.0
143
25.399999999999999
144
1.0
145
0.0
146
1.0
147
0.09
 71
     0
 72
     0
 73
     1
 74
     1
 75
     0
 76
     0
 77
     0
 78
     0
170
     0
171
     2
172
     0
173
     0
174
     0
175
     0
176
     0
177
     0
178
     0
  0
ENDTAB
  0
ENDSEC
  0
SECTION
  2
BLOCKS
  0
BLOCK
  8
0
  2
$MODEL_SPACE
 70
     0
 10
0.0
 20
0.0
 30
0.0
  3
$MODEL_SPACE
  1

  0
ENDBLK
  5
20
  8
0
  0
BLOCK
 67
     1
  8
0
  2
$PAPER_SPACE
 70
     0
 10
0.0
 20
0.0
 30
0.0
  3
$PAPER_SPACE
  1

  0
ENDBLK
  5
1C
 67
     1
  8
0
  0
ENDSEC
  0
SECTION
  2
ENTITIES
  0
LINE
  5
33
  8
1
 62
     7
 10
105.89999999999991
 20
31.0
 30
0.0
 11
101.5905249806889
 21
31.0
 31
0.0
  0
LINE
  5
34
  8
1
 62
     7
 10
105.89999999999991
 20
25.0
 30
0.0
 11
105.89999999999991
 21
31.0
 31
0.0
  0
LINE
  5
35
  8
1
 62
     7
 10
105.89999999999991
 20
25.0
 30
0.0
 11
107.89999999999991
 21
25.0
 31
0.0
  0
LINE
  5
36
  8
1
 62
     7
 10
105.0020842383436
 20
27.0
 30
0.0
 11
105.89999999999991
 21
27.0
 31
0.0
  0
LINE
  5
37
  8
1
 62
     7
 10
105.0020842383436
 20
-27.0
 30
0.0
 11
107.90000000000001
 21
-27.0
 31
0.0
  0
LINE
  5
38
  8
1
 62
     7
 10
107.89999999999991
 20
27.500000000000011
 30
0.0
 11
107.90000000000001
 21
-27.499999999999961
 31
0.0
  0
LINE
  5
39
  8
1
 62
     7
 10
37.29999999999999
 20
54.0
 30
0.0
 11
37.29999999999999
 21
-54.000000000000057
 31
0.0
  0
LINE
  5
3A
  8
1
 62
     7
 10
109.27500000000001
 20
-25.203125
 30
0.0
 11
109.27500000000001
 21
-17.296875
 31
0.0
  0
LINE
  5
3B
  8
1
 62
     7
 10
119.52500000000001
 20
-25.203125
 30
0.0
 11
119.52500000000001
 21
-17.296875
 31
0.0
  0
LINE
  5
3C
  8
1
 62
     7
 10
116.37543507865981
 20
-24.4375
 30
0.0
 11
120.90000000000001
 21
-24.4375
 31
0.0
  0
LINE
  5
3D
  8
1
 62
     7
 10
112.42456492134011
 20
-24.4375
 30
0.0
 11
107.90000000000001
 21
-24.4375
 31
0.0
  0
LINE
  5
3E
  8
1
 62
     7
 10
116.37543507865981
 20
-18.0625
 30
0.0
 11
120.90000000000001
 21
-18.0625
 31
0.0
  0
LINE
  5
3F
  8
1
 62
     7
 10
112.42456492134011
 20
-18.0625
 30
0.0
 11
107.90000000000001
 21
-18.0625
 31
0.0
  0
LINE
  5
40
  8
1
 62
     7
 10
109.27500000000001
 20
25.203125
 30
0.0
 11
109.27500000000001
 21
17.296875
 31
0.0
  0
LINE
  5
41
  8
1
 62
     7
 10
119.52500000000001
 20
25.203125
 30
0.0
 11
119.52500000000001
 21
17.296875
 31
0.0
  0
LINE
  5
42
  8
1
 62
     7
 10
116.37543507865981
 20
24.4375
 30
0.0
 11
120.90000000000001
 21
24.4375
 31
0.0
  0
LINE
  5
43
  8
1
 62
     7
 10
112.42456492134011
 20
24.4375
 30
0.0
 11
107.90000000000001
 21
24.4375
 31
0.0
  0
LINE
  5
44
  8
1
 62
     7
 10
116.37543507865981
 20
18.0625
 30
0.0
 11
120.90000000000001
 21
18.0625
 31
0.0
  0
LINE
  5
45
  8
1
 62
     7
 10
112.42456492134011
 20
18.0625
 30
0.0
 11
107.90000000000001
 21
18.0625
 31
0.0
  0
LINE
  5
46
  8
1
 62
     7
 10
137.90000000000001
 20
9.9999999999999876
 30
0.0
 11
107.90640556355849
 21
9.9999999999999876
 31
0.0
  0
LINE
  5
47
  8
1
 62
     7
 10
120.90000000000001
 20
-15.0
 30
0.0
 11
107.90000000000001
 21
-15.0
 31
0.0
  0
LINE
  5
48
  8
1
 62
     7
 10
107.90000000000001
 20
-27.499999999999961
 30
0.0
 11
120.90000000000001
 21
-27.499999999999961
 31
0.0
  0
LINE
  5
49
  8
1
 62
     7
 10
120.90000000000001
 20
-15.0
 30
0.0
 11
120.90000000000001
 21
-28.999999999999961
 31
0.0
  0
LINE
  5
4A
  8
1
  6
DASHDOT
 62
     3
 10
282.31339882580141
 20
15.61334854368922
 30
0.0
 11
294.37837425019688
 21
22.57906535273025
 31
0.0
  0
LINE
  5
4B
  8
1
  6
DASHDOT
 62
     3
 10
156.57860144453491
 20
-38.000000000000057
 30
0.0
 11
138.47359115804491
 21
-38.000000000000057
 31
0.0
  0
LINE
  5
4C
  8
1
 62
     7
 10
147.30000000000001
 20
-40.500000000000057
 30
0.0
 11
147.30000000000001
 21
-43.500000000000057
 31
0.0
  0
LINE
  5
4D
  8
1
 62
     7
 10
147.30000000000001
 20
-32.50000000000005
 30
0.0
 11
147.30000000000001
 21
-35.500000000000057
 31
0.0
  0
LINE
  5
4E
  8
1
 62
     7
 10
112.8848811958903
 20
77.995907876153098
 30
0.0
 11
112.8848811958903
 21
80.191124841229893
 31
0.0
  0
LINE
  5
4F
  8
1
 62
     7
 10
112.51245128319449
 20
77.995907876153098
 30
0.0
 11
112.51245128319449
 21
80.191124841229893
 31
0.0
  0
LINE
  5
50
  8
1
 62
     7
 10
111.5151188041096
 20
80.191124841229893
 30
0.0
 11
111.5151188041096
 21
77.995907876153098
 31
0.0
  0
LINE
  5
51
  8
1
 62
     7
 10
111.8875487168055
 20
80.191124841229893
 30
0.0
 11
111.8875487168055
 21
77.995907876153098
 31
0.0
  0
LINE
  5
52
  8
1
 62
     7
 10
110.95
 20
77.995907876153098
 30
0.0
 11
113.45
 21
77.995907876153098
 31
0.0
  0
LINE
  5
53
  8
1
 62
     7
 10
113.45
 20
77.995907876153098
 30
0.0
 11
113.45
 21
53.350000000000001
 31
0.0
  0
LINE
  5
54
  8
1
 62
     7
 10
110.95
 20
77.995907876153098
 30
0.0
 11
110.95
 21
53.350000000000001
 31
0.0
  0
LINE
  5
55
  8
1
 62
     7
 10
136.0
 20
23.5
 30
0.0
 11
137.90000000000001
 21
23.5
 31
0.0
  0
LINE
  5
56
  8
1
 62
     7
 10
107.90640556355849
 20
-9.9999999999999876
 30
0.0
 11
137.90640556355851
 21
-9.9999999999999876
 31
0.0
  0
LINE
  5
57
  8
1
 62
     7
 10
137.90000000000001
 20
23.5
 30
0.0
 11
137.90000000000001
 21
-23.499999999999989
 31
0.0
  0
LINE
  5
58
  8
1
 62
     7
 10
107.90000000000001
 20
12.80000000000005
 30
0.0
 11
137.90000000000001
 21
12.80000000000005
 31
0.0
  0
LINE
  5
59
  8
1
 62
     7
 10
122.39999999999991
 20
-21.936999999999991
 30
0.0
 11
122.39999999999991
 21
-28.999999999999961
 31
0.0
  0
LINE
  5
5A
  8
1
 62
     7
 10
122.39999999999991
 20
29.000000000000011
 30
0.0
 11
120.90000000000001
 21
29.000000000000011
 31
0.0
  0
LINE
  5
5B
  8
1
 62
     7
 10
122.39999999999991
 20
29.000000000000011
 30
0.0
 11
122.39999999999991
 21
23.311000000000071
 31
0.0
  0
LINE
  5
5C
  8
1
 62
     7
 10
120.90000000000001
 20
-22.499999999999989
 30
0.0
 11
122.39999999999991
 21
-22.499999999999989
 31
0.0
  0
LINE
  5
5D
  8
1
 62
     7
 10
120.90000000000001
 20
23.899999999999981
 30
0.0
 11
122.39999999999991
 21
23.899999999999981
 31
0.0
  0
LINE
  5
5E
  8
1
 62
     7
 10
120.90000000000001
 20
-28.999999999999961
 30
0.0
 11
122.39999999999991
 21
-28.999999999999961
 31
0.0
  0
LINE
  5
5F
  8
1
 62
     7
 10
99.400000000000006
 20
-42.499999999999957
 30
0.0
 11
99.400000000000006
 21
71.0
 31
0.0
  0
LINE
  5
60
  8
1
 62
     7
 10
129.90000000000001
 20
-27.499999999999961
 30
0.0
 11
129.90000000000001
 21
-53.350000000000108
 31
0.0
  0
LINE
  5
61
  8
1
 62
     7
 10
122.90000000000001
 20
-20.499999999999979
 30
0.0
 11
120.90000000000001
 21
-20.499999999999979
 31
0.0
  0
LINE
  5
62
  8
1
 62
     7
 10
132.40000000000001
 20
-26.999999999999961
 30
0.0
 11
122.90000000000001
 21
-26.999999999999961
 31
0.0
  0
LINE
  5
63
  8
1
 62
     7
 10
122.90000000000001
 20
-53.850000000000087
 30
0.0
 11
132.40000000000001
 21
-53.850000000000087
 31
0.0
  0
LINE
  5
64
  8
1
 62
     7
 10
122.90000000000001
 20
-56.499999999999957
 30
0.0
 11
122.90000000000001
 21
-53.850000000000087
 31
0.0
  0
LINE
  5
65
  8
1
 62
     7
 10
135.067949192431
 20
-56.499999999999957
 30
0.0
 11
122.90000000000001
 21
-56.499999999999957
 31
0.0
  0
LINE
  5
66
  8
1
 62
     7
 10
136.80000000000001
 20
-53.499999999999957
 30
0.0
 11
135.067949192431
 21
-56.499999999999957
 31
0.0
  0
LINE
  5
67
  8
1
 62
     7
 10
138.30000000000001
 20
-53.500000000000057
 30
0.0
 11
136.80000000000001
 21
-53.499999999999957
 31
0.0
  0
LINE
  5
68
  8
1
 62
     7
 10
136.0
 20
-26.999999999999989
 30
0.0
 11
138.30000000000001
 21
-26.999999999999989
 31
0.0
  0
LINE
  5
69
  8
1
 62
     7
 10
136.0
 20
-23.499999999999989
 30
0.0
 11
136.0
 21
-26.999999999999989
 31
0.0
  0
LINE
  5
6A
  8
1
 62
     7
 10
137.90000000000001
 20
-23.499999999999989
 30
0.0
 11
136.0
 21
-23.499999999999989
 31
0.0
  0
LINE
  5
6B
  8
1
 62
     7
 10
136.0
 20
27.000000000000011
 30
0.0
 11
136.0
 21
23.5
 31
0.0
  0
LINE
  5
6C
  8
1
 62
     7
 10
138.30000000000001
 20
27.000000000000011
 30
0.0
 11
136.0
 21
27.000000000000011
 31
0.0
  0
LINE
  5
6D
  8
1
 62
     7
 10
138.30000000000001
 20
53.500000000000007
 30
0.0
 11
138.30000000000001
 21
-53.500000000000057
 31
0.0
  0
LINE
  5
6E
  8
1
 62
     7
 10
136.80000000000001
 20
53.500000000000007
 30
0.0
 11
138.30000000000001
 21
53.500000000000007
 31
0.0
  0
LINE
  5
6F
  8
1
 62
     7
 10
135.067949192431
 20
56.499999999999993
 30
0.0
 11
136.80000000000001
 21
53.500000000000007
 31
0.0
  0
LINE
  5
70
  8
1
 62
     7
 10
122.90000000000001
 20
56.500000000000007
 30
0.0
 11
135.067949192431
 21
56.499999999999993
 31
0.0
  0
LINE
  5
71
  8
1
 62
     7
 10
132.40000000000001
 20
53.849999999999902
 30
0.0
 11
122.90000000000001
 21
53.849999999999902
 31
0.0
  0
LINE
  5
72
  8
1
 62
     7
 10
122.90000000000001
 20
27.000000000000011
 30
0.0
 11
132.40000000000001
 21
27.000000000000011
 31
0.0
  0
LINE
  5
73
  8
1
 62
     7
 10
122.90000000000001
 20
20.500000000000011
 30
0.0
 11
122.90000000000001
 21
27.000000000000011
 31
0.0
  0
LINE
  5
74
  8
1
 62
     7
 10
120.90000000000001
 20
20.500000000000011
 30
0.0
 11
122.90000000000001
 21
20.500000000000011
 31
0.0
  0
LINE
  5
75
  8
1
 62
     7
 10
99.400000000000006
 20
-42.499999999999957
 30
0.0
 11
101.40000000000001
 21
-42.499999999999957
 31
0.0
  0
LINE
  5
76
  8
1
 62
     7
 10
99.400000000000006
 20
-24.499999999999989
 30
0.0
 11
101.40000000000001
 21
-24.499999999999989
 31
0.0
  0
LINE
  5
77
  8
1
 62
     7
 10
99.400000000000006
 20
24.500000000000011
 30
0.0
 11
101.40000000000001
 21
24.500000000000011
 31
0.0
  0
LINE
  5
78
  8
1
  6
DASHDOT
 62
     3
 10
98.34773152309981
 20
65.0
 30
0.0
 11
102.4484609998233
 21
65.0
 31
0.0
  0
LINE
  5
79
  8
1
 62
     7
 10
101.40000000000001
 20
71.0
 30
0.0
 11
99.400000000000006
 21
71.0
 31
0.0
  0
LINE
  5
7A
  8
1
 62
     7
 10
129.90000000000001
 20
-53.350000000000108
 30
0.0
 11
107.40000000000001
 21
-53.350000000000001
 31
0.0
  0
LINE
  5
7B
  8
1
 62
     7
 10
107.40000000000001
 20
53.350000000000037
 30
0.0
 11
129.90000000000001
 21
53.350000000000037
 31
0.0
  0
LINE
  5
7C
  8
1
 62
     7
 10
122.39999999999991
 20
-27.499999999999961
 30
0.0
 11
129.90000000000001
 21
-27.499999999999961
 31
0.0
  0
LINE
  5
7D
  8
1
 62
     7
 10
129.90000000000001
 20
27.500000000000011
 30
0.0
 11
129.90000000000001
 21
53.350000000000037
 31
0.0
  0
LINE
  5
7E
  8
1
 62
     7
 10
122.39999999999991
 20
27.500000000000011
 30
0.0
 11
129.90000000000001
 21
27.500000000000011
 31
0.0
  0
LINE
  5
7F
  8
1
 62
     7
 10
261.27028587184998
 20
71.0
 30
0.0
 11
249.27028587185009
 21
71.0
 31
0.0
  0
LINE
  5
80
  8
1
 62
     7
 10
274.3619147805536
 20
77.550663785679603
 30
0.0
 11
275.1403062898674
 21
80.447922950594005
 31
0.0
  0
LINE
  5
81
  8
1
 62
     7
 10
274.85373200973709
 20
77.418881756296202
 30
0.0
 11
275.61949808558461
 21
80.319523895911885
 31
0.0
  0
LINE
  5
82
  8
1
 62
     7
 10
275.32661108872122
 20
77.292174188964793
 30
0.0
 11
276.09868988130188
 21
80.191124841229893
 31
0.0
  0
LINE
  5
83
  8
1
 62
     7
 10
278.28630489142847
 20
79.604955165916195
 30
0.0
 11
277.5117821301273
 21
76.706659373096201
 31
0.0
  0
LINE
  5
84
  8
1
 62
     7
 10
277.80711309571132
 20
79.733354220598301
 30
0.0
 11
277.01996490094388
 21
76.838441402479589
 31
0.0
  0
LINE
  5
85
  8
1
 62
     7
 10
277.32792129999387
 20
79.861753275280407
 30
0.0
 11
276.54708582195963
 21
76.965148969810997
 31
0.0
  0
LINE
  5
86
  8
1
  6
DASHDOT
 62
     3
 10
215.99033861330199
 20
22.678288123477088
 30
0.0
 11
228.66716214244869
 21
15.35932064645487
 31
0.0
  0
LINE
  5
87
  8
1
 62
     7
 10
138.5
 20
54.0
 30
0.0
 11
138.5
 21
-54.000000000000057
 31
0.0
  0
LINE
  5
88
  8
1
 62
     7
 10
138.5
 20
54.0
 30
0.0
 11
143.5
 21
54.0
 31
0.0
  0
LINE
  5
89
  8
1
 62
     7
 10
144.09999999999999
 20
38.0
 30
0.0
 11
144.09999999999999
 21
-35.500000000000057
 31
0.0
  0
LINE
  5
8A
  8
1
 62
     7
 10
138.5
 20
26.5
 30
0.0
 11
143.5
 21
26.5
 31
0.0
  0
LINE
  5
8B
  8
1
 62
     7
 10
143.5
 20
53.0
 30
0.0
 11
144.09999999999999
 21
53.0
 31
0.0
  0
LINE
  5
8C
  8
1
 62
     7
 10
144.09999999999999
 20
53.0
 30
0.0
 11
144.09999999999999
 21
40.54136836602153
 31
0.0
  0
LINE
  5
8D
  8
1
 62
     7
 10
144.09999999999999
 20
40.54136836602153
 30
0.0
 11
144.6999999999999
 21
38.0
 31
0.0
  0
LINE
  5
8E
  8
1
 62
     7
 10
143.5
 20
40.612435565298227
 30
0.0
 11
144.09999999999999
 21
38.0
 31
0.0
  0
LINE
  5
8F
  8
1
 62
     7
 10
144.09999999999999
 20
43.0
 30
0.0
 11
145.90000000000001
 21
43.0
 31
0.0
  0
LINE
  5
90
  8
1
 62
     7
 10
144.09999999999999
 20
52.0
 30
0.0
 11
145.90000000000001
 21
52.0
 31
0.0
  0
LINE
  5
91
  8
1
 62
     7
 10
144.80000000000001
 20
52.0
 30
0.0
 11
144.80000000000001
 21
43.0
 31
0.0
  0
LINE
  5
92
  8
1
 62
     7
 10
143.5
 20
42.0
 30
0.0
 11
144.09999999999999
 21
42.0
 31
0.0
  0
LINE
  5
93
  8
1
 62
     7
 10
144.6999999999999
 20
38.0
 30
0.0
 11
144.69999999999999
 21
-35.500000000000057
 31
0.0
  0
LINE
  5
94
  8
1
 62
     7
 10
143.5
 20
-54.000000000000057
 30
0.0
 11
138.5
 21
-54.000000000000057
 31
0.0
  0
LINE
  5
95
  8
1
 62
     7
 10
144.09999999999999
 20
-53.000000000000057
 30
0.0
 11
144.6999999999999
 21
-53.000000000000057
 31
0.0
  0
LINE
  5
96
  8
1
 62
     7
 10
138.5
 20
-32.75000000000005
 30
0.0
 11
143.5
 21
-32.75000000000005
 31
0.0
  0
LINE
  5
97
  8
1
 62
     7
 10
138.5
 20
-43.250000000000057
 30
0.0
 11
143.5
 21
-43.250000000000057
 31
0.0
  0
LINE
  5
98
  8
1
 62
     7
 10
144.69999999999999
 20
-40.500000000000057
 30
0.0
 11
144.6999999999999
 21
-53.000000000000057
 31
0.0
  0
LINE
  5
99
  8
1
 62
     7
 10
144.69999999999999
 20
-32.50000000000005
 30
0.0
 11
147.30000000000001
 21
-32.50000000000005
 31
0.0
  0
LINE
  5
9A
  8
1
 62
     7
 10
144.69999999999999
 20
-43.500000000000057
 30
0.0
 11
147.30000000000001
 21
-43.500000000000057
 31
0.0
  0
LINE
  5
9B
  8
1
 62
     7
 10
144.09999999999999
 20
-30.00000000000005
 30
0.0
 11
144.6999999999999
 21
-30.00000000000005
 31
0.0
  0
LINE
  5
9C
  8
1
 62
     7
 10
273.52203388961777
 20
77.775709192144205
 30
0.0
 11
278.35166302106302
 21
76.481613966631599
 31
0.0
  0
LINE
  5
9D
  8
1
 62
     7
 10
278.35166302106302
 20
76.481613966631599
 30
0.0
 11
272.29405425950642
 21
53.874310296127589
 31
0.0
  0
LINE
  5
9E
  8
1
 62
     7
 10
273.52203388961777
 20
77.775709192144205
 30
0.0
 11
267.46442512806112
 21
55.168405521640167
 31
0.0
  0
LINE
  5
9F
  8
1
 62
     7
 10
263.27028587184998
 20
55.930760767220079
 30
0.0
 11
263.27028587184998
 21
69.0
 31
0.0
  0
LINE
  5
A0
  8
1
 62
     7
 10
247.27028587185009
 20
55.930760767220079
 30
0.0
 11
247.27028587185009
 21
69.0
 31
0.0
  0
LINE
  5
A1
  8
1
 62
     7
 10
252.27028587185001
 20
12.80000000000005
 30
0.0
 11
258.27028587185009
 21
12.80000000000005
 31
0.0
  0
LINE
  5
A2
  8
1
 62
     7
 10
258.27028587185009
 20
12.80000000000005
 30
0.0
 11
258.27028587185009
 21
9.5393920141694935
 31
0.0
  0
LINE
  5
A3
  8
1
 62
     7
 10
252.27028587185001
 20
12.80000000000005
 30
0.0
 11
252.27028587185001
 21
9.5393920141694935
 31
0.0
  0
LINE
  5
A4
  8
1
  6
DASHDOT
 62
     3
 10
261.14264477177278
 20
0.0000000000000426
 30
0.0
 11
249.39792697192729
 21
0.0000000000000426
 31
0.0
  0
LINE
  5
A5
  8
1
  6
DASHDOT
 62
     3
 10
255.27028587185001
 20
5.8723588999228014
 30
0.0
 11
255.27028587185001
 21
-5.8723588999227223
 31
0.0
  0
LINE
  5
A6
  8
1
  6
DASHDOT
 62
     3
 10
259.46631332858101
 20
65.0
 30
0.0
 11
251.07425841511909
 21
65.0
 31
0.0
  0
LINE
  5
A7
  8
1
  6
DASHDOT
 62
     3
 10
255.27028587185001
 20
69.196027456731002
 30
0.0
 11
255.27028587185001
 21
60.803972543269097
 31
0.0
  0
LINE
  5
A8
  8
1
  6
DASHDOT
 62
     3
 10
255.27028587185001
 20
-30.96910979465186
 30
0.0
 11
255.27028587185001
 21
-45.506975488190861
 31
0.0
  0
LINE
  5
A9
  8
1
 62
     7
 10
275.93684845534051
 20
77.128661579387895
 30
0.0
 11
269.89356192014247
 21
54.574809185332398
 31
0.0
  0
LINE
  5
AA
  8
1
  6
DASHDOT
 62
     3
 10
149.69999999999999
 20
0.0000000000000426
 30
0.0
 11
144.69999999999999
 21
0.0
 31
0.0
  0
LINE
  5
AB
  8
1
  6
DASHDOT
 62
     3
 10
99.400000000000006
 20
0.0
 30
0.0
 11
94.400000000000006
 21
0.0
 31
0.0
  0
LINE
  5
AC
  8
1
  6
DASHDOT
 62
     3
 10
51.678601444534984
 20
-38.000000000000057
 30
0.0
 11
33.6735911580448
 21
-38.000000000000057
 31
0.0
  0
LINE
  5
AD
  8
1
 62
     7
 10
49.200000000000102
 20
-35.500000000000057
 30
0.0
 11
42.39999999999997
 21
-35.500000000000057
 31
0.0
  0
LINE
  5
AE
  8
1
 62
     7
 10
7.9848811958903774
 20
77.995907876153098
 30
0.0
 11
7.9848811958903774
 21
80.191124841229893
 31
0.0
  0
LINE
  5
AF
  8
1
 62
     7
 10
7.6124512831944671
 20
77.995907876153098
 30
0.0
 11
7.6124512831944671
 21
80.191124841229893
 31
0.0
  0
LINE
  5
B0
  8
1
 62
     7
 10
6.6151188041095788
 20
80.191124841229893
 30
0.0
 11
6.6151188041095788
 21
77.995907876153098
 31
0.0
  0
LINE
  5
B1
  8
1
 62
     7
 10
6.9875487168055681
 20
80.191124841229893
 30
0.0
 11
6.9875487168055681
 21
77.995907876153098
 31
0.0
  0
LINE
  5
B2
  8
1
 62
     7
 10
6.0499999999999776
 20
77.995907876153098
 30
0.0
 11
8.5499999999999794
 21
77.995907876153098
 31
0.0
  0
LINE
  5
B3
  8
1
 62
     7
 10
8.5499999999999794
 20
77.995907876153098
 30
0.0
 11
8.5499999999999794
 21
53.350000000000037
 31
0.0
  0
LINE
  5
B4
  8
1
 62
     7
 10
6.0499999999999776
 20
77.995907876153098
 30
0.0
 11
6.0499999999999776
 21
53.350000000000037
 31
0.0
  0
LINE
  5
B5
  8
1
 62
     7
 10
30.167949192431092
 20
-56.499999999999957
 30
0.0
 11
18.0
 21
-56.499999999999957
 31
0.0
  0
LINE
  5
B6
  8
1
 62
     7
 10
31.899999999999991
 20
-53.499999999999957
 30
0.0
 11
30.167949192431092
 21
-56.499999999999957
 31
0.0
  0
LINE
  5
B7
  8
1
 62
     7
 10
33.399999999999991
 20
-53.500000000000057
 30
0.0
 11
31.899999999999991
 21
-53.499999999999957
 31
0.0
  0
LINE
  5
B8
  8
1
 62
     7
 10
33.399999999999991
 20
53.500000000000007
 30
0.0
 11
33.399999999999991
 21
-53.500000000000057
 31
0.0
  0
LINE
  5
B9
  8
1
 62
     7
 10
31.899999999999991
 20
53.500000000000007
 30
0.0
 11
33.399999999999991
 21
53.500000000000007
 31
0.0
  0
LINE
  5
BA
  8
1
 62
     7
 10
30.167949192431092
 20
56.499999999999993
 30
0.0
 11
31.899999999999991
 21
53.500000000000007
 31
0.0
  0
LINE
  5
BB
  8
1
 62
     7
 10
18.0
 20
56.500000000000007
 30
0.0
 11
30.167949192431092
 21
56.499999999999993
 31
0.0
  0
LINE
  5
BC
  8
1
 62
     7
 10
-5.5000000000000213
 20
-42.499999999999957
 30
0.0
 11
-3.5000000000000209
 21
-42.499999999999957
 31
0.0
  0
LINE
  5
BD
  8
1
 62
     7
 10
-3.4879871096782078
 20
71.0
 30
0.0
 11
-5.5000000000000213
 21
71.0
 31
0.0
  0
LINE
  5
BE
  8
1
 62
     7
 10
2.4999999999999791
 20
53.350000000000037
 30
0.0
 11
18.0
 21
53.350000000000037
 31
0.0
  0
LINE
  5
BF
  8
1
 62
     7
 10
33.59999999999998
 20
54.0
 30
0.0
 11
33.59999999999998
 21
-54.000000000000057
 31
0.0
  0
LINE
  5
C0
  8
1
 62
     7
 10
33.59999999999998
 20
54.0
 30
0.0
 11
38.599999999999987
 21
54.0
 31
0.0
  0
LINE
  5
C1
  8
1
 62
     7
 10
39.200000000000003
 20
38.0
 30
0.0
 11
39.200000000000003
 21
-53.000000000000057
 31
0.0
  0
LINE
  5
C2
  8
1
 62
     7
 10
38.599999999999987
 20
53.0
 30
0.0
 11
39.200000000000003
 21
53.0
 31
0.0
  0
LINE
  5
C3
  8
1
 62
     7
 10
39.200000000000003
 20
53.0
 30
0.0
 11
39.200000000000003
 21
40.54136836602153
 31
0.0
  0
LINE
  5
C4
  8
1
 62
     7
 10
39.200000000000003
 20
40.54136836602153
 30
0.0
 11
39.80000000000009
 21
38.0
 31
0.0
  0
LINE
  5
C5
  8
1
 62
     7
 10
38.599999999999987
 20
40.612435565298227
 30
0.0
 11
39.200000000000003
 21
38.0
 31
0.0
  0
LINE
  5
C6
  8
1
 62
     7
 10
41.499999999999993
 20
51.5
 30
0.0
 11
41.499999999999993
 21
43.5
 31
0.0
  0
LINE
  5
C7
  8
1
 62
     7
 10
39.200000000000003
 20
43.0
 30
0.0
 11
40.999999999999993
 21
43.0
 31
0.0
  0
LINE
  5
C8
  8
1
 62
     7
 10
39.200000000000003
 20
52.0
 30
0.0
 11
40.999999999999993
 21
52.0
 31
0.0
  0
LINE
  5
C9
  8
1
 62
     7
 10
39.900000000000112
 20
52.0
 30
0.0
 11
39.900000000000112
 21
43.0
 31
0.0
  0
LINE
  5
CA
  8
1
 62
     7
 10
41.499999999999993
 20
51.5
 30
0.0
 11
40.999999999999993
 21
52.0
 31
0.0
  0
LINE
  5
CB
  8
1
 62
     7
 10
41.499999999999993
 20
43.5
 30
0.0
 11
40.999999999999993
 21
43.0
 31
0.0
  0
LINE
  5
CC
  8
1
 62
     7
 10
38.599999999999987
 20
-54.000000000000057
 30
0.0
 11
33.59999999999998
 21
-54.000000000000057
 31
0.0
  0
LINE
  5
CD
  8
1
 62
     7
 10
39.200000000000003
 20
-53.000000000000057
 30
0.0
 11
39.80000000000009
 21
-53.000000000000057
 31
0.0
  0
LINE
  5
CE
  8
1
 62
     7
 10
38.599999999999987
 20
54.0
 30
0.0
 11
38.599999999999987
 21
-54.000000000000057
 31
0.0
  0
LINE
  5
CF
  8
1
 62
     7
 10
49.200000000000102
 20
-40.500000000000057
 30
0.0
 11
50.0
 21
-39.700000000000053
 31
0.0
  0
LINE
  5
D0
  8
1
 62
     7
 10
50.0
 20
-39.700000000000053
 30
0.0
 11
50.0
 21
-36.300000000000061
 31
0.0
  0
LINE
  5
D1
  8
1
 62
     7
 10
50.0
 20
-36.300000000000061
 30
0.0
 11
49.200000000000102
 21
-35.500000000000057
 31
0.0
  0
LINE
  5
D2
  8
1
 62
     7
 10
49.200000000000102
 20
-40.500000000000057
 30
0.0
 11
49.200000000000102
 21
-35.500000000000057
 31
0.0
  0
LINE
  5
D3
  8
1
 62
     7
 10
39.80000000000009
 20
-32.50000000000005
 30
0.0
 11
42.39999999999997
 21
-32.50000000000005
 31
0.0
  0
LINE
  5
D4
  8
1
 62
     7
 10
39.80000000000009
 20
-43.500000000000057
 30
0.0
 11
42.39999999999997
 21
-43.500000000000057
 31
0.0
  0
LINE
  5
D5
  8
1
 62
     7
 10
39.80000000000009
 20
38.0
 30
0.0
 11
39.80000000000009
 21
-53.000000000000057
 31
0.0
  0
LINE
  5
D6
  8
1
  6
DASHDOT
 62
     3
 10
44.900000000000098
 20
0.0000000000000426
 30
0.0
 11
39.900000000000112
 21
0.0
 31
0.0
  0
LINE
  5
D7
  8
1
  6
DASHDOT
 62
     3
 10
-5.5000000000000213
 20
0.0
 30
0.0
 11
-10.50000000000002
 21
0.0
 31
0.0
  0
LINE
  5
D8
  8
1
 62
     3
 10
42.39999999999997
 20
-36.300000000000061
 30
0.0
 11
50.0
 21
-36.300000000000061
 31
0.0
  0
LINE
  5
D9
  8
1
 62
     3
 10
42.39999999999997
 20
-39.700000000000053
 30
0.0
 11
50.0
 21
-39.700000000000053
 31
0.0
  0
LINE
  5
DA
  8
1
 62
     7
 10
42.39999999999997
 20
-40.500000000000057
 30
0.0
 11
49.200000000000102
 21
-40.500000000000057
 31
0.0
  0
LINE
  5
DB
  8
1
 62
     7
 10
42.39999999999997
 20
-32.50000000000005
 30
0.0
 11
42.39999999999997
 21
-43.500000000000057
 31
0.0
  0
LINE
  5
DC
  8
1
 62
     7
 10
18.0
 20
-53.349999999999973
 30
0.0
 11
2.499999999999976
 21
-53.349999999999973
 31
0.0
  0
LINE
  5
DD
  8
1
 62
     7
 10
31.899999999999991
 20
-53.499999999999957
 30
0.0
 11
31.899999999999991
 21
53.500000000000007
 31
0.0
  0
LINE
  5
DE
  8
1
 62
     7
 10
30.167949192431092
 20
56.499999999999993
 30
0.0
 11
30.167949192431092
 21
-56.499999999999957
 31
0.0
  0
LINE
  5
DF
  8
1
 62
     7
 10
18.0
 20
56.500000000000007
 30
0.0
 11
18.0
 21
-56.499999999999957
 31
0.0
  0
LINE
  5
E0
  8
1
 62
     7
 10
-134.35681578586599
 20
80.447922950594005
 30
0.0
 11
-133.57842427655211
 21
77.550663785679603
 31
0.0
  0
LINE
  5
E1
  8
1
 62
     7
 10
-134.8360075815834
 20
80.319523895911885
 30
0.0
 11
-134.07024150573571
 21
77.418881756296202
 31
0.0
  0
LINE
  5
E2
  8
1
 62
     7
 10
-135.3151993773005
 20
80.191124841229893
 30
0.0
 11
-134.54312058471999
 21
77.292174188964793
 31
0.0
  0
LINE
  5
E3
  8
1
 62
     7
 10
-136.72829162612601
 20
76.706659373096201
 30
0.0
 11
-137.50281438742721
 21
79.604955165916195
 31
0.0
  0
LINE
  5
E4
  8
1
 62
     7
 10
-136.2364743969425
 20
76.838441402479589
 30
0.0
 11
-137.02362259170999
 21
79.733354220598301
 31
0.0
  0
LINE
  5
E5
  8
1
 62
     7
 10
-135.76359531795839
 20
76.965148969810997
 30
0.0
 11
-136.54443079599261
 21
79.861753275280407
 31
0.0
  0
LINE
  5
E6
  8
1
 62
     7
 10
-137.5681725170619
 20
76.481613966631599
 30
0.0
 11
-132.7385433856164
 21
77.775709192144205
 31
0.0
  0
LINE
  5
E7
  8
1
 62
     7
 10
-130.69443721717801
 20
50.828484589685353
 30
0.0
 11
-137.5681725170619
 21
76.481613966631599
 31
0.0
  0
LINE
  5
E8
  8
1
 62
     7
 10
-125.8648080857328
 20
52.122579815197888
 30
0.0
 11
-132.7385433856164
 21
77.775709192144205
 31
0.0
  0
LINE
  5
E9
  8
1
  6
DASHDOT
 62
     3
 10
-108.614436467926
 20
0.0000000000000426
 30
0.0
 11
-120.3591542677714
 21
0.0000000000000426
 31
0.0
  0
LINE
  5
EA
  8
1
  6
DASHDOT
 62
     3
 10
-114.4867953678486
 20
-5.8723588999227223
 30
0.0
 11
-114.4867953678486
 21
5.8723588999228014
 31
0.0
  0
LINE
  5
EB
  8
1
 62
     7
 10
-128.29479142406831
 20
51.532142832521806
 30
0.0
 11
-135.1533579513389
 21
77.128661579387895
 31
0.0
  0
LINE
  5
EC
  8
1
 62
     7
 10
-122.4867953678486
 20
69.0
 30
0.0
 11
-122.4867953678486
 21
47.898329824744451
 31
0.0
  0
LINE
  5
ED
  8
1
 62
     7
 10
-120.4867953678486
 20
71.0
 30
0.0
 11
-108.4867953678487
 21
71.0
 31
0.0
  0
LINE
  5
EE
  8
1
 62
     7
 10
-106.4867953678487
 20
69.0
 30
0.0
 11
-106.4867953678487
 21
47.898329824744451
 31
0.0
  0
LINE
  5
EF
  8
1
  6
DASHDOT
 62
     3
 10
-110.3670532483377
 20
65.0
 30
0.0
 11
-118.6065374873597
 21
65.0
 31
0.0
  0
LINE
  5
F0
  8
1
  6
DASHDOT
 62
     3
 10
-114.4867953678486
 20
69.119742119511002
 30
0.0
 11
-114.4867953678486
 21
60.880257880489097
 31
0.0
  0
LINE
  5
F1
  8
1
 62
     7
 10
146.40000000000001
 20
43.5
 30
0.0
 11
146.40000000000001
 21
51.5
 31
0.0
  0
LINE
  5
F2
  8
1
 62
     7
 10
146.40000000000001
 20
51.5
 30
0.0
 11
145.90000000000001
 21
52.0
 31
0.0
  0
LINE
  5
F3
  8
1
 62
     7
 10
146.40000000000001
 20
51.0
 30
0.0
 11
146.40000000000001
 21
51.5
 31
0.0
  0
LINE
  5
F4
  8
1
 62
     7
 10
146.40000000000001
 20
51.5
 30
0.0
 11
145.90000000000001
 21
52.0
 31
0.0
  0
LINE
  5
F5
  8
1
 62
     7
 10
146.40000000000001
 20
43.5
 30
0.0
 11
145.90000000000001
 21
43.0
 31
0.0
  0
LINE
  5
F6
  8
1
 62
     7
 10
146.40000000000001
 20
43.5
 30
0.0
 11
145.90000000000001
 21
43.0
 31
0.0
  0
LINE
  5
F7
  8
1
  6
DASHDOT
 62
     3
 10
-6.9813117259484079
 20
65.0
 30
0.0
 11
-1.406688886386426
 21
65.0
 31
0.0
  0
LINE
  5
F8
  8
1
 62
     7
 10
132.40000000000001
 20
27.000000000000011
 30
0.0
 11
132.40000000000001
 21
53.849999999999902
 31
0.0
  0
LINE
  5
F9
  8
1
 62
     7
 10
122.90000000000001
 20
53.849999999999902
 30
0.0
 11
122.90000000000001
 21
56.500000000000007
 31
0.0
  0
LINE
  5
FA
  8
1
 62
     7
 10
122.90000000000001
 20
-26.999999999999961
 30
0.0
 11
122.90000000000001
 21
-20.499999999999979
 31
0.0
  0
LINE
  5
FB
  8
1
 62
     7
 10
132.40000000000001
 20
-26.999999999999961
 30
0.0
 11
132.40000000000001
 21
-53.850000000000087
 31
0.0
  0
LINE
  5
FC
  8
1
 62
     7
 10
143.5
 20
-42.500000000000057
 30
0.0
 11
142.90000000000001
 21
-42.500000000000057
 31
0.0
  0
LINE
  5
FD
  8
1
 62
     7
 10
142.90000000000001
 20
-33.50000000000005
 30
0.0
 11
143.5
 21
-33.50000000000005
 31
0.0
  0
LINE
  5
FE
  8
1
 62
     7
 10
142.90000000000001
 20
-33.25000000000005
 30
0.0
 11
142.40000000000009
 21
-33.25000000000005
 31
0.0
  0
LINE
  5
FF
  8
1
 62
     7
 10
142.40000000000009
 20
-33.25000000000005
 30
0.0
 11
142.40000000000009
 21
-42.750000000000057
 31
0.0
  0
LINE
  5
100
  8
1
 62
     7
 10
142.40000000000009
 20
-42.750000000000057
 30
0.0
 11
142.90000000000001
 21
-42.750000000000057
 31
0.0
  0
LINE
  5
101
  8
1
 62
     7
 10
142.90000000000001
 20
-42.750000000000057
 30
0.0
 11
142.90000000000001
 21
-33.25000000000005
 31
0.0
  0
LINE
  5
102
  8
1
 62
     7
 10
139.34999999999991
 20
-35.500000000000057
 30
0.0
 11
139.34999999999991
 21
-40.500000000000057
 31
0.0
  0
LINE
  5
103
  8
1
 62
     7
 10
154.3000000000001
 20
-35.500000000000057
 30
0.0
 11
154.90000000000009
 21
-36.100000000000058
 31
0.0
  0
LINE
  5
104
  8
1
 62
     7
 10
154.90000000000009
 20
-36.100000000000058
 30
0.0
 11
154.90000000000009
 21
-39.900000000000063
 31
0.0
  0
LINE
  5
105
  8
1
 62
     7
 10
154.90000000000009
 20
-39.900000000000063
 30
0.0
 11
154.3000000000001
 21
-40.500000000000057
 31
0.0
  0
LINE
  5
106
  8
1
 62
     7
 10
154.3000000000001
 20
-40.500000000000057
 30
0.0
 11
143.5
 21
-40.500000000000057
 31
0.0
  0
LINE
  5
107
  8
1
 62
     7
 10
154.3000000000001
 20
-35.500000000000057
 30
0.0
 11
154.3000000000001
 21
-40.500000000000057
 31
0.0
  0
LINE
  5
108
  8
1
 62
     3
 10
154.90000000000009
 20
-36.100000000000058
 30
0.0
 11
144.4392304845413
 21
-36.100000000000058
 31
0.0
  0
LINE
  5
109
  8
1
 62
     3
 10
144.4392304845413
 20
-36.100000000000058
 30
0.0
 11
143.5
 21
-35.557735026919019
 31
0.0
  0
LINE
  5
10A
  8
1
 62
     3
 10
154.90000000000009
 20
-39.900000000000063
 30
0.0
 11
144.4392304845413
 21
-39.900000000000063
 31
0.0
  0
LINE
  5
10B
  8
1
 62
     3
 10
144.4392304845413
 20
-39.900000000000063
 30
0.0
 11
143.5
 21
-40.442264973081102
 31
0.0
  0
LINE
  5
10C
  8
1
 62
     3
 10
144.4392304845413
 20
-35.500000000000057
 30
0.0
 11
144.4392304845413
 21
-40.500000000000057
 31
0.0
  0
LINE
  5
10D
  8
1
 62
     7
 10
143.5
 20
-35.500000000000057
 30
0.0
 11
154.3000000000001
 21
-35.500000000000057
 31
0.0
  0
LINE
  5
10E
  8
1
 62
     7
 10
120.90000000000001
 20
15.0
 30
0.0
 11
107.90000000000001
 21
15.0
 31
0.0
  0
LINE
  5
10F
  8
1
 62
     7
 10
120.90000000000001
 20
29.000000000000011
 30
0.0
 11
120.90000000000001
 21
15.0
 31
0.0
  0
LINE
  5
110
  8
1
 62
     7
 10
120.90000000000001
 20
27.500000000000011
 30
0.0
 11
107.89999999999991
 21
27.500000000000011
 31
0.0
  0
LINE
  5
111
  8
1
 62
     7
 10
-5.5000000000000213
 20
-42.499999999999957
 30
0.0
 11
-5.5000000000000213
 21
71.0
 31
0.0
  0
LINE
  5
112
  8
1
 62
     7
 10
-3.5000000000000209
 20
-47.349999999999973
 30
0.0
 11
-3.5000000000000209
 21
71.0
 31
0.0
  0
LINE
  5
113
  8
1
 62
     7
 10
-117.4867953678486
 20
12.80000000000005
 30
0.0
 11
-111.4867953678487
 21
12.80000000000005
 31
0.0
  0
LINE
  5
114
  8
1
 62
     7
 10
-111.4867953678487
 20
12.80000000000005
 30
0.0
 11
-111.4867953678487
 21
9.5393920141694935
 31
0.0
  0
LINE
  5
115
  8
1
 62
     7
 10
-117.4867953678486
 20
12.80000000000005
 30
0.0
 11
-117.4867953678486
 21
9.5393920141694935
 31
0.0
  0
LINE
  5
116
  8
1
 62
     7
 10
130.40000000000001
 20
53.849999999999902
 30
0.0
 11
130.40000000000001
 21
27.000000000000011
 31
0.0
  0
LINE
  5
117
  8
1
 62
     7
 10
130.40000000000001
 20
-53.85000000000008
 30
0.0
 11
130.40000000000001
 21
-26.999999999999961
 31
0.0
  0
LINE
  5
118
  8
1
 62
     7
 10
142.1999999999999
 20
54.0
 30
0.0
 11
142.1999999999999
 21
-32.75000000000005
 31
0.0
  0
LINE
  5
119
  8
1
 62
     7
 10
142.1999999999999
 20
-43.250000000000057
 30
0.0
 11
142.1999999999999
 21
-54.000000000000057
 31
0.0
  0
LINE
  5
11A
  8
1
 62
     7
 10
143.5
 20
-26.500000000000011
 30
0.0
 11
138.5
 21
-26.500000000000011
 31
0.0
  0
LINE
  5
11B
  8
1
 62
     7
 10
144.09999999999999
 20
-29.00000000000005
 30
0.0
 11
143.5
 21
-29.00000000000005
 31
0.0
  0
LINE
  5
11C
  8
1
 62
     7
 10
144.09999999999999
 20
-47.000000000000057
 30
0.0
 11
143.5
 21
-47.000000000000057
 31
0.0
  0
LINE
  5
11D
  8
1
 62
     7
 10
143.5
 20
54.0
 30
0.0
 11
143.5
 21
-54.000000000000057
 31
0.0
  0
LINE
  5
11E
  8
1
 62
     7
 10
101.40000000000001
 20
71.0
 30
0.0
 11
101.40000000000001
 21
-47.350000000000001
 31
0.0
  0
LINE
  5
11F
  8
1
 62
     7
 10
99.400000000000006
 20
68.25
 30
0.0
 11
101.40000000000001
 21
68.25
 31
0.0
  0
LINE
  5
120
  8
1
 62
     7
 10
99.400000000000006
 20
61.75
 30
0.0
 11
101.40000000000001
 21
61.75
 31
0.0
  0
LINE
  5
121
  8
1
 62
     7
 10
144.09999999999999
 20
-40.500000000000057
 30
0.0
 11
144.09999999999999
 21
-53.000000000000057
 31
0.0
  0
ARC
  5
122
  8
1
 62
     7
 10
-114.4867953678486
 20
0.0000000000000426
 30
0.0
 40
53.350000000000001
 50
98.624210943215274
 51
81.375789056784825
  0
ARC
  5
123
  8
1
 62
     7
 10
-114.4867953678486
 20
0.0000000000000426
 30
0.0
 40
56.5
 50
98.140032175425318
 51
102.4639605197205
  0
ARC
  5
124
  8
1
 62
     7
 10
241.27028587185009
 20
-24.24871130596426
 30
0.0
 40
25.000000000000028
 50
239.99999999999989
 51
291.61827242215691
  0
ARC
  5
125
  8
1
 62
     7
 10
255.27028587185001
 20
-59.575754771275633
 30
0.0
 40
13.00000000000002
 50
68.381727577841914
 51
111.6182724221604
  0
ARC
  5
126
  8
1
 62
     7
 10
269.27028587185021
 20
-24.248711305964228
 30
0.0
 40
25.000000000000011
 50
248.38172757784139
 51
299.99999999999977
  0
ARC
  5
127
  8
1
 62
     7
 10
241.27028587185009
 20
24.248711305964321
 30
0.0
 40
25.000000000000028
 50
119.9999999999999
 51
171.6182724221571
  0
ARC
  5
128
  8
1
 62
     7
 10
203.6761687902933
 20
29.787877385637842
 30
0.0
 40
13.00000000000006
 50
308.38172757784213
 51
351.61827242216032
  0
ARC
  5
129
  8
1
 62
     7
 10
227.27028587185001
 20
0.0000000000000071
 30
0.0
 40
24.99999999999994
 50
128.38172757784159
 51
179.99999999999989
  0
ARC
  5
12A
  8
1
 62
     7
 10
306.8644029534068
 20
29.787877385637842
 30
0.0
 40
12.99999999999994
 50
188.3817275778396
 51
231.6182724221579
  0
ARC
  5
12B
  8
1
 62
     7
 10
283.27028587185009
 20
0.0000000000000071
 30
0.0
 40
25.00000000000011
 50
359.99999999999972
 51
51.618272422158277
  0
ARC
  5
12C
  8
1
 62
     7
 10
107.40000000000001
 20
32.499999999999957
 30
0.0
 40
6.0
 50
180.0
 51
246.4435356908991
  0
ARC
  5
12D
  8
1
 62
     7
 10
107.40000000000001
 20
47.34999999999998
 30
0.0
 40
6.000000000000056
 50
90.0
 51
180.0
  0
ARC
  5
12E
  8
1
 62
     7
 10
107.40000000000001
 20
-32.499999999999957
 30
0.0
 40
5.999999999999992
 50
113.5564643091017
 51
180.0
  0
ARC
  5
12F
  8
1
 62
     7
 10
107.40000000000001
 20
-47.350000000000009
 30
0.0
 40
6.0
 50
180.0
 51
270.0
  0
ARC
  5
130
  8
1
 62
     7
 10
2.4999999999999791
 20
47.35000000000003
 30
0.0
 40
6.0
 50
90.0
 51
180.0
  0
ARC
  5
131
  8
1
 62
     7
 10
2.4999999999999791
 20
-47.349999999999973
 30
0.0
 40
6.0
 50
180.0
 51
270.0
  0
ARC
  5
132
  8
1
 62
     7
 10
-120.4867953678486
 20
69.0
 30
0.0
 40
2.0
 50
90.0
 51
180.0
  0
ARC
  5
133
  8
1
 62
     7
 10
-108.4867953678487
 20
69.0
 30
0.0
 40
2.0
 50
0.0
 51
90.0
  0
ARC
  5
134
  8
1
 62
     7
 10
-130.48679536784871
 20
47.898329824744451
 30
0.0
 40
8.0
 50
288.47142630525627
 51
0.0
  0
ARC
  5
135
  8
1
 62
     7
 10
-98.486795367848799
 20
47.898329824744451
 30
0.0
 40
8.0
 50
180.0
 51
251.52857369474299
  0
ARC
  5
136
  8
1
 62
     7
 10
255.27028587185001
 20
0.0000000000000426
 30
0.0
 40
53.0
 50
60.0
 51
119.9999999999999
  0
ARC
  5
137
  8
1
 62
     7
 10
269.27028587184998
 20
24.248711305964321
 30
0.0
 40
25.00000000000005
 50
8.3817275778429288
 51
60.0
  0
ARC
  5
138
  8
1
 62
     7
 10
255.27028587185001
 20
0.0000000000000426
 30
0.0
 40
42.000000000000007
 50
64.999999999999957
 51
114.9999999999999
  0
ARC
  5
139
  8
1
 62
     7
 10
267.5262154623303
 20
26.2829258240629
 30
0.0
 40
12.99999999999997
 50
326.61126091212537
 51
65.0
  0
ARC
  5
13A
  8
1
 62
     7
 10
255.27028587185001
 20
0.0000000000000426
 30
0.0
 40
30.000000000000028
 50
20.384903904926102
 51
39.615096095073753
  0
ARC
  5
13B
  8
1
 62
     7
 10
255.27028587185001
 20
0.0000000000000426
 30
0.0
 40
30.000000000000028
 50
20.384903904926102
 51
29.999999999999901
  0
ARC
  5
13C
  8
1
 62
     7
 10
284.15993211651067
 20
-2.527516539682046
 30
0.0
 40
13.00000000000002
 50
354.9999999999996
 51
93.388739087873915
  0
ARC
  5
13D
  8
1
 62
     7
 10
255.27028587185001
 20
0.0000000000000426
 30
0.0
 40
41.999999999999943
 50
304.99999999999977
 51
354.99999999999977
  0
ARC
  5
13E
  8
1
 62
     7
 10
243.0143562813698
 20
26.28292582406289
 30
0.0
 40
13.00000000000002
 50
115.0000000000001
 51
213.38873908787409
  0
ARC
  5
13F
  8
1
 62
     7
 10
255.27028587185001
 20
0.0000000000000426
 30
0.0
 40
30.0
 50
140.3849039049262
 51
159.6150960950736
  0
ARC
  5
140
  8
1
 62
     7
 10
226.38063962718951
 20
-2.527516539682046
 30
0.0
 40
13.00000000000003
 50
86.611260912125573
 51
184.9999999999998
  0
ARC
  5
141
  8
1
 62
     7
 10
255.27028587185001
 20
0.0000000000000426
 30
0.0
 40
53.0
 50
180.0
 51
239.99999999999989
  0
ARC
  5
142
  8
1
 62
     7
 10
255.27028587185001
 20
0.0000000000000426
 30
0.0
 40
41.999999999999993
 50
185.0
 51
234.99999999999989
  0
ARC
  5
143
  8
1
 62
     7
 10
238.6365692176698
 20
-23.75540928438075
 30
0.0
 40
13.0
 50
234.9999999999994
 51
333.38873908787411
  0
ARC
  5
144
  8
1
 62
     7
 10
255.27028587185001
 20
0.0000000000000426
 30
0.0
 40
30.00000000000005
 50
260.38490390492609
 51
279.61509609507362
  0
ARC
  5
145
  8
1
 62
     7
 10
271.90400252603041
 20
-23.75540928438069
 30
0.0
 40
13.0
 50
206.61126091212549
 51
304.9999999999996
  0
ARC
  5
146
  8
1
 62
     7
 10
255.27028587185001
 20
0.0000000000000426
 30
0.0
 40
52.999999999999972
 50
300.00000000000011
 51
359.99999999999977
  0
ARC
  5
147
  8
1
 62
     7
 10
249.27028587185009
 20
69.0
 30
0.0
 40
2.0
 50
90.0
 51
180.0
  0
ARC
  5
148
  8
1
 62
     7
 10
261.27028587184998
 20
69.0
 30
0.0
 40
2.0
 50
0.0
 51
90.0
  0
ARC
  5
149
  8
1
  6
DASHDOT
 62
     3
 10
255.27028587185001
 20
0.0000000000000426
 30
0.0
 40
37.999999999999957
 50
137.632238980647
 51
163.21963478937931
  0
ARC
  5
14A
  8
1
  6
DASHDOT
 62
     3
 10
255.27028587185001
 20
0.0000000000000426
 30
0.0
 40
38.00000000000005
 50
19.088525501651208
 51
40.90817220318857
  0
ARC
  5
14B
  8
1
  6
DASHDOT
 62
     3
 10
255.27028587185001
 20
0.0000000000000426
 30
0.0
 40
37.999999999999929
 50
259.23910992398851
 51
280.48140510425702
  0
ARC
  5
14C
  8
1
 62
     7
 10
-114.4867953678486
 20
0.0000000000000426
 30
0.0
 40
56.500000000000057
 50
107.5360394802798
 51
81.859967824574795
  0
ARC
  5
14D
  8
1
 62
     7
 10
-114.4867953678486
 20
0.0000000000000426
 30
0.0
 40
42.5
 50
108.4714263052566
 51
71.528573694743699
  0
ARC
  5
14E
  8
1
 62
     7
 10
143.74968028912889
 20
-38.271788836374853
 30
0.0
 40
5.2000000000001574
 50
105.04359390755791
 51
147.7891631322141
  0
ARC
  5
14F
  8
1
 62
     7
 10
143.74968028912889
 20
-37.728211163625261
 30
0.0
 40
5.2000000000002169
 50
212.2108368677859
 51
254.95640609244199
  0
ARC
  5
150
  8
1
 62
     7
 10
255.27028587185001
 20
0.0000000000000426
 30
0.0
 40
9.9999999999999911
 50
107.45760312372209
 51
72.542396876277905
  0
ARC
  5
151
  8
1
 62
     7
 10
-114.4867953678486
 20
0.0000000000000426
 30
0.0
 40
9.9999999999999911
 50
107.45760312372209
 51
72.542396876277905
  0
CIRCLE
  5
152
  8
1
 62
     7
 10
255.27028587185001
 20
0.0000000000000426
 30
0.0
 40
26.5
  0
CIRCLE
  5
153
  8
1
 62
     7
 10
114.40000000000001
 20
-21.25
 30
0.0
 40
3.75
  0
CIRCLE
  5
154
  8
1
 62
     7
 10
114.40000000000001
 20
21.25
 30
0.0
 40
3.75
  0
CIRCLE
  5
155
  8
1
 62
     7
 10
255.27028587185001
 20
0.0000000000000426
 30
0.0
 40
56.5
  0
CIRCLE
  5
156
  8
1
 62
     7
 10
255.27028587185001
 20
47.500000000000021
 30
0.0
 40
4.5
  0
CIRCLE
  5
157
  8
1
 62
     7
 10
222.3613205280414
 20
19.000000000000028
 30
0.0
 40
5.5
  0
CIRCLE
  5
158
  8
1
 62
     7
 10
255.27028587185001
 20
-37.999999999999957
 30
0.0
 40
5.5
  0
CIRCLE
  5
159
  8
1
 62
     7
 10
255.27028587185001
 20
-37.999999999999957
 30
0.0
 40
2.5
  0
CIRCLE
  5
15A
  8
1
 62
     7
 10
255.27028587185001
 20
-37.999999999999957
 30
0.0
 40
2.0000000000001141
  0
CIRCLE
  5
15B
  8
1
 62
     7
 10
214.13407919208919
 20
-23.749999999999989
 30
0.0
 40
4.5
  0
CIRCLE
  5
15C
  8
1
 62
     7
 10
296.406492551611
 20
-23.75
 30
0.0
 40
4.5
  0
CIRCLE
  5
15D
  8
1
 62
     7
 10
288.17925121565872
 20
19.0
 30
0.0
 40
5.5
  0
CIRCLE
  5
15E
  8
1
 62
     7
 10
288.17925121565872
 20
19.0
 30
0.0
 40
2.5
  0
CIRCLE
  5
15F
  8
1
 62
     7
 10
288.17925121565872
 20
19.0
 30
0.0
 40
2.0
  0
CIRCLE
  5
160
  8
1
 62
     7
 10
222.3613205280414
 20
19.000000000000028
 30
0.0
 40
2.5
  0
CIRCLE
  5
161
  8
1
 62
     7
 10
222.3613205280414
 20
19.000000000000028
 30
0.0
 40
2.0
  0
CIRCLE
  5
162
  8
1
 62
     7
 10
222.3613205280414
 20
19.000000000000028
 30
0.0
 40
5.5
  0
CIRCLE
  5
163
  8
1
 62
     7
 10
214.13407919208919
 20
-23.749999999999989
 30
0.0
 40
4.5
  0
CIRCLE
  5
164
  8
1
 62
     7
 10
255.27028587185001
 20
0.0000000000000426
 30
0.0
 40
54.0
  0
CIRCLE
  5
165
  8
1
 62
     7
 10
255.27028587185001
 20
65.0
 30
0.0
 40
3.25
  0
CIRCLE
  5
166
  8
1
 62
     7
 10
255.27028587185001
 20
0.0000000000000426
 30
0.0
 40
23.5
  0
CIRCLE
  5
167
  8
1
 62
     7
 10
-114.4867953678486
 20
65.0
 30
0.0
 40
3.25
  0
CIRCLE
  5
168
  8
1
 62
     7
 10
-114.4867953678486
 20
0.0000000000000426
 30
0.0
 40
24.500000000000011
  0
CIRCLE
  5
169
  8
1
 62
     7
 10
-114.4867953678486
 20
0.0000000000000426
 30
0.0
 40
17.500000000000011
  0
TEXT
  5
16B
  8
1
 62
     7
 10
-130.23679536784871
 20
137.4599013251445
 30
0.0
 40
7.0
  1
VCSH 2.5
 41
0.9
  7
SIMPLEX
  0
ENDSEC
  0
EOF
