  0
SECTION
  2
HEADER
  9
$ACADVER
  1
AC1009
  9
$INSBASE
 10
0.0
 20
0.0
 30
0.0
  9
$EXTMIN
 10
-136.6320583958146
 20
-61.24529730833811
 30
0.0
  9
$EXTMAX
 10
249.57490730571919
 20
100.4467940288479
 30
0.0
  9
$LIMMIN
 10
-136.6320583958146
 20
-61.24529730833811
  9
$LIMMAX
 10
247.70184034677271
 20
100.4467940288479
  9
$ORTHOMODE
 70
     0
  9
$REGENMODE
 70
     1
  9
$FILLMODE
 70
     1
  9
$QTEXTMODE
 70
     0
  9
$MIRRTEXT
 70
     1
  9
$DRAGMODE
 70
     2
  9
$LTSCALE
 40
1.0
  9
$OSMODE
 70
    37
  9
$ATTMODE
 70
     1
  9
$TEXTSIZE
 40
3.5
  9
$TRACEWID
 40
0.5
  9
$TEXTSTYLE
  7
STANDARD
  9
$CLAYER
  8
0
  9
$CELTYPE
  6
BYLAYER
  9
$CECOLOR
 62
   256
  9
$DIMSCALE
 40
1.0
  9
$DIMASZ
 40
0.18
  9
$DIMEXO
 40
0.0625
  9
$DIMDLI
 40
0.38
  9
$DIMRND
 40
0.0
  9
$DIMDLE
 40
0.0
  9
$DIMEXE
 40
0.18
  9
$DIMTP
 40
0.0
  9
$DIMTM
 40
0.0
  9
$DIMTXT
 40
0.18
  9
$DIMCEN
 40
0.09
  9
$DIMTSZ
 40
0.0
  9
$DIMTOL
 70
     0
  9
$DIMLIM
 70
     0
  9
$DIMTIH
 70
     1
  9
$DIMTOH
 70
     1
  9
$DIMSE1
 70
     0
  9
$DIMSE2
 70
     0
  9
$DIMTAD
 70
     0
  9
$DIMZIN
 70
     0
  9
$DIMBLK
  1

  9
$DIMASO
 70
     1
  9
$DIMSHO
 70
     1
  9
$DIMPOST
  1

  9
$DIMAPOST
  1

  9
$DIMALT
 70
     0
  9
$DIMALTD
 70
     2
  9
$DIMALTF
 40
25.399999999999999
  9
$DIMLFAC
 40
1.0
  9
$DIMTOFL
 70
     0
  9
$DIMTVP
 40
0.0
  9
$DIMTIX
 70
     0
  9
$DIMSOXD
 70
     0
  9
$DIMSAH
 70
     0
  9
$DIMBLK1
  1

  9
$DIMBLK2
  1

  9
$DIMSTYLE
  2
STANDARD
  9
$DIMCLRD
 70
     0
  9
$DIMCLRE
 70
     0
  9
$DIMCLRT
 70
     0
  9
$DIMTFAC
 40
1.0
  9
$DIMGAP
 40
0.09
  9
$LUNITS
 70
     2
  9
$LUPREC
 70
     4
  9
$SKETCHINC
 40
0.1
  9
$FILLETRAD
 40
2.0
  9
$AUNITS
 70
     0
  9
$AUPREC
 70
     0
  9
$MENU
  1
ACAD
  9
$ELEVATION
 40
0.0
  9
$PELEVATION
 40
0.0
  9
$THICKNESS
 40
0.0
  9
$LIMCHECK
 70
     0
  9
$BLIPMODE
 70
     0
  9
$CHAMFERA
 40
0.0
  9
$CHAMFERB
 40
0.0
  9
$SKPOLY
 70
     0
  9
$TDCREATE
 40
2452095.3822292821
  9
$TDUPDATE
 40
2452095.3827880779
  9
$TDINDWG
 40
0.0005728009
  9
$TDUSRTIMER
 40
0.0005728009
  9
$USRTIMER
 70
     1
  9
$ANGBASE
 50
0.0
  9
$ANGDIR
 70
     0
  9
$PDMODE
 70
     0
  9
$PDSIZE
 40
0.0
  9
$PLINEWID
 40
0.0
  9
$COORDS
 70
     1
  9
$SPLFRAME
 70
     0
  9
$SPLINETYPE
 70
     6
  9
$SPLINESEGS
 70
     8
  9
$ATTDIA
 70
     0
  9
$ATTREQ
 70
     1
  9
$HANDLING
 70
 10241
  9
$HANDSEED
  5
1AB
  9
$SURFTAB1
 70
     6
  9
$SURFTAB2
 70
     6
  9
$SURFTYPE
 70
     6
  9
$SURFU
 70
     6
  9
$SURFV
 70
     6
  9
$UCSNAME
  2

  9
$UCSORG
 10
0.0
 20
0.0
 30
0.0
  9
$UCSXDIR
 10
1.0
 20
0.0
 30
0.0
  9
$UCSYDIR
 10
0.0
 20
1.0
 30
0.0
  9
$PUCSNAME
  2

  9
$PUCSORG
 10
0.0
 20
0.0
 30
0.0
  9
$PUCSXDIR
 10
1.0
 20
0.0
 30
0.0
  9
$PUCSYDIR
 10
0.0
 20
1.0
 30
0.0
  9
$USERI1
 70
     0
  9
$USERI2
 70
     0
  9
$USERI3
 70
     0
  9
$USERI4
 70
     0
  9
$USERI5
 70
     0
  9
$USERR1
 40
0.0
  9
$USERR2
 40
0.0
  9
$USERR3
 40
0.0
  9
$USERR4
 40
0.0
  9
$USERR5
 40
0.0
  9
$WORLDVIEW
 70
     1
  9
$SHADEDGE
 70
     3
  9
$SHADEDIF
 70
    70
  9
$TILEMODE
 70
     1
  9
$MAXACTVP
 70
    64
  9
$PLIMCHECK
 70
     0
  9
$PEXTMIN
 10
1.0000000000000000E+020
 20
1.0000000000000000E+020
 30
1.0000000000000000E+020
  9
$PEXTMAX
 10
-1.0000000000000000E+020
 20
-1.0000000000000000E+020
 30
-1.0000000000000000E+020
  9
$PLIMMIN
 10
0.0
 20
0.0
  9
$PLIMMAX
 10
12.0
 20
9.0
  9
$UNITMODE
 70
     0
  9
$VISRETAIN
 70
     1
  9
$PLINEGEN
 70
     0
  9
$PSLTSCALE
 70
     1
  0
ENDSEC
  0
SECTION
  2
TABLES
  0
TABLE
  2
VPORT
 70
     2
  0
VPORT
  2
*ACTIVE
 70
     0
 10
0.0
 20
0.0
 11
1.0
 21
1.0
 12
-106.050471111088
 22
89.186222906092667
 13
0.0
 23
0.0
 14
1.0
 24
1.0
 15
0.0
 25
0.0
 16
0.0
 26
0.0
 36
1.0
 17
0.0
 27
0.0
 37
0.0
 40
9.0000001755458925
 41
2.4144144144144142
 42
50.0
 43
0.0
 44
0.0
 50
0.0
 51
0.0
 71
     0
 72
   100
 73
     1
 74
     1
 75
     0
 76
     0
 77
     0
 78
     0
  0
ENDTAB
  0
TABLE
  2
LTYPE
 70
     9
  0
LTYPE
  2
CONTINUOUS
 70
     0
  3
Solid line
 72
    65
 73
     0
 40
0.0
  0
LTYPE
  2
BORDER
 70
     0
  3
__ __ . __ __ .
 72
    65
 73
     6
 40
17.699587442092842
 49
5.0570249834550962
 49
-2.5285124917275481
 49
5.0570249834550962
 49
-2.5285124917275481
 49
0.0
 49
-2.5285124917275481
  0
LTYPE
  2
CENTER
 70
     0
  3
____ _ ____ _
 72
    65
 73
     4
 40
20.228099933820388
 49
12.642562458637739
 49
-2.5285124917275481
 49
2.5285124917275481
 49
-2.5285124917275481
  0
LTYPE
  2
DASHDOT
 70
     0
  3
__ . __ . __ .
 72
    65
 73
     4
 40
10.114049966910191
 49
5.0570249834550962
 49
-2.5285124917275481
 49
0.0
 49
-2.5285124917275481
  0
LTYPE
  2
DASHED
 70
     0
  3
__ __ __ __ __
 72
    65
 73
     2
 40
7.5855374751826457
 49
5.0570249834550962
 49
-2.5285124917275481
  0
LTYPE
  2
DIVIDE
 70
     0
  3
__ . . __ . . 
 72
    65
 73
     6
 40
12.642562458637739
 49
5.0570249834550962
 49
-2.5285124917275481
 49
0.0
 49
-2.5285124917275481
 49
0.0
 49
-2.5285124917275481
  0
LTYPE
  2
DOT
 70
     0
  3
..............
 72
    65
 73
     4
 40
5.0570249834550962
 49
0.0
 49
-2.5285124917275481
 49
0.0
 49
-2.5285124917275481
  0
LTYPE
  2
HIDDEN
 70
     0
  3
_ _ _ _ _ _ _
 72
    65
 73
     2
 40
3.7927687375913228
 49
2.5285124917275481
 49
-1.2642562458637741
  0
LTYPE
  2
PHANTOM
 70
     0
  3
_____ _ _ _____ _ _ 
 72
    65
 73
     6
 40
25.285124917275478
 49
12.642562458637739
 49
-2.5285124917275481
 49
2.5285124917275481
 49
-2.5285124917275481
 49
2.5285124917275481
 49
-2.5285124917275481
  0
ENDTAB
  0
TABLE
  2
LAYER
 70
     2
  0
LAYER
  2
0
 70
     0
 62
     7
  6
CONTINUOUS
  0
LAYER
  2
1
 70
     0
 62
     7
  6
CONTINUOUS
  0
ENDTAB
  0
TABLE
  2
STYLE
 70
     4
  0
STYLE
  2
STANDARD
 70
     0
 40
0.0
 41
1.0
 50
0.0
 71
     0
 42
3.5
  3
txt
  4

  0
STYLE
  2
SIMPLEX
 70
     0
 40
0.0
 41
1.0
 50
0.0
 71
     0
 42
3.5
  3
simplex
  4

  0
STYLE
  2
COMPLEX
 70
     0
 40
0.0
 41
1.0
 50
0.0
 71
     0
 42
3.5
  3
complex
  4

  0
STYLE
  2
ITALIC
 70
     0
 40
0.0
 41
1.0
 50
0.0
 71
     0
 42
3.5
  3
italic
  4

  0
ENDTAB
  0
TABLE
  2
VIEW
 70
     0
  0
ENDTAB
  0
TABLE
  2
UCS
 70
     0
  0
ENDTAB
  0
TABLE
  2
APPID
 70
     1
  0
APPID
  2
ACAD
 70
     0
  0
ENDTAB
  0
TABLE
  2
DIMSTYLE
 70
     1
  0
DIMSTYLE
  2
STANDARD
 70
     0
  3

  4

  5

  6

  7

 40
1.0
 41
0.18
 42
0.0625
 43
0.38
 44
0.18
 45
0.0
 46
0.0
 47
0.0
 48
0.0
140
0.18
141
0.09
142
0.0
143
25.399999999999999
144
1.0
145
0.0
146
1.0
147
0.09
 71
     0
 72
     0
 73
     1
 74
     1
 75
     0
 76
     0
 77
     0
 78
     0
170
     0
171
     2
172
     0
173
     0
174
     0
175
     0
176
     0
177
     0
178
     0
  0
ENDTAB
  0
ENDSEC
  0
SECTION
  2
BLOCKS
  0
BLOCK
  8
0
  2
$MODEL_SPACE
 70
     0
 10
0.0
 20
0.0
 30
0.0
  3
$MODEL_SPACE
  1

  0
ENDBLK
  5
20
  8
0
  0
BLOCK
 67
     1
  8
0
  2
$PAPER_SPACE
 70
     0
 10
0.0
 20
0.0
 30
0.0
  3
$PAPER_SPACE
  1

  0
ENDBLK
  5
1C
 67
     1
  8
0
  0
ENDSEC
  0
SECTION
  2
ENTITIES
  0
LINE
  5
33
  8
1
 62
     7
 10
27.087381483067759
 20
6.7547026916619011
 30
0.0
 11
26.487381483067789
 21
6.7547026916619011
 31
0.0
  0
LINE
  5
34
  8
1
 62
     7
 10
21.187381483067799
 20
26.25470269166189
 30
0.0
 11
21.187381483067799
 21
-58.74529730833811
 31
0.0
  0
LINE
  5
35
  8
1
 62
     7
 10
86.661080400740801
 20
-23.74529730833811
 30
0.0
 11
130.6610804007407
 21
-23.74529730833811
 31
0.0
  0
LINE
  5
36
  8
1
 62
     7
 10
123.1610804007408
 20
-27.245297308338099
 30
0.0
 11
123.1610804007408
 21
-42.245297308338102
 31
0.0
  0
LINE
  5
37
  8
1
 62
     7
 10
121.3610804007408
 20
-27.245297308338099
 30
0.0
 11
121.3610804007408
 21
-49.245297308338102
 31
0.0
  0
LINE
  5
38
  8
1
 62
     7
 10
119.76108040074079
 20
-27.245297308338099
 30
0.0
 11
119.76108040074079
 21
-49.245297308338102
 31
0.0
  0
LINE
  5
39
  8
1
 62
     7
 10
118.6610804007407
 20
-27.245297308338099
 30
0.0
 11
118.6610804007407
 21
-59.245297308338081
 31
0.0
  0
LINE
  5
3A
  8
1
 62
     7
 10
117.8610804007409
 20
-27.245297308338099
 30
0.0
 11
117.8610804007409
 21
-59.245297308338081
 31
0.0
  0
LINE
  5
3B
  8
1
 62
     7
 10
113.7610804007407
 20
-27.245297308338099
 30
0.0
 11
113.7610804007407
 21
-59.245297308338081
 31
0.0
  0
LINE
  5
3C
  8
1
 62
     7
 10
113.1610804007407
 20
-26.24529730833811
 30
0.0
 11
130.6610804007407
 21
-26.24529730833811
 31
0.0
  0
LINE
  5
3D
  8
1
 62
     7
 10
113.1610804007407
 20
-6.2452973083381096
 30
0.0
 11
130.6610804007407
 21
-6.2452973083381096
 31
0.0
  0
LINE
  5
3E
  8
1
 62
     7
 10
123.1610804007408
 20
-38.495297308338102
 30
0.0
 11
136.6610804007407
 21
-38.495297308338102
 31
0.0
  0
LINE
  5
3F
  8
1
 62
     7
 10
123.1610804007408
 20
-33.995297308338102
 30
0.0
 11
136.6610804007407
 21
-33.995297308338102
 31
0.0
  0
LINE
  5
40
  8
1
  6
DASHDOT
 62
     3
 10
121.9497769621789
 20
-36.245297308338102
 30
0.0
 11
137.46956405773119
 21
-36.245297308338102
 31
0.0
  0
LINE
  5
41
  8
1
  6
DASHDOT
 62
     3
 10
141.66108040074079
 20
-16.245297308338099
 30
0.0
 11
136.6610804007407
 21
-16.245297308338099
 31
0.0
  0
LINE
  5
42
  8
1
 62
     7
 10
113.7610804007407
 20
26.754702691661901
 30
0.0
 11
113.7610804007407
 21
-5.2452973083381007
 31
0.0
  0
LINE
  5
43
  8
1
 62
     7
 10
113.7610804007407
 20
6.2547026916619011
 30
0.0
 11
118.6610804007407
 21
6.2547026916619011
 31
0.0
  0
LINE
  5
44
  8
1
 62
     7
 10
117.3610804007409
 20
26.754702691661901
 30
0.0
 11
117.3610804007409
 21
-5.2452973083381007
 31
0.0
  0
LINE
  5
45
  8
1
 62
     7
 10
113.7610804007407
 20
26.754702691661901
 30
0.0
 11
118.6610804007407
 21
26.754702691661901
 31
0.0
  0
LINE
  5
46
  8
1
 62
     7
 10
118.6610804007407
 20
26.754702691661901
 30
0.0
 11
118.6610804007407
 21
-5.2452973083381034
 31
0.0
  0
LINE
  5
47
  8
1
 62
     7
 10
117.8610804007409
 20
26.754702691661901
 30
0.0
 11
117.8610804007409
 21
-5.245297308338098
 31
0.0
  0
LINE
  5
48
  8
1
 62
     7
 10
119.0110804007407
 20
23.75470269166189
 30
0.0
 11
119.76108040074079
 21
23.75470269166189
 31
0.0
  0
LINE
  5
49
  8
1
 62
     7
 10
119.0110804007407
 20
23.75470269166189
 30
0.0
 11
119.0110804007407
 21
-5.245297308338098
 31
0.0
  0
LINE
  5
4A
  8
1
 62
     7
 10
119.76108040074079
 20
23.75470269166189
 30
0.0
 11
119.76108040074079
 21
-5.245297308338098
 31
0.0
  0
LINE
  5
4B
  8
1
 62
     7
 10
121.3610804007408
 20
18.75470269166189
 30
0.0
 11
121.7110804007407
 21
18.75470269166189
 31
0.0
  0
LINE
  5
4C
  8
1
 62
     7
 10
121.3610804007408
 20
8.7547026916619011
 30
0.0
 11
121.7110804007407
 21
8.7547026916619011
 31
0.0
  0
LINE
  5
4D
  8
1
 62
     7
 10
121.7110804007407
 20
20.15470269166191
 30
0.0
 11
121.7110804007407
 21
7.3547026916619229
 31
0.0
  0
LINE
  5
4E
  8
1
 62
     7
 10
121.7110804007407
 20
7.3547026916619229
 30
0.0
 11
121.7110804007407
 21
8.7547026916619011
 31
0.0
  0
LINE
  5
4F
  8
1
 62
     7
 10
121.7110804007407
 20
7.3547026916619229
 30
0.0
 11
123.1610804007408
 21
7.3547026916619229
 31
0.0
  0
LINE
  5
50
  8
1
 62
     7
 10
121.7110804007407
 20
20.15470269166191
 30
0.0
 11
123.1610804007408
 21
20.15470269166191
 31
0.0
  0
LINE
  5
51
  8
1
 62
     7
 10
123.2610804007407
 20
26.754702691661901
 30
0.0
 11
136.6610804007407
 21
26.754702691661901
 31
0.0
  0
LINE
  5
52
  8
1
 62
     7
 10
123.1610804007408
 20
26.65470269166191
 30
0.0
 11
123.1610804007408
 21
-5.245297308338106
 31
0.0
  0
LINE
  5
53
  8
1
 62
     7
 10
136.6610804007407
 20
26.754702691661901
 30
0.0
 11
136.6610804007407
 21
-42.245297308338102
 31
0.0
  0
LINE
  5
54
  8
1
 62
     7
 10
130.6610804007407
 20
-0.2452973083380989
 30
0.0
 11
136.6610804007407
 21
-0.2452973083380989
 31
0.0
  0
LINE
  5
55
  8
1
 62
     7
 10
130.6610804007407
 20
-0.2452973083380989
 30
0.0
 11
130.6610804007407
 21
-32.245297308338102
 31
0.0
  0
LINE
  5
56
  8
1
 62
     7
 10
123.1610804007408
 20
-3.245297308338098
 30
0.0
 11
130.6610804007407
 21
-3.245297308338098
 31
0.0
  0
LINE
  5
57
  8
1
 62
     7
 10
121.3610804007408
 20
-38.745297308338102
 30
0.0
 11
113.7610804007407
 21
-38.745297308338102
 31
0.0
  0
LINE
  5
58
  8
1
 62
     7
 10
118.6610804007407
 20
-59.245297308338081
 30
0.0
 11
113.7610804007407
 21
-59.245297308338081
 31
0.0
  0
LINE
  5
59
  8
1
 62
     7
 10
119.76108040074079
 20
-46.311123557131772
 30
0.0
 11
119.1610804007408
 21
-47.99054642053779
 31
0.0
  0
LINE
  5
5A
  8
1
 62
     7
 10
119.2610804007407
 20
-46.245297308338088
 30
0.0
 11
118.6610804007407
 21
-47.92472017174407
 31
0.0
  0
LINE
  5
5B
  8
1
 62
     7
 10
119.1610804007408
 20
-47.99054642053779
 30
0.0
 11
119.1610804007408
 21
-58.245297308338081
 31
0.0
  0
LINE
  5
5C
  8
1
 62
     7
 10
119.1610804007408
 20
-58.245297308338081
 30
0.0
 11
118.6610804007407
 21
-58.245297308338081
 31
0.0
  0
LINE
  5
5D
  8
1
 62
     7
 10
119.6610804007407
 20
-50.245297308338088
 30
0.0
 11
119.6610804007407
 21
-57.245297308338088
 31
0.0
  0
LINE
  5
5E
  8
1
 62
     7
 10
119.1610804007408
 20
-50.245297308338088
 30
0.0
 11
119.6610804007407
 21
-50.245297308338088
 31
0.0
  0
LINE
  5
5F
  8
1
 62
     7
 10
119.1610804007408
 20
-57.245297308338088
 30
0.0
 11
119.6610804007407
 21
-57.245297308338088
 31
0.0
  0
LINE
  5
60
  8
1
 62
     7
 10
120.9610804007408
 20
-57.09529730833809
 30
0.0
 11
120.9610804007408
 21
-50.395297308338073
 31
0.0
  0
LINE
  5
61
  8
1
 62
     7
 10
119.76108040074079
 20
-49.245297308338102
 30
0.0
 11
121.3610804007408
 21
-49.245297308338102
 31
0.0
  0
LINE
  5
62
  8
1
 62
     7
 10
119.2610804007407
 20
-46.245297308338088
 30
0.0
 11
119.2610804007407
 21
-27.245297308338099
 31
0.0
  0
LINE
  5
63
  8
1
 62
     7
 10
117.3610804007409
 20
-59.245297308338081
 30
0.0
 11
117.3610804007409
 21
-27.245297308338099
 31
0.0
  0
LINE
  5
64
  8
1
 62
     7
 10
123.1610804007408
 20
-29.245297308338099
 30
0.0
 11
130.6610804007407
 21
-29.245297308338099
 31
0.0
  0
LINE
  5
65
  8
1
 62
     7
 10
130.6610804007407
 20
-32.245297308338102
 30
0.0
 11
136.6610804007407
 21
-32.245297308338102
 31
0.0
  0
LINE
  5
66
  8
1
 62
     7
 10
123.1610804007408
 20
-42.245297308338102
 30
0.0
 11
125.1610804007408
 21
-42.245297308338102
 31
0.0
  0
LINE
  5
67
  8
1
 62
     7
 10
126.6610804007407
 20
-43.745297308338088
 30
0.0
 11
126.6610804007407
 21
-44.316075012508868
 31
0.0
  0
LINE
  5
68
  8
1
 62
     7
 10
136.6610804007407
 20
-42.245297308338102
 30
0.0
 11
134.6610804007407
 21
-42.245297308338102
 31
0.0
  0
LINE
  5
69
  8
1
 62
     7
 10
133.1610804007407
 20
-44.316075012508868
 30
0.0
 11
133.1610804007407
 21
-43.745297308338088
 31
0.0
  0
LINE
  5
6A
  8
1
 62
     7
 10
128.1610804007407
 20
-45.816075012508868
 30
0.0
 11
131.6610804007407
 21
-45.816075012508868
 31
0.0
  0
LINE
  5
6B
  8
1
 62
     7
 10
119.76108040074079
 20
21.754702691661901
 30
0.0
 11
121.3610804007408
 21
21.754702691661901
 31
0.0
  0
LINE
  5
6C
  8
1
 62
     7
 10
121.3610804007408
 20
21.754702691661901
 30
0.0
 11
121.3610804007408
 21
-5.245297308338098
 31
0.0
  0
LINE
  5
6D
  8
1
 62
     7
 10
123.1610804007408
 20
26.65470269166191
 30
0.0
 11
123.2610804007407
 21
26.754702691661901
 31
0.0
  0
LINE
  5
6E
  8
1
  6
DASHDOT
 62
     3
 10
185.9518403467728
 20
-16.245297308338081
 30
0.0
 11
178.8961890756205
 21
-16.245297308338081
 31
0.0
  0
LINE
  5
6F
  8
1
  6
DASHDOT
 62
     3
 10
226.5894273130705
 20
-16.245297308338081
 30
0.0
 11
218.7018403467728
 21
-16.245297308338081
 31
0.0
  0
LINE
  5
70
  8
1
  6
DASHDOT
 62
     3
 10
202.7018403467728
 20
41.309479982481719
 30
0.0
 11
202.7018403467728
 21
38.483667922706722
 31
0.0
  0
LINE
  5
71
  8
1
  6
DASHDOT
 62
     3
 10
201.1299958011825
 20
39.754702691661919
 30
0.0
 11
204.42192119040439
 21
39.754702691661919
 31
0.0
  0
LINE
  5
72
  8
1
  6
DASHDOT
 62
     3
 10
202.7018403467728
 20
-12.262411711707269
 30
0.0
 11
202.7018403467728
 21
-19.573057735530281
 31
0.0
  0
LINE
  5
73
  8
1
  6
DASHDOT
 62
     3
 10
206.47623532557751
 20
-16.245297308338081
 30
0.0
 11
198.8802957983855
 21
-16.245297308338081
 31
0.0
  0
LINE
  5
74
  8
1
 62
     7
 10
183.54372386259459
 20
16.571871563742629
 30
0.0
 11
164.702280181178
 21
-16.06246618041877
 31
0.0
  0
LINE
  5
75
  8
1
 62
     7
 10
240.70140051236771
 20
-16.06246618041877
 30
0.0
 11
221.85995683095081
 21
16.571871563742629
 31
0.0
  0
LINE
  5
76
  8
1
 62
     7
 10
183.86039666535589
 20
-49.245297308338081
 30
0.0
 11
221.5432840281895
 21
-49.245297308338081
 31
0.0
  0
LINE
  5
77
  8
1
 62
     7
 10
223.11847608968239
 20
53.76869931557772
 30
0.0
 11
224.41257131519509
 21
58.598328447023142
 31
0.0
  0
LINE
  5
78
  8
1
 62
     7
 10
222.82869834179581
 20
53.846345029108527
 30
0.0
 11
224.12279356730829
 21
58.67597416055392
 31
0.0
  0
LINE
  5
79
  8
1
 62
     7
 10
220.0275134455575
 20
54.596920259905822
 30
0.0
 11
221.32160867107001
 21
59.426549391351223
 31
0.0
  0
LINE
  5
7A
  8
1
 62
     7
 10
220.31729119344411
 20
54.519274546375122
 30
0.0
 11
221.6113864189567
 21
59.348903677820417
 31
0.0
  0
LINE
  5
7B
  8
1
 62
     7
 10
222.53892059390901
 20
53.923990742639319
 30
0.0
 11
223.8330158194216
 21
58.753619874084727
 31
0.0
  0
LINE
  5
7C
  8
1
 62
     7
 10
220.60706894133091
 20
54.441628832844323
 30
0.0
 11
221.90116416684361
 21
59.271257964289617
 31
0.0
  0
LINE
  5
7D
  8
1
 62
     7
 10
214.3486973763861
 20
27.22136487467003
 30
0.0
 11
221.57299476762
 21
54.182809787741832
 31
0.0
  0
LINE
  5
7E
  8
1
 62
     7
 10
194.7018403467728
 20
43.754702691661919
 30
0.0
 11
194.7018403467728
 21
28.037882342631029
 31
0.0
  0
LINE
  5
7F
  8
1
 62
     7
 10
210.7018403467728
 20
43.754702691661919
 30
0.0
 11
210.7018403467728
 21
28.037882342631029
 31
0.0
  0
LINE
  5
80
  8
1
 62
     7
 10
196.7018403467728
 20
45.754702691661912
 30
0.0
 11
208.7018403467728
 21
45.754702691661912
 31
0.0
  0
LINE
  5
81
  8
1
  6
DASHDOT
 62
     3
 10
211.03132673541259
 20
-1.8182036822604739
 30
0.0
 11
214.620989015313
 21
4.3992737685404384
 31
0.0
  0
LINE
  5
82
  8
1
  6
DASHDOT
 62
     3
 10
191.15230779013601
 20
-36.249674500103879
 30
0.0
 11
194.26217839985711
 21
-30.863220599101869
 31
0.0
  0
LINE
  5
83
  8
1
  6
DASHDOT
 62
     3
 10
191.1786796246657
 20
3.7134025261333359
 30
0.0
 11
194.2976522276895
 21
-1.688816489719358
 31
0.0
  0
LINE
  5
84
  8
1
  6
DASHDOT
 62
     3
 10
211.04193345509191
 20
-30.690762311801759
 30
0.0
 11
214.4120160114046
 21
-36.527916525036851
 31
0.0
  0
LINE
  5
85
  8
1
 62
     7
 10
191.586560537591
 20
23.644028730156229
 30
0.0
 11
162.59903075300579
 21
-26.563845642661679
 31
0.0
  0
LINE
  5
86
  8
1
 62
     7
 10
173.71431056218751
 20
-45.816075012508968
 30
0.0
 11
231.68937013135809
 21
-45.816075012508861
 31
0.0
  0
LINE
  5
87
  8
1
 62
     7
 10
242.80464994054
 20
-26.563845642661558
 30
0.0
 11
213.8171201559546
 21
23.644028730156322
 31
0.0
  0
LINE
  5
88
  8
1
 62
     7
 10
219.1581802018973
 20
54.829857400498128
 30
0.0
 11
223.98780933334271
 21
53.535762174985422
 31
0.0
  0
LINE
  5
89
  8
1
 62
     7
 10
223.98780933334271
 20
53.535762174985422
 30
0.0
 11
216.74552450739091
 21
26.507187241648118
 31
0.0
  0
LINE
  5
8A
  8
1
 62
     7
 10
211.9158953759455
 20
27.801282467160721
 30
0.0
 11
219.1581802018973
 21
54.829857400498128
 31
0.0
  0
LINE
  5
8B
  8
1
  6
DASHDOT
 62
     3
 10
49.4873814830678
 20
-16.245297308338099
 30
0.0
 11
44.487381483067793
 21
-16.245297308338099
 31
0.0
  0
LINE
  5
8C
  8
1
 62
     7
 10
21.587381483067791
 20
26.754702691661901
 30
0.0
 11
21.587381483067791
 21
-59.245297308338081
 31
0.0
  0
LINE
  5
8D
  8
1
 62
     7
 10
25.187381483067799
 20
26.754702691661901
 30
0.0
 11
25.187381483067799
 21
-59.245297308338081
 31
0.0
  0
LINE
  5
8E
  8
1
 62
     7
 10
21.587381483067791
 20
26.754702691661901
 30
0.0
 11
26.487381483067789
 21
26.754702691661901
 31
0.0
  0
LINE
  5
8F
  8
1
 62
     7
 10
26.487381483067789
 20
26.754702691661901
 30
0.0
 11
26.487381483067789
 21
-59.245297308338081
 31
0.0
  0
LINE
  5
90
  8
1
 62
     7
 10
25.687381483067789
 20
26.754702691661901
 30
0.0
 11
25.687381483067789
 21
-59.245297308338081
 31
0.0
  0
LINE
  5
91
  8
1
 62
     7
 10
26.487381483067789
 20
20.75470269166189
 30
0.0
 11
27.087381483067759
 21
20.75470269166189
 31
0.0
  0
LINE
  5
92
  8
1
 62
     7
 10
27.087381483067759
 20
23.75470269166189
 30
0.0
 11
27.587381483067769
 21
23.75470269166189
 31
0.0
  0
LINE
  5
93
  8
1
 62
     7
 10
27.087381483067759
 20
23.75470269166189
 30
0.0
 11
27.087381483067759
 21
-46.245297308338088
 31
0.0
  0
LINE
  5
94
  8
1
 62
     7
 10
27.587381483067769
 20
23.75470269166189
 30
0.0
 11
27.587381483067769
 21
-49.245297308338102
 31
0.0
  0
LINE
  5
95
  8
1
 62
     7
 10
29.187381483067789
 20
18.75470269166189
 30
0.0
 11
29.53738148306779
 21
18.75470269166189
 31
0.0
  0
LINE
  5
96
  8
1
 62
     7
 10
29.187381483067789
 20
8.7547026916619011
 30
0.0
 11
29.53738148306779
 21
8.7547026916619011
 31
0.0
  0
LINE
  5
97
  8
1
 62
     7
 10
29.53738148306779
 20
20.15470269166191
 30
0.0
 11
29.53738148306779
 21
7.3547026916619229
 31
0.0
  0
LINE
  5
98
  8
1
 62
     7
 10
29.53738148306779
 20
7.3547026916619229
 30
0.0
 11
29.53738148306779
 21
8.7547026916619011
 31
0.0
  0
LINE
  5
99
  8
1
 62
     7
 10
29.53738148306779
 20
7.3547026916619229
 30
0.0
 11
30.987381483067789
 21
7.3547026916619229
 31
0.0
  0
LINE
  5
9A
  8
1
 62
     7
 10
29.53738148306779
 20
20.15470269166191
 30
0.0
 11
30.987381483067789
 21
20.15470269166191
 31
0.0
  0
LINE
  5
9B
  8
1
 62
     7
 10
31.08738148306778
 20
26.754702691661901
 30
0.0
 11
44.487381483067793
 21
26.754702691661901
 31
0.0
  0
LINE
  5
9C
  8
1
 62
     7
 10
30.987381483067789
 20
26.65470269166191
 30
0.0
 11
30.987381483067789
 21
-42.245297308338102
 31
0.0
  0
LINE
  5
9D
  8
1
 62
     7
 10
44.487381483067793
 20
26.754702691661901
 30
0.0
 11
44.487381483067779
 21
-42.245297308338102
 31
0.0
  0
LINE
  5
9E
  8
1
 62
     7
 10
26.487381483067789
 20
-59.245297308338081
 30
0.0
 11
21.587381483067791
 21
-59.245297308338081
 31
0.0
  0
LINE
  5
9F
  8
1
 62
     7
 10
27.587381483067769
 20
-46.311123557131772
 30
0.0
 11
26.987381483067779
 21
-47.99054642053779
 31
0.0
  0
LINE
  5
A0
  8
1
 62
     7
 10
27.087381483067759
 20
-46.245297308338088
 30
0.0
 11
26.487381483067789
 21
-47.92472017174407
 31
0.0
  0
LINE
  5
A1
  8
1
 62
     7
 10
26.987381483067779
 20
-47.99054642053779
 30
0.0
 11
26.987381483067779
 21
-58.245297308338081
 31
0.0
  0
LINE
  5
A2
  8
1
 62
     7
 10
26.987381483067779
 20
-58.245297308338081
 30
0.0
 11
26.487381483067789
 21
-58.245297308338081
 31
0.0
  0
LINE
  5
A3
  8
1
 62
     7
 10
27.487381483067789
 20
-50.245297308338088
 30
0.0
 11
27.487381483067789
 21
-57.245297308338088
 31
0.0
  0
LINE
  5
A4
  8
1
 62
     7
 10
26.987381483067779
 20
-50.245297308338088
 30
0.0
 11
27.487381483067789
 21
-50.245297308338088
 31
0.0
  0
LINE
  5
A5
  8
1
 62
     7
 10
26.987381483067779
 20
-57.245297308338088
 30
0.0
 11
27.487381483067789
 21
-57.245297308338088
 31
0.0
  0
LINE
  5
A6
  8
1
 62
     7
 10
28.787381483067801
 20
-57.09529730833809
 30
0.0
 11
28.787381483067801
 21
-50.395297308338073
 31
0.0
  0
LINE
  5
A7
  8
1
 62
     7
 10
27.587381483067769
 20
-49.245297308338102
 30
0.0
 11
29.187381483067789
 21
-49.245297308338102
 31
0.0
  0
LINE
  5
A8
  8
1
 62
     7
 10
30.987381483067789
 20
-42.245297308338102
 30
0.0
 11
32.987381483067779
 21
-42.245297308338102
 31
0.0
  0
LINE
  5
A9
  8
1
 62
     7
 10
34.487381483067779
 20
-43.745297308338088
 30
0.0
 11
34.487381483067779
 21
-44.316075012508868
 31
0.0
  0
LINE
  5
AA
  8
1
 62
     7
 10
44.487381483067779
 20
-42.245297308338102
 30
0.0
 11
42.487381483067779
 21
-42.245297308338102
 31
0.0
  0
LINE
  5
AB
  8
1
 62
     7
 10
40.987381483067779
 20
-44.316075012508868
 30
0.0
 11
40.987381483067779
 21
-43.745297308338088
 31
0.0
  0
LINE
  5
AC
  8
1
 62
     7
 10
35.987381483067779
 20
-45.816075012508868
 30
0.0
 11
39.487381483067779
 21
-45.816075012508868
 31
0.0
  0
LINE
  5
AD
  8
1
 62
     7
 10
27.587381483067769
 20
21.754702691661901
 30
0.0
 11
29.187381483067789
 21
21.754702691661901
 31
0.0
  0
LINE
  5
AE
  8
1
 62
     7
 10
29.187381483067789
 20
21.754702691661901
 30
0.0
 11
29.187381483067789
 21
-49.245297308338102
 31
0.0
  0
LINE
  5
AF
  8
1
 62
     7
 10
27.587381483067769
 20
21.754702691661901
 30
0.0
 11
27.587381483067769
 21
23.75470269166189
 31
0.0
  0
LINE
  5
B0
  8
1
 62
     7
 10
30.987381483067789
 20
26.65470269166191
 30
0.0
 11
31.08738148306778
 21
26.754702691661901
 31
0.0
  0
LINE
  5
B1
  8
1
 62
     7
 10
86.661080400740801
 20
-39.345297308338097
 30
0.0
 11
85.661080400740815
 21
-39.34529730833809
 31
0.0
  0
LINE
  5
B2
  8
1
 62
     7
 10
86.661080400740801
 20
7.2547026916619011
 30
0.0
 11
98.661080400740815
 21
7.2547026916619011
 31
0.0
  0
LINE
  5
B3
  8
1
 62
     7
 10
84.661080400740815
 20
10.254702691661899
 30
0.0
 11
84.661080400740815
 21
5.2547026916619011
 31
0.0
  0
LINE
  5
B4
  8
1
 62
     7
 10
80.923992687810014
 20
10.254702691661899
 30
0.0
 11
84.661080400740815
 21
10.254702691661899
 31
0.0
  0
LINE
  5
B5
  8
1
 62
     7
 10
84.661080400740815
 20
5.2547026916619011
 30
0.0
 11
86.661080400740801
 21
5.2547026916619011
 31
0.0
  0
LINE
  5
B6
  8
1
 62
     7
 10
86.661080400740801
 20
-39.745297308338088
 30
0.0
 11
86.661080400740801
 21
7.2547026916619011
 31
0.0
  0
LINE
  5
B7
  8
1
 62
     7
 10
107.56108040074071
 20
-39.245297308338088
 30
0.0
 11
107.56108040074071
 21
-59.09529730833809
 31
0.0
  0
LINE
  5
B8
  8
1
 62
     7
 10
107.56108040074071
 20
6.7547026916619011
 30
0.0
 11
107.56108040074071
 21
26.60470269166191
 31
0.0
  0
LINE
  5
B9
  8
1
  6
DASHDOT
 62
     3
 10
-91.632058395814596
 20
36.197643483767919
 30
0.0
 11
-91.632058395814596
 21
43.311761899555897
 31
0.0
  0
LINE
  5
BA
  8
1
  6
DASHDOT
 62
     3
 10
-88.074999187920611
 20
39.754702691661933
 30
0.0
 11
-95.189117603708596
 21
39.754702691661933
 31
0.0
  0
LINE
  5
BB
  8
1
  6
DASHDOT
 62
     3
 10
-91.632058395814596
 20
-20.147917297353072
 30
0.0
 11
-91.632058395814596
 21
-12.34267731932308
 31
0.0
  0
LINE
  5
BC
  8
1
  6
DASHDOT
 62
     3
 10
-87.729438406799602
 20
-16.245297308338081
 30
0.0
 11
-95.534678384829604
 21
-16.245297308338081
 31
0.0
  0
LINE
  5
BD
  8
1
 62
     7
 10
-97.632058395814596
 20
45.754702691661912
 30
0.0
 11
-85.632058395814596
 21
45.754702691661912
 31
0.0
  0
LINE
  5
BE
  8
1
 62
     7
 10
-83.632058395814596
 20
43.754702691661912
 30
0.0
 11
-83.632058395814596
 21
23.667106778612119
 31
0.0
  0
LINE
  5
BF
  8
1
 62
     7
 10
-99.632058395814596
 20
43.754702691661912
 30
0.0
 11
-99.632058395814596
 21
23.667106778612119
 31
0.0
  0
LINE
  5
C0
  8
1
 62
     7
 10
-94.132058395814596
 20
-6.4452973083381053
 30
0.0
 11
-89.132058395814596
 21
-6.4452973083381053
 31
0.0
  0
LINE
  5
C1
  8
1
 62
     7
 10
-94.132058395814596
 20
-9.1742294964726074
 30
0.0
 11
-94.132058395814596
 21
-6.4452973083381053
 31
0.0
  0
LINE
  5
C2
  8
1
 62
     7
 10
-89.132058395814596
 20
-9.1742294964726074
 30
0.0
 11
-89.132058395814596
 21
-6.4452973083381053
 31
0.0
  0
LINE
  5
C3
  8
1
 62
     7
 10
20.187381483067799
 20
26.25470269166189
 30
0.0
 11
20.187381483067799
 21
-58.74529730833811
 31
0.0
  0
LINE
  5
C4
  8
1
 62
     7
 10
18.7440058100937
 20
28.754702691661929
 30
0.0
 11
18.7440058100937
 21
-61.24529730833811
 31
0.0
  0
LINE
  5
C5
  8
1
 62
     7
 10
8.7873814830678008
 20
-58.59529730833809
 30
0.0
 11
-5.5126185169321991
 21
-58.59529730833809
 31
0.0
  0
LINE
  5
C6
  8
1
 62
     7
 10
8.7873814830678008
 20
27.317268133041718
 30
0.0
 11
8.7873814830678008
 21
-61.24529730833811
 31
0.0
  0
LINE
  5
C7
  8
1
  6
DASHDOT
 62
     3
 10
-13.512618516932189
 20
-16.245297308338099
 30
0.0
 11
-16.818565092537298
 21
-16.245297308338099
 31
0.0
  0
LINE
  5
C8
  8
1
 62
     7
 10
-5.5126185169321991
 20
26.104702691661899
 30
0.0
 11
8.7873814830678008
 21
26.104702691661899
 31
0.0
  0
LINE
  5
C9
  8
1
 62
     7
 10
-11.512618516932189
 20
-51.24529730833811
 30
0.0
 11
-13.512618516932189
 21
-51.24529730833811
 31
0.0
  0
LINE
  5
CA
  8
1
 62
     7
 10
-13.512618516932189
 20
45.754702691661912
 30
0.0
 11
-11.512618516932189
 21
45.754702691661912
 31
0.0
  0
LINE
  5
CB
  8
1
 62
     7
 10
20.187381483067799
 20
-58.74529730833811
 30
0.0
 11
21.187381483067799
 21
-58.74529730833811
 31
0.0
  0
LINE
  5
CC
  8
1
 62
     7
 10
8.7873814830678008
 20
-61.24529730833811
 30
0.0
 11
18.7440058100937
 21
-61.24529730833811
 31
0.0
  0
LINE
  5
CD
  8
1
 62
     7
 10
18.7440058100937
 20
28.754702691661929
 30
0.0
 11
8.7873814830678008
 21
28.754702691661929
 31
0.0
  0
LINE
  5
CE
  8
1
 62
     7
 10
20.187381483067799
 20
26.25470269166189
 30
0.0
 11
18.7440058100937
 21
28.754702691661929
 31
0.0
  0
LINE
  5
CF
  8
1
 62
     7
 10
21.187381483067799
 20
26.25470269166189
 30
0.0
 11
20.187381483067799
 21
26.25470269166189
 31
0.0
  0
LINE
  5
D0
  8
1
 62
     7
 10
8.7873814830678008
 20
28.754702691661929
 30
0.0
 11
8.7873814830678008
 21
26.404702691661889
 31
0.0
  0
LINE
  5
D1
  8
1
 62
     7
 10
-2.7648631562344099
 20
58.134294481888887
 30
0.0
 11
-2.7648631562344099
 21
54.831047404314212
 31
0.0
  0
LINE
  5
D2
  8
1
 62
     7
 10
-2.335628162667398
 20
58.134294481888887
 30
0.0
 11
-2.335628162667398
 21
54.831047404314212
 31
0.0
  0
LINE
  5
D3
  8
1
 62
     7
 10
-1.743579895678288
 20
58.134294481888887
 30
0.0
 11
-1.743579895678288
 21
54.831047404314212
 31
0.0
  0
LINE
  5
D4
  8
1
 62
     7
 10
-1.2551400754124089
 20
58.134294481888887
 30
0.0
 11
-1.2551400754124089
 21
54.831047404314212
 31
0.0
  0
LINE
  5
D5
  8
1
 62
     7
 10
-0.7626185169322
 20
54.831047404314212
 30
0.0
 11
-0.7626185169322
 21
26.104702691661931
 31
0.0
  0
LINE
  5
D6
  8
1
 62
     7
 10
-3.2626185169322
 20
54.831047404314212
 30
0.0
 11
-3.2626185169322
 21
26.10470269166192
 31
0.0
  0
LINE
  5
D7
  8
1
  6
DASHDOT
 62
     3
 10
78.661080400740815
 20
-16.245297308338099
 30
0.0
 11
75.355133825135695
 21
-16.245297308338099
 31
0.0
  0
LINE
  5
D8
  8
1
 62
     7
 10
101.3610804007407
 20
-32.245297308338102
 30
0.0
 11
101.3610804007407
 21
-39.245297308338088
 31
0.0
  0
LINE
  5
D9
  8
1
 62
     7
 10
108.8610804007407
 20
-59.09529730833809
 30
0.0
 11
108.8610804007407
 21
-39.245297308338081
 31
0.0
  0
LINE
  5
DA
  8
1
 62
     7
 10
100.9610804007408
 20
-59.09529730833809
 30
0.0
 11
100.9610804007408
 21
-61.24529730833811
 31
0.0
  0
LINE
  5
DB
  8
1
 62
     7
 10
112.7610804007407
 20
-36.245297308338102
 30
0.0
 11
112.7610804007407
 21
-39.245297308338102
 31
0.0
  0
LINE
  5
DC
  8
1
 62
     7
 10
112.7610804007407
 20
-36.245297308338102
 30
0.0
 11
113.1610804007407
 21
-36.245297308338102
 31
0.0
  0
LINE
  5
DD
  8
1
 62
     7
 10
108.8610804007407
 20
-59.09529730833809
 30
0.0
 11
100.9610804007408
 21
-59.09529730833809
 31
0.0
  0
LINE
  5
DE
  8
1
 62
     7
 10
108.8610804007407
 20
-39.245297308338081
 30
0.0
 11
101.3610804007407
 21
-39.245297308338088
 31
0.0
  0
LINE
  5
DF
  8
1
 62
     7
 10
108.8610804007407
 20
26.60470269166191
 30
0.0
 11
108.8610804007407
 21
6.7547026916619011
 31
0.0
  0
LINE
  5
E0
  8
1
 62
     7
 10
100.9610804007408
 20
26.60470269166191
 30
0.0
 11
108.8610804007407
 21
26.60470269166191
 31
0.0
  0
LINE
  5
E1
  8
1
 62
     7
 10
100.9610804007408
 20
6.7547026916619011
 30
0.0
 11
108.8610804007407
 21
6.7547026916619011
 31
0.0
  0
LINE
  5
E2
  8
1
 62
     7
 10
113.1610804007407
 20
3.7547026916619011
 30
0.0
 11
112.7610804007407
 21
3.7547026916619011
 31
0.0
  0
LINE
  5
E3
  8
1
 62
     7
 10
99.161080400740801
 20
-32.245297308338102
 30
0.0
 11
101.3610804007407
 21
-32.245297308338102
 31
0.0
  0
LINE
  5
E4
  8
1
 62
     7
 10
100.4610804007407
 20
-40.995297308338088
 30
0.0
 11
98.661080400740815
 21
-40.99529730833811
 31
0.0
  0
LINE
  5
E5
  8
1
 62
     7
 10
98.661080400740815
 20
-36.99529730833811
 30
0.0
 11
100.4610804007407
 21
-36.99529730833811
 31
0.0
  0
LINE
  5
E6
  8
1
 62
     7
 10
106.56108040074071
 20
7.2547026916619011
 30
0.0
 11
106.56108040074071
 21
26.104702691661899
 31
0.0
  0
LINE
  5
E7
  8
1
 62
     7
 10
100.4610804007407
 20
4.5047026916619011
 30
0.0
 11
98.661080400740815
 21
4.5047026916619011
 31
0.0
  0
LINE
  5
E8
  8
1
 62
     7
 10
100.4610804007407
 20
8.5047026916619011
 30
0.0
 11
100.4610804007407
 21
3.4647026916619121
 31
0.0
  0
LINE
  5
E9
  8
1
 62
     7
 10
86.661080400740815
 20
26.104702691661899
 30
0.0
 11
106.56108040074071
 21
26.104702691661899
 31
0.0
  0
LINE
  5
EA
  8
1
 62
     7
 10
106.56108040074071
 20
7.2547026916619011
 30
0.0
 11
100.4610804007407
 21
7.2547026916619011
 31
0.0
  0
LINE
  5
EB
  8
1
 62
     7
 10
106.56108040074071
 20
-58.59529730833809
 30
0.0
 11
86.661080400740815
 21
-58.59529730833809
 31
0.0
  0
LINE
  5
EC
  8
1
 62
     7
 10
106.56108040074071
 20
-58.59529730833809
 30
0.0
 11
106.56108040074071
 21
-39.745297308338088
 31
0.0
  0
LINE
  5
ED
  8
1
 62
     7
 10
100.4610804007407
 20
-39.745297308338088
 30
0.0
 11
106.56108040074071
 21
-39.745297308338088
 31
0.0
  0
LINE
  5
EE
  8
1
 62
     7
 10
80.643614513481069
 20
-51.24529730833811
 30
0.0
 11
78.661080400740815
 21
-51.24529730833811
 31
0.0
  0
LINE
  5
EF
  8
1
 62
     7
 10
78.661080400740815
 20
45.754702691661912
 30
0.0
 11
80.661080400740815
 21
45.754702691661912
 31
0.0
  0
LINE
  5
F0
  8
1
 62
     7
 10
78.661080400740815
 20
-36.995297308338102
 30
0.0
 11
80.661080400740815
 21
-36.995297308338102
 31
0.0
  0
LINE
  5
F1
  8
1
  6
DASHDOT
 62
     3
 10
76.975292525095838
 20
39.754702691661933
 30
0.0
 11
81.924496020110084
 21
39.754702691661933
 31
0.0
  0
LINE
  5
F2
  8
1
 62
     7
 10
78.661080400740815
 20
42.504702691661898
 30
0.0
 11
80.661080400740815
 21
42.504702691661898
 31
0.0
  0
LINE
  5
F3
  8
1
 62
     7
 10
78.661080400740815
 20
37.012999999999998
 30
0.0
 11
80.661080400740815
 21
37.012999999999998
 31
0.0
  0
LINE
  5
F4
  8
1
 62
     7
 10
99.161080400740801
 20
-32.245297308338102
 30
0.0
 11
101.3610804007407
 21
-32.245297308338102
 31
0.0
  0
LINE
  5
F5
  8
1
 62
     7
 10
112.3610804007407
 20
-58.74529730833811
 30
0.0
 11
113.3610804007407
 21
-58.74529730833811
 31
0.0
  0
LINE
  5
F6
  8
1
 62
     7
 10
110.9177047277666
 20
-61.24529730833811
 30
0.0
 11
112.3610804007407
 21
-58.74529730833811
 31
0.0
  0
LINE
  5
F7
  8
1
 62
     7
 10
100.9610804007408
 20
-61.24529730833811
 30
0.0
 11
110.9177047277666
 21
-61.24529730833811
 31
0.0
  0
LINE
  5
F8
  8
1
 62
     7
 10
113.3610804007407
 20
-37.913297308338102
 30
0.0
 11
113.3610804007407
 21
-58.74529730833811
 31
0.0
  0
LINE
  5
F9
  8
1
 62
     7
 10
112.7610804007407
 20
-39.245297308338102
 30
0.0
 11
113.3610804007407
 21
-39.245297308338102
 31
0.0
  0
LINE
  5
FA
  8
1
 62
     7
 10
112.7610804007407
 20
6.7547026916619011
 30
0.0
 11
112.7610804007407
 21
3.7547026916619011
 31
0.0
  0
LINE
  5
FB
  8
1
 62
     7
 10
113.3610804007407
 20
6.7547026916619011
 30
0.0
 11
112.7610804007407
 21
6.7547026916619011
 31
0.0
  0
LINE
  5
FC
  8
1
 62
     7
 10
113.3610804007407
 20
26.25470269166189
 30
0.0
 11
113.3610804007407
 21
5.4227026916619003
 31
0.0
  0
LINE
  5
FD
  8
1
 62
     7
 10
99.161080400740801
 20
-0.2452973083380989
 30
0.0
 11
98.661080400740815
 21
-0.745297308338099
 31
0.0
  0
LINE
  5
FE
  8
1
 62
     7
 10
110.9177047277666
 20
28.754702691661929
 30
0.0
 11
100.9610804007408
 21
28.754702691661929
 31
0.0
  0
LINE
  5
FF
  8
1
 62
     7
 10
112.3610804007407
 20
26.25470269166189
 30
0.0
 11
110.9177047277666
 21
28.754702691661929
 31
0.0
  0
LINE
  5
100
  8
1
 62
     7
 10
113.3610804007407
 20
26.25470269166189
 30
0.0
 11
112.3610804007407
 21
26.25470269166189
 31
0.0
  0
LINE
  5
101
  8
1
 62
     7
 10
100.9610804007408
 20
28.754702691661929
 30
0.0
 11
100.9610804007408
 21
26.60470269166191
 31
0.0
  0
LINE
  5
102
  8
1
 62
     7
 10
100.9610804007408
 20
-0.2452973083380989
 30
0.0
 11
99.161080400740801
 21
-0.2452973083380989
 31
0.0
  0
LINE
  5
103
  8
1
 62
     7
 10
86.661080400740801
 20
-8.7452973083380972
 30
0.0
 11
130.6610804007407
 21
-8.7452973083380972
 31
0.0
  0
LINE
  5
104
  8
1
 62
     7
 10
86.661080400740801
 20
-6.4452973083381053
 30
0.0
 11
113.1610804007407
 21
-6.4452973083381053
 31
0.0
  0
LINE
  5
105
  8
1
 62
     7
 10
89.408835761438624
 20
58.134294481888887
 30
0.0
 11
89.408835761438624
 21
54.831047404314212
 31
0.0
  0
LINE
  5
106
  8
1
 62
     7
 10
89.83807075500566
 20
58.134294481888887
 30
0.0
 11
89.83807075500566
 21
54.831047404314212
 31
0.0
  0
LINE
  5
107
  8
1
 62
     7
 10
90.430119021994699
 20
58.134294481888887
 30
0.0
 11
90.430119021994699
 21
54.831047404314212
 31
0.0
  0
LINE
  5
108
  8
1
 62
     7
 10
90.918558842260694
 20
58.134294481888887
 30
0.0
 11
90.918558842260694
 21
54.831047404314212
 31
0.0
  0
LINE
  5
109
  8
1
 62
     7
 10
91.411080400740815
 20
54.831047404314212
 30
0.0
 11
91.411080400740815
 21
26.10470269166192
 31
0.0
  0
LINE
  5
10A
  8
1
 62
     7
 10
88.911080400740815
 20
54.831047404314212
 30
0.0
 11
88.911080400740815
 21
26.10470269166192
 31
0.0
  0
LINE
  5
10B
  8
1
  6
DASHDOT
 62
     3
 10
-14.538188408684301
 20
39.754702691661933
 30
0.0
 11
-10.33968176070149
 21
39.754702691661933
 31
0.0
  0
LINE
  5
10C
  8
1
 62
     7
 10
113.1610804007407
 20
3.7547026916619011
 30
0.0
 11
113.1610804007407
 21
-36.245297308338102
 31
0.0
  0
LINE
  5
10D
  8
1
 62
     7
 10
80.661080400740815
 20
45.754702691661912
 30
0.0
 11
80.661080400740815
 21
-52.59529730833809
 31
0.0
  0
LINE
  5
10E
  8
1
 62
     7
 10
98.661080400740815
 20
-39.74529730833811
 30
0.0
 11
86.661080400740801
 21
-39.745297308338088
 31
0.0
  0
LINE
  5
10F
  8
1
 62
     7
 10
98.661080400740815
 20
-28.745297308338099
 30
0.0
 11
98.661080400740815
 21
-40.99529730833811
 31
0.0
  0
LINE
  5
110
  8
1
 62
     7
 10
98.661080400740815
 20
-31.745297308338099
 30
0.0
 11
99.161080400740801
 21
-32.245297308338102
 31
0.0
  0
LINE
  5
111
  8
1
 62
     7
 10
98.661080400740815
 20
-28.745297308338099
 30
0.0
 11
86.661080400740801
 21
-28.74529730833811
 31
0.0
  0
LINE
  5
112
  8
1
 62
     7
 10
100.4610804007407
 20
-40.995297308338088
 30
0.0
 11
100.4610804007407
 21
-35.95529730833811
 31
0.0
  0
LINE
  5
113
  8
1
 62
     7
 10
98.661080400740815
 20
8.5047026916619011
 30
0.0
 11
98.661080400740815
 21
-3.745297308338098
 31
0.0
  0
LINE
  5
114
  8
1
 62
     7
 10
98.661080400740815
 20
-3.745297308338098
 30
0.0
 11
86.661080400740801
 21
-3.745297308338098
 31
0.0
  0
LINE
  5
115
  8
1
 62
     7
 10
78.661080400740815
 20
4.5047026916619011
 30
0.0
 11
80.661080400740815
 21
4.5047026916619011
 31
0.0
  0
LINE
  5
116
  8
1
 62
     7
 10
91.411080400740815
 20
54.831047404314212
 30
0.0
 11
88.911080400740815
 21
54.831047404314212
 31
0.0
  0
LINE
  5
117
  8
1
 62
     7
 10
100.9610804007408
 20
-0.2452973083380989
 30
0.0
 11
100.9610804007408
 21
6.7547026916619011
 31
0.0
  0
LINE
  5
118
  8
1
 62
     7
 10
98.661080400740815
 20
8.5047026916619011
 30
0.0
 11
100.4610804007407
 21
8.5047026916619011
 31
0.0
  0
LINE
  5
119
  8
1
 62
     7
 10
-13.512618516932189
 20
45.754702691661912
 30
0.0
 11
-13.512618516932189
 21
-51.24529730833811
 31
0.0
  0
LINE
  5
11A
  8
1
 62
     7
 10
-11.512618516932189
 20
45.754702691661912
 30
0.0
 11
-11.512618516932189
 21
-52.59529730833809
 31
0.0
  0
LINE
  5
11B
  8
1
 62
     7
 10
-0.7626185169322
 20
54.831047404314212
 30
0.0
 11
-3.2626185169322
 21
54.831047404314212
 31
0.0
  0
LINE
  5
11C
  8
1
 62
     7
 10
20.187381483067799
 20
-58.74529730833811
 30
0.0
 11
18.7440058100937
 21
-61.24529730833811
 31
0.0
  0
LINE
  5
11D
  8
1
 62
     7
 10
-102.59304495590629
 20
24.661661435003939
 30
0.0
 11
-110.4493611432201
 21
53.981832606384629
 31
0.0
  0
LINE
  5
11E
  8
1
 62
     7
 10
-110.136840810396
 20
59.241953079233497
 30
0.0
 11
-108.8325919153785
 21
54.415044615332206
 31
0.0
  0
LINE
  5
11F
  8
1
 62
     7
 10
-110.6512467807617
 20
59.104118414892312
 30
0.0
 11
-109.3287074766515
 21
54.282110851336718
 31
0.0
  0
LINE
  5
120
  8
1
 62
     7
 10
-111.2339134871531
 20
58.947993341458222
 30
0.0
 11
-109.92966459213559
 21
54.121084877556932
 31
0.0
  0
LINE
  5
121
  8
1
 62
     7
 10
-112.0661303710615
 20
53.548620597437022
 30
0.0
 11
-113.35007192706929
 21
58.380970396426413
 31
0.0
  0
LINE
  5
122
  8
1
 62
     7
 10
-111.5700148097886
 20
53.68155436143261
 30
0.0
 11
-112.83566595670359
 21
58.51880506076764
 31
0.0
  0
LINE
  5
123
  8
1
 62
     7
 10
-110.9690576943045
 20
53.842580335212318
 30
0.0
 11
-112.2529992503122
 21
58.674930134201723
 31
0.0
  0
LINE
  5
124
  8
1
 62
     7
 10
-112.8641757089426
 20
53.334784993628332
 30
0.0
 11
-108.03454657749739
 21
54.628880219140932
 31
0.0
  0
LINE
  5
125
  8
1
 62
     7
 10
-112.8641757089426
 20
53.334784993628332
 30
0.0
 11
-104.9887446367735
 21
23.94327610078631
 31
0.0
  0
LINE
  5
126
  8
1
 62
     7
 10
-108.03454657749739
 20
54.628880219140932
 30
0.0
 11
-100.1591155053282
 21
25.23737132629887
 31
0.0
  0
LINE
  5
127
  8
1
 62
     7
 10
78.661080400740815
 20
45.754702691661912
 30
0.0
 11
78.661080400740815
 21
-51.24529730833811
 31
0.0
  0
LINE
  5
128
  8
1
 62
     7
 10
90.922697531520086
 20
-1.0502973083380991
 30
0.0
 11
86.661080400740801
 21
-1.0502973083380991
 31
0.0
  0
LINE
  5
129
  8
1
 62
     7
 10
94.399463269961487
 20
-1.0502973083380991
 30
0.0
 11
98.661080400740815
 21
-1.0502973083380991
 31
0.0
  0
LINE
  5
12A
  8
1
 62
     7
 10
90.922697531520086
 20
4.5597026916619008
 30
0.0
 11
86.661080400740801
 21
4.5597026916619008
 31
0.0
  0
LINE
  5
12B
  8
1
 62
     7
 10
94.399463269961487
 20
4.5597026916619008
 30
0.0
 11
98.661080400740815
 21
4.5597026916619008
 31
0.0
  0
LINE
  5
12C
  8
1
 62
     7
 10
97.311080400740792
 20
5.2334526916619026
 30
0.0
 11
97.311080400740792
 21
-1.7240473083380989
 31
0.0
  0
LINE
  5
12D
  8
1
 62
     7
 10
88.011080400740781
 20
5.2334526916619026
 30
0.0
 11
88.011080400740781
 21
-1.7240473083380989
 31
0.0
  0
LINE
  5
12E
  8
1
 62
     7
 10
90.922697531520086
 20
-31.440297308338099
 30
0.0
 11
86.661080400740801
 21
-31.440297308338099
 31
0.0
  0
LINE
  5
12F
  8
1
 62
     7
 10
94.399463269961487
 20
-31.440297308338099
 30
0.0
 11
98.661080400740815
 21
-31.440297308338099
 31
0.0
  0
LINE
  5
130
  8
1
 62
     7
 10
90.922697531520086
 20
-37.050297308338102
 30
0.0
 11
86.661080400740801
 21
-37.050297308338102
 31
0.0
  0
LINE
  5
131
  8
1
 62
     7
 10
94.399463269961487
 20
-37.050297308338102
 30
0.0
 11
98.661080400740815
 21
-37.050297308338102
 31
0.0
  0
LINE
  5
132
  8
1
 62
     7
 10
97.311080400740792
 20
-37.7240473083381
 30
0.0
 11
97.311080400740792
 21
-30.766547308338101
 31
0.0
  0
LINE
  5
133
  8
1
 62
     7
 10
88.011080400740781
 20
-37.7240473083381
 30
0.0
 11
88.011080400740781
 21
-30.766547308338101
 31
0.0
  0
LINE
  5
134
  8
1
 62
     7
 10
119.0110804007407
 20
20.75470269166189
 30
0.0
 11
118.6610804007407
 21
20.75470269166189
 31
0.0
  0
LINE
  5
135
  8
1
 62
     7
 10
119.0110804007407
 20
6.7547026916619011
 30
0.0
 11
118.6610804007407
 21
6.7547026916619011
 31
0.0
  0
LINE
  5
136
  8
1
 62
     7
 10
119.0110804007407
 20
6.2547026916619011
 30
0.0
 11
121.3610804007408
 21
6.2547026916619011
 31
0.0
  0
ARC
  5
137
  8
1
 62
     7
 10
120.31108040074071
 20
-57.09529730833809
 30
0.0
 40
0.6500000000000057
 50
180.0
 51
0.0
  0
ARC
  5
138
  8
1
 62
     7
 10
120.31108040074071
 20
-50.395297308338073
 30
0.0
 40
0.6499999999999915
 50
0.0
 51
180.0
  0
ARC
  5
139
  8
1
  6
DASHDOT
 62
     3
 10
202.7018403467728
 20
-16.245297308338081
 30
0.0
 40
19.999999999999989
 50
168.24981628549449
 51
192.55845381636379
  0
ARC
  5
13A
  8
1
  6
DASHDOT
 62
     3
 10
202.7018403467728
 20
-16.245297308338081
 30
0.0
 40
20.0
 50
229.51738139870699
 51
251.65224994296969
  0
ARC
  5
13B
  8
1
  6
DASHDOT
 62
     3
 10
202.7018403467728
 20
-16.245297308338081
 30
0.0
 40
20.00000000000006
 50
287.13457751462113
 51
311.76691566729181
  0
ARC
  5
13C
  8
1
  6
DASHDOT
 62
     3
 10
202.7018403467728
 20
-16.245297308338081
 30
0.0
 40
20.000000000000028
 50
47.138835515121563
 51
71.586774068913741
  0
ARC
  5
13D
  8
1
  6
DASHDOT
 62
     3
 10
202.7018403467728
 20
-16.245297308338081
 30
0.0
 40
20.000000000000011
 50
348.31209285254442
 51
11.90003752292148
  0
ARC
  5
13E
  8
1
  6
DASHDOT
 62
     3
 10
202.7018403467728
 20
-16.245297308338081
 30
0.0
 40
20.000000000000028
 50
108.9689221133923
 51
131.0793716407164
  0
ARC
  5
13F
  8
1
 62
     7
 10
202.7018403467728
 20
-16.245297308338081
 30
0.0
 40
37.999999999999929
 50
111.09408908639929
 51
120.2756708528929
  0
ARC
  5
140
  8
1
 62
     7
 10
202.7018403467728
 20
-16.245297308338081
 30
0.0
 40
38.000000000000028
 50
351.09408908639949
 51
0.2756708528929656
  0
ARC
  5
141
  8
1
 62
     7
 10
202.7018403467728
 20
-16.245297308338081
 30
0.0
 40
37.999999999999929
 50
179.724329147107
 51
188.90591091360079
  0
ARC
  5
142
  8
1
 62
     7
 10
202.7018403467728
 20
-16.245297308338081
 30
0.0
 40
38.0
 50
59.724329147107071
 51
68.905910913600707
  0
ARC
  5
143
  8
1
 62
     7
 10
202.7018403467728
 20
-16.245297308338081
 30
0.0
 40
38.0
 50
299.72432914710708
 51
308.90591091360062
  0
ARC
  5
144
  8
1
 62
     7
 10
202.7018403467728
 20
-16.245297308338081
 30
0.0
 40
37.999999999999929
 50
231.09408908639929
 51
240.27567085289289
  0
ARC
  5
145
  8
1
 62
     7
 10
202.7018403467728
 20
13.754702691661921
 30
0.0
 40
13.00000000000006
 50
356.90452225930801
 51
183.09547774069179
  0
ARC
  5
146
  8
1
 62
     7
 10
177.73831695763559
 20
12.40470269166193
 30
0.0
 40
12.00000000000013
 50
311.06652203932401
 51
3.0954777406918579
  0
ARC
  5
147
  8
1
 62
     7
 10
227.66536373591001
 20
12.40470269166193
 30
0.0
 40
11.999999999999959
 50
176.9045222593081
 51
228.93347796067641
  0
ARC
  5
148
  8
1
 62
     7
 10
202.7018403467728
 20
-16.245297308338081
 30
0.0
 40
26.000000000000071
 50
11.06652203932383
 51
48.933477960675972
  0
ARC
  5
149
  8
1
 62
     7
 10
176.72107823323961
 20
-31.245297308338081
 30
0.0
 40
13.0
 50
116.904522259308
 51
303.09547774069182
  0
ARC
  5
14A
  8
1
 62
     7
 10
228.68260246030599
 20
-31.245297308338081
 30
0.0
 40
13.0
 50
236.9045222593079
 51
63.095477740691848
  0
ARC
  5
14B
  8
1
 62
     7
 10
190.37197422291729
 20
-52.189342731297863
 30
0.0
 40
11.99999999999998
 50
71.066522039323871
 51
123.0954777406921
  0
ARC
  5
14C
  8
1
 62
     7
 10
239.99522985976549
 20
-8.9512518853782694
 30
0.0
 40
11.999999999999959
 50
191.06652203932401
 51
243.09547774069199
  0
ARC
  5
14D
  8
1
 62
     7
 10
165.40845083378011
 20
-8.9512518853782694
 30
0.0
 40
11.99999999999998
 50
296.90452225930812
 51
348.93347796067582
  0
ARC
  5
14E
  8
1
 62
     7
 10
215.03170647062839
 20
-52.189342731297863
 30
0.0
 40
11.99999999999998
 50
56.904522259308223
 51
108.9334779606764
  0
ARC
  5
14F
  8
1
 62
     7
 10
202.7018403467728
 20
-16.245297308338081
 30
0.0
 40
25.999999999999879
 50
131.06652203932379
 51
168.9334779606761
  0
ARC
  5
150
  8
1
 62
     7
 10
202.7018403467728
 20
-16.245297308338081
 30
0.0
 40
25.999999999999979
 50
251.0665220393239
 51
288.93347796067587
  0
ARC
  5
151
  8
1
 62
     7
 10
195.9166875565131
 20
21.144028730156229
 30
0.0
 40
5.0000000000000107
 50
100.2857001690172
 51
150.0
  0
ARC
  5
152
  8
1
 62
     7
 10
166.929157771928
 20
-29.063845642661679
 30
0.0
 40
5.000000000000016
 50
150.0
 51
199.71429983098281
  0
ARC
  5
153
  8
1
 62
     7
 10
173.71431056218751
 20
-40.816075012508982
 30
0.0
 40
4.9999999999998774
 50
220.28570016901651
 51
270.0
  0
ARC
  5
154
  8
1
 62
     7
 10
238.47452292161771
 20
-29.063845642661558
 30
0.0
 40
5.0000000000000417
 50
340.28570016901682
 51
29.99999999999941
  0
ARC
  5
155
  8
1
 62
     7
 10
231.68937013135809
 20
-40.816075012508861
 30
0.0
 40
5.0
 50
270.0
 51
319.71429983098318
  0
ARC
  5
156
  8
1
 62
     7
 10
209.48699313703241
 20
21.144028730156311
 30
0.0
 40
4.999999999999992
 50
30.00000000000005
 51
79.714299830984203
  0
ARC
  5
157
  8
1
 62
     7
 10
28.137381483067799
 20
-57.09529730833809
 30
0.0
 40
0.6500000000000094
 50
180.0
 51
0.0
  0
ARC
  5
158
  8
1
 62
     7
 10
28.137381483067799
 20
-50.395297308338073
 30
0.0
 40
0.6500000000000022
 50
0.0
 51
180.0
  0
ARC
  5
159
  8
1
 62
     7
 10
85.661080400740815
 20
11.854702691661901
 30
0.0
 40
5.0
 50
180.0
 51
258.4630409671841
  0
ARC
  5
15A
  8
1
 62
     7
 10
86.661080400740815
 20
20.104702691661899
 30
0.0
 40
6.0
 50
90.0
 51
180.0
  0
ARC
  5
15B
  8
1
 62
     7
 10
-91.632058395814596
 20
-16.245297308338081
 30
0.0
 40
45.0
 50
100.2403483211862
 51
101.8152614632795
  0
ARC
  5
15C
  8
1
 62
     7
 10
-91.632058395814596
 20
-16.245297308338081
 30
0.0
 40
44.999999999999993
 50
108.1847385367202
 51
79.759651678813782
  0
ARC
  5
15D
  8
1
 62
     7
 10
-91.632058395814596
 20
-16.245297308338081
 30
0.0
 40
35.0
 50
111.8447574857632
 51
68.15524251423669
  0
ARC
  5
15E
  8
1
 62
     7
 10
-85.632058395814596
 20
43.754702691661912
 30
0.0
 40
2.0
 50
0.0
 51
90.0
  0
ARC
  5
15F
  8
1
 62
     7
 10
-97.632058395814596
 20
43.754702691661912
 30
0.0
 40
2.0
 50
90.0
 51
180.0
  0
ARC
  5
160
  8
1
 62
     7
 10
-91.632058395814596
 20
-16.245297308338081
 30
0.0
 40
7.4999999999999973
 50
109.47122063449071
 51
70.528779365509308
  0
ARC
  5
161
  8
1
 62
     7
 10
-75.632058395814596
 20
23.667106778612119
 30
0.0
 40
8.0
 50
180.0
 51
248.1552425142369
  0
ARC
  5
162
  8
1
 62
     7
 10
-107.6320583958146
 20
23.667106778612119
 30
0.0
 40
7.999999999999992
 50
291.84475748576313
 51
0.0
  0
ARC
  5
163
  8
1
 62
     7
 10
85.661080400740815
 20
-44.345297308338083
 30
0.0
 40
5.0
 50
90.0
 51
180.0
  0
ARC
  5
164
  8
1
 62
     7
 10
-5.5126185169321991
 20
20.10470269166192
 30
0.0
 40
5.9999999999999876
 50
90.0
 51
180.0
  0
ARC
  5
165
  8
1
 62
     7
 10
-91.632058395814596
 20
-16.245297308338081
 30
0.0
 40
42.34999999999998
 50
100.88871352660099
 51
79.111286473398863
  0
ARC
  5
166
  8
1
 62
     7
 10
191.7018403467728
 20
-35.297856191595677
 30
0.0
 40
20.000000000000011
 50
211.72958762134391
 51
239.9999999999996
  0
ARC
  5
167
  8
1
 62
     7
 10
191.7018403467728
 20
2.8072615749195209
 30
0.0
 40
20.000000000000028
 50
91.729587621343953
 51
119.9999999999993
  0
ARC
  5
168
  8
1
 62
     7
 10
213.70184034677271
 20
-35.29785619159567
 30
0.0
 40
19.999999999999929
 50
300.00000000000011
 51
328.27041237865672
  0
ARC
  5
169
  8
1
 62
     7
 10
180.70184034677291
 20
-16.245297308338071
 30
0.0
 40
20.00000000000011
 50
180.0
 51
208.27041237865649
  0
ARC
  5
16A
  8
1
 62
     7
 10
202.7018403467728
 20
-16.245297308338081
 30
0.0
 40
41.999999999999929
 50
239.9999999999998
 51
300.00000000000011
  0
ARC
  5
16B
  8
1
 62
     7
 10
202.7018403467728
 20
-16.245297308338081
 30
0.0
 40
41.999999999999943
 50
119.9999999999997
 51
180.0
  0
ARC
  5
16C
  8
1
 62
     7
 10
213.70184034677271
 20
2.807261574919607
 30
0.0
 40
20.000000000000011
 50
60.000000000000028
 51
88.270412378656602
  0
ARC
  5
16D
  8
1
 62
     7
 10
224.70184034677271
 20
-16.245297308338081
 30
0.0
 40
19.999999999999979
 50
331.72958762134408
 51
359.99999999999972
  0
ARC
  5
16E
  8
1
 62
     7
 10
202.7018403467728
 20
-16.245297308338081
 30
0.0
 40
42.0
 50
359.99999999999977
 51
60.00000000000005
  0
CIRCLE
  5
16F
  8
1
 62
     7
 10
202.7018403467728
 20
39.754702691661919
 30
0.0
 40
2.75
  0
CIRCLE
  5
170
  8
1
 62
     7
 10
202.7018403467728
 20
-16.245297308338081
 30
0.0
 40
45.0
  0
CIRCLE
  5
171
  8
1
 62
     7
 10
202.7018403467728
 20
-16.245297308338081
 30
0.0
 40
43.0
  0
CIRCLE
  5
172
  8
1
 62
     7
 10
202.7018403467728
 20
-16.245297308338081
 30
0.0
 40
16.0
  0
CIRCLE
  5
173
  8
1
 62
     7
 10
202.7018403467728
 20
-16.245297308338081
 30
0.0
 40
13.0
  0
CIRCLE
  5
174
  8
1
 62
     7
 10
202.7018403467728
 20
-53.745297308338081
 30
0.0
 40
4.0
  0
CIRCLE
  5
175
  8
1
 62
     3
 10
222.70184034677271
 20
-16.245297308338081
 30
0.0
 40
2.0
  0
CIRCLE
  5
176
  8
1
 62
     7
 10
222.70184034677271
 20
-16.245297308338081
 30
0.0
 40
1.5999999999999941
  0
CIRCLE
  5
177
  8
1
 62
     7
 10
182.70184034677271
 20
-16.245297308338081
 30
0.0
 40
2.25
  0
CIRCLE
  5
178
  8
1
 62
     7
 10
202.7018403467728
 20
13.754702691661921
 30
0.0
 40
8.0
  0
CIRCLE
  5
179
  8
1
 62
     7
 10
202.7018403467728
 20
13.754702691661921
 30
0.0
 40
5.0
  0
CIRCLE
  5
17A
  8
1
 62
     7
 10
202.7018403467728
 20
13.754702691661921
 30
0.0
 40
2.0
  0
CIRCLE
  5
17B
  8
1
 62
     7
 10
202.7018403467728
 20
13.754702691661921
 30
0.0
 40
1.5999999999999941
  0
CIRCLE
  5
17C
  8
1
 62
     7
 10
176.72107823323961
 20
-31.245297308338081
 30
0.0
 40
7.999999999999992
  0
CIRCLE
  5
17D
  8
1
 62
     7
 10
228.68260246030599
 20
-31.245297308338081
 30
0.0
 40
7.999999999999992
  0
CIRCLE
  5
17E
  8
1
 62
     7
 10
176.72107823323961
 20
-31.245297308338081
 30
0.0
 40
5.000000000000016
  0
CIRCLE
  5
17F
  8
1
 62
     7
 10
228.68260246030599
 20
-31.245297308338081
 30
0.0
 40
4.9999999999999982
  0
CIRCLE
  5
180
  8
1
 62
     7
 10
176.72107823323961
 20
-31.245297308338081
 30
0.0
 40
2.0000000000000129
  0
CIRCLE
  5
181
  8
1
 62
     7
 10
228.68260246030599
 20
-31.245297308338081
 30
0.0
 40
2.0000000000000151
  0
CIRCLE
  5
182
  8
1
 62
     7
 10
176.72107823323961
 20
-31.245297308338081
 30
0.0
 40
1.6000000000000101
  0
CIRCLE
  5
183
  8
1
 62
     7
 10
228.68260246030599
 20
-31.245297308338081
 30
0.0
 40
1.600000000000058
  0
CIRCLE
  5
184
  8
1
 62
     7
 10
235.1777929886893
 20
2.5047026916619188
 30
0.0
 40
4.0000000000000329
  0
CIRCLE
  5
185
  8
1
 62
     7
 10
170.2258877048564
 20
2.5047026916619188
 30
0.0
 40
3.9999999999999578
  0
CIRCLE
  5
186
  8
1
 62
     3
 10
192.7018403467728
 20
1.075210767350625
 30
0.0
 40
2.0000000000000151
  0
CIRCLE
  5
187
  8
1
 62
     7
 10
192.7018403467728
 20
1.075210767350625
 30
0.0
 40
1.6000000000000409
  0
CIRCLE
  5
188
  8
1
 62
     3
 10
192.7018403467728
 20
-33.565805384026874
 30
0.0
 40
1.999999999999948
  0
CIRCLE
  5
189
  8
1
 62
     7
 10
192.7018403467728
 20
-33.565805384026874
 30
0.0
 40
1.599999999999999
  0
CIRCLE
  5
18A
  8
1
 62
     7
 10
212.7018403467728
 20
-33.565805384026874
 30
0.0
 40
2.2500000000000151
  0
CIRCLE
  5
18B
  8
1
 62
     7
 10
212.7018403467728
 20
1.075210767350625
 30
0.0
 40
2.2499999999999138
  0
CIRCLE
  5
18C
  8
1
 62
     7
 10
202.7018403467728
 20
13.754702691661921
 30
0.0
 40
9.5
  0
CIRCLE
  5
18D
  8
1
 62
     7
 10
176.72107823323961
 20
-31.245297308338081
 30
0.0
 40
9.5
  0
CIRCLE
  5
18E
  8
1
 62
     7
 10
228.68260246030599
 20
-31.245297308338081
 30
0.0
 40
9.5
  0
CIRCLE
  5
18F
  8
1
 62
     7
 10
202.7018403467728
 20
-16.245297308338081
 30
0.0
 40
7.5
  0
CIRCLE
  5
190
  8
1
 62
     7
 10
202.7018403467728
 20
-16.245297308338081
 30
0.0
 40
10.0
  0
CIRCLE
  5
191
  8
1
 62
     7
 10
-91.632058395814596
 20
-16.245297308338081
 30
0.0
 40
20.75
  0
CIRCLE
  5
192
  8
1
 62
     7
 10
-91.632058395814596
 20
-16.245297308338081
 30
0.0
 40
15.0
  0
CIRCLE
  5
193
  8
1
 62
     7
 10
-91.632058395814596
 20
39.754702691661933
 30
0.0
 40
2.75
  0
CIRCLE
  5
194
  8
1
 62
     7
 10
92.661080400740801
 20
1.7547026916619
 30
0.0
 40
3.2999999999999972
  0
CIRCLE
  5
195
  8
1
 62
     7
 10
92.661080400740801
 20
-34.245297308338102
 30
0.0
 40
3.2999999999999972
  0
ARC
  5
196
  8
1
 62
     7
 10
125.1610804007408
 20
-43.745297308338088
 30
0.0
 40
1.5
 50
0.0
 51
90.0
  0
ARC
  5
197
  8
1
 62
     7
 10
134.6610804007407
 20
-43.745297308338088
 30
0.0
 40
1.5
 50
90.0
 51
180.0
  0
ARC
  5
198
  8
1
 62
     7
 10
131.6610804007407
 20
-44.316075012508868
 30
0.0
 40
1.5
 50
270.0
 51
0.0
  0
ARC
  5
199
  8
1
 62
     7
 10
128.1610804007407
 20
-44.316075012508868
 30
0.0
 40
1.4999999999999849
 50
180.0
 51
270.0
  0
ARC
  5
19A
  8
1
 62
     7
 10
208.7018403467728
 20
43.754702691661919
 30
0.0
 40
2.0
 50
0.0
 51
90.0
  0
ARC
  5
19B
  8
1
 62
     7
 10
196.7018403467728
 20
43.754702691661919
 30
0.0
 40
2.0
 50
90.0
 51
180.0
  0
ARC
  5
19C
  8
1
 62
     7
 10
32.987381483067779
 20
-43.745297308338088
 30
0.0
 40
1.5
 50
0.0
 51
90.0
  0
ARC
  5
19D
  8
1
 62
     7
 10
42.487381483067779
 20
-43.745297308338088
 30
0.0
 40
1.5
 50
90.0
 51
180.0
  0
ARC
  5
19E
  8
1
 62
     7
 10
39.487381483067779
 20
-44.316075012508868
 30
0.0
 40
1.5
 50
270.0
 51
0.0
  0
ARC
  5
19F
  8
1
 62
     7
 10
35.987381483067779
 20
-44.316075012508868
 30
0.0
 40
1.5
 50
180.0
 51
270.0
  0
ARC
  5
1A0
  8
1
 62
     7
 10
86.661080400740801
 20
-52.59529730833809
 30
0.0
 40
5.9999999999999716
 50
180.0
 51
270.0
  0
ARC
  5
1A1
  8
1
 62
     7
 10
-5.5126185169321991
 20
-52.59529730833809
 30
0.0
 40
6.0
 50
180.0
 51
270.0
  0
TEXT
  5
1A2
  8
1
 62
     7
 10
-133.40503719263779
 20
95.446794028847904
 30
0.0
 40
5.0
  1
VCSHA 1.2
 41
0.9
  7
SIMPLEX
  0
ENDSEC
  0
EOF
