  0
SECTION
  2
HEADER
  9
$ACADVER
  1
AC1009
  9
$INSBASE
 10
0.0
 20
0.0
 30
0.0
  9
$EXTMIN
 10
165.01287942098409
 20
-341.18137679648612
 30
0.0
  9
$EXTMAX
 10
650.41930706125834
 20
-140.22147547134131
 30
0.0
  9
$LIMMIN
 10
165.01287942098401
 20
-341.18137679648618
  9
$LIMMAX
 10
647.76996066068307
 20
-140.22147547134139
  9
$ORTHOMODE
 70
     0
  9
$REGENMODE
 70
     1
  9
$FILLMODE
 70
     1
  9
$QTEXTMODE
 70
     0
  9
$MIRRTEXT
 70
     1
  9
$DRAGMODE
 70
     2
  9
$LTSCALE
 40
1.0
  9
$OSMODE
 70
    37
  9
$ATTMODE
 70
     1
  9
$TEXTSIZE
 40
3.5
  9
$TRACEWID
 40
0.5
  9
$TEXTSTYLE
  7
STANDARD
  9
$CLAYER
  8
0
  9
$CELTYPE
  6
BYLAYER
  9
$CECOLOR
 62
   256
  9
$DIMSCALE
 40
1.0
  9
$DIMASZ
 40
0.18
  9
$DIMEXO
 40
0.0625
  9
$DIMDLI
 40
0.38
  9
$DIMRND
 40
0.0
  9
$DIMDLE
 40
0.0
  9
$DIMEXE
 40
0.18
  9
$DIMTP
 40
0.0
  9
$DIMTM
 40
0.0
  9
$DIMTXT
 40
0.18
  9
$DIMCEN
 40
0.09
  9
$DIMTSZ
 40
0.0
  9
$DIMTOL
 70
     0
  9
$DIMLIM
 70
     0
  9
$DIMTIH
 70
     1
  9
$DIMTOH
 70
     1
  9
$DIMSE1
 70
     0
  9
$DIMSE2
 70
     0
  9
$DIMTAD
 70
     0
  9
$DIMZIN
 70
     0
  9
$DIMBLK
  1

  9
$DIMASO
 70
     1
  9
$DIMSHO
 70
     1
  9
$DIMPOST
  1

  9
$DIMAPOST
  1

  9
$DIMALT
 70
     0
  9
$DIMALTD
 70
     2
  9
$DIMALTF
 40
25.399999999999999
  9
$DIMLFAC
 40
1.0
  9
$DIMTOFL
 70
     0
  9
$DIMTVP
 40
0.0
  9
$DIMTIX
 70
     0
  9
$DIMSOXD
 70
     0
  9
$DIMSAH
 70
     0
  9
$DIMBLK1
  1

  9
$DIMBLK2
  1

  9
$DIMSTYLE
  2
STANDARD
  9
$DIMCLRD
 70
     0
  9
$DIMCLRE
 70
     0
  9
$DIMCLRT
 70
     0
  9
$DIMTFAC
 40
1.0
  9
$DIMGAP
 40
0.09
  9
$LUNITS
 70
     2
  9
$LUPREC
 70
     4
  9
$SKETCHINC
 40
0.1
  9
$FILLETRAD
 40
2.0
  9
$AUNITS
 70
     0
  9
$AUPREC
 70
     0
  9
$MENU
  1
ACAD
  9
$ELEVATION
 40
0.0
  9
$PELEVATION
 40
0.0
  9
$THICKNESS
 40
0.0
  9
$LIMCHECK
 70
     0
  9
$BLIPMODE
 70
     0
  9
$CHAMFERA
 40
0.0
  9
$CHAMFERB
 40
0.0
  9
$SKPOLY
 70
     0
  9
$TDCREATE
 40
2452095.383109028
  9
$TDUPDATE
 40
2452095.3837740738
  9
$TDINDWG
 40
0.0006814815
  9
$TDUSRTIMER
 40
0.0006814815
  9
$USRTIMER
 70
     1
  9
$ANGBASE
 50
0.0
  9
$ANGDIR
 70
     0
  9
$PDMODE
 70
     0
  9
$PDSIZE
 40
0.0
  9
$PLINEWID
 40
0.0
  9
$COORDS
 70
     1
  9
$SPLFRAME
 70
     0
  9
$SPLINETYPE
 70
     6
  9
$SPLINESEGS
 70
     8
  9
$ATTDIA
 70
     0
  9
$ATTREQ
 70
     1
  9
$HANDLING
 70
 10241
  9
$HANDSEED
  5
1B9
  9
$SURFTAB1
 70
     6
  9
$SURFTAB2
 70
     6
  9
$SURFTYPE
 70
     6
  9
$SURFU
 70
     6
  9
$SURFV
 70
     6
  9
$UCSNAME
  2

  9
$UCSORG
 10
0.0
 20
0.0
 30
0.0
  9
$UCSXDIR
 10
1.0
 20
0.0
 30
0.0
  9
$UCSYDIR
 10
0.0
 20
1.0
 30
0.0
  9
$PUCSNAME
  2

  9
$PUCSORG
 10
0.0
 20
0.0
 30
0.0
  9
$PUCSXDIR
 10
1.0
 20
0.0
 30
0.0
  9
$PUCSYDIR
 10
0.0
 20
1.0
 30
0.0
  9
$USERI1
 70
     0
  9
$USERI2
 70
     0
  9
$USERI3
 70
     0
  9
$USERI4
 70
     0
  9
$USERI5
 70
     0
  9
$USERR1
 40
0.0
  9
$USERR2
 40
0.0
  9
$USERR3
 40
0.0
  9
$USERR4
 40
0.0
  9
$USERR5
 40
0.0
  9
$WORLDVIEW
 70
     1
  9
$SHADEDGE
 70
     3
  9
$SHADEDIF
 70
    70
  9
$TILEMODE
 70
     1
  9
$MAXACTVP
 70
    64
  9
$PLIMCHECK
 70
     0
  9
$PEXTMIN
 10
1.0000000000000000E+020
 20
1.0000000000000000E+020
 30
1.0000000000000000E+020
  9
$PEXTMAX
 10
-1.0000000000000000E+020
 20
-1.0000000000000000E+020
 30
-1.0000000000000000E+020
  9
$PLIMMIN
 10
0.0
 20
0.0
  9
$PLIMMAX
 10
12.0
 20
9.0
  9
$UNITMODE
 70
     0
  9
$VISRETAIN
 70
     1
  9
$PLINEGEN
 70
     0
  9
$PSLTSCALE
 70
     1
  0
ENDSEC
  0
SECTION
  2
TABLES
  0
TABLE
  2
VPORT
 70
     2
  0
VPORT
  2
*ACTIVE
 70
     0
 10
0.0
 20
0.0
 11
1.0
 21
1.0
 12
208.27236178551991
 22
-158.77447295596821
 13
0.0
 23
0.0
 14
1.0
 24
1.0
 15
0.0
 25
0.0
 16
0.0
 26
0.0
 36
1.0
 17
0.0
 27
0.0
 37
0.0
 40
8.9999997939957534
 41
2.4144144144144142
 42
50.0
 43
0.0
 44
0.0
 50
0.0
 51
0.0
 71
     0
 72
   100
 73
     1
 74
     1
 75
     0
 76
     0
 77
     0
 78
     0
  0
ENDTAB
  0
TABLE
  2
LTYPE
 70
     9
  0
LTYPE
  2
CONTINUOUS
 70
     0
  3
Solid line
 72
    65
 73
     0
 40
0.0
  0
LTYPE
  2
BORDER
 70
     0
  3
__ __ . __ __ .
 72
    65
 73
     6
 40
22.232234004459819
 49
6.3520668584170918
 49
-3.1760334292085459
 49
6.3520668584170918
 49
-3.1760334292085459
 49
0.0
 49
-3.1760334292085459
  0
LTYPE
  2
CENTER
 70
     0
  3
____ _ ____ _
 72
    65
 73
     4
 40
25.408267433668371
 49
15.88016714604273
 49
-3.1760334292085459
 49
3.1760334292085459
 49
-3.1760334292085459
  0
LTYPE
  2
DASHDOT
 70
     0
  3
__ . __ . __ .
 72
    65
 73
     4
 40
12.70413371683418
 49
6.3520668584170918
 49
-3.1760334292085459
 49
0.0
 49
-3.1760334292085459
  0
LTYPE
  2
DASHED
 70
     0
  3
__ __ __ __ __
 72
    65
 73
     2
 40
9.5281002876256409
 49
6.3520668584170918
 49
-3.1760334292085459
  0
LTYPE
  2
DIVIDE
 70
     0
  3
__ . . __ . . 
 72
    65
 73
     6
 40
15.88016714604273
 49
6.3520668584170918
 49
-3.1760334292085459
 49
0.0
 49
-3.1760334292085459
 49
0.0
 49
-3.1760334292085459
  0
LTYPE
  2
DOT
 70
     0
  3
..............
 72
    65
 73
     4
 40
6.3520668584170918
 49
0.0
 49
-3.1760334292085459
 49
0.0
 49
-3.1760334292085459
  0
LTYPE
  2
HIDDEN
 70
     0
  3
_ _ _ _ _ _ _
 72
    65
 73
     2
 40
4.7640501438128204
 49
3.1760334292085459
 49
-1.588016714604273
  0
LTYPE
  2
PHANTOM
 70
     0
  3
_____ _ _ _____ _ _ 
 72
    65
 73
     6
 40
31.76033429208546
 49
15.88016714604273
 49
-3.1760334292085459
 49
3.1760334292085459
 49
-3.1760334292085459
 49
3.1760334292085459
 49
-3.1760334292085459
  0
ENDTAB
  0
TABLE
  2
LAYER
 70
     2
  0
LAYER
  2
0
 70
     0
 62
     7
  6
CONTINUOUS
  0
LAYER
  2
1
 70
     0
 62
     7
  6
CONTINUOUS
  0
ENDTAB
  0
TABLE
  2
STYLE
 70
     4
  0
STYLE
  2
STANDARD
 70
     0
 40
0.0
 41
1.0
 50
0.0
 71
     0
 42
3.5
  3
txt
  4

  0
STYLE
  2
SIMPLEX
 70
     0
 40
0.0
 41
1.0
 50
0.0
 71
     0
 42
3.5
  3
simplex
  4

  0
STYLE
  2
COMPLEX
 70
     0
 40
0.0
 41
1.0
 50
0.0
 71
     0
 42
3.5
  3
complex
  4

  0
STYLE
  2
ITALIC
 70
     0
 40
0.0
 41
1.0
 50
0.0
 71
     0
 42
3.5
  3
italic
  4

  0
ENDTAB
  0
TABLE
  2
VIEW
 70
     0
  0
ENDTAB
  0
TABLE
  2
UCS
 70
     0
  0
ENDTAB
  0
TABLE
  2
APPID
 70
     1
  0
APPID
  2
ACAD
 70
     0
  0
ENDTAB
  0
TABLE
  2
DIMSTYLE
 70
     1
  0
DIMSTYLE
  2
STANDARD
 70
     0
  3

  4

  5

  6

  7

 40
1.0
 41
0.18
 42
0.0625
 43
0.38
 44
0.18
 45
0.0
 46
0.0
 47
0.0
 48
0.0
140
0.18
141
0.09
142
0.0
143
25.399999999999999
144
1.0
145
0.0
146
1.0
147
0.09
 71
     0
 72
     0
 73
     1
 74
     1
 75
     0
 76
     0
 77
     0
 78
     0
170
     0
171
     2
172
     0
173
     0
174
     0
175
     0
176
     0
177
     0
178
     0
  0
ENDTAB
  0
ENDSEC
  0
SECTION
  2
BLOCKS
  0
BLOCK
  8
0
  2
$MODEL_SPACE
 70
     0
 10
0.0
 20
0.0
 30
0.0
  3
$MODEL_SPACE
  1

  0
ENDBLK
  5
20
  8
0
  0
BLOCK
 67
     1
  8
0
  2
$PAPER_SPACE
 70
     0
 10
0.0
 20
0.0
 30
0.0
  3
$PAPER_SPACE
  1

  0
ENDBLK
  5
1C
 67
     1
  8
0
  0
ENDSEC
  0
SECTION
  2
ENTITIES
  0
POINT
  5
33
  8
1
  6
CENTER
 62
     7
 10
572.63801854703775
 20
-298.22744398354462
 30
0.0
  0
POINT
  5
34
  8
1
  6
CENTER
 62
     7
 10
550.03149231174109
 20
-317.94913183151613
 30
0.0
  0
POINT
  5
35
  8
1
  6
CENTER
 62
     7
 10
548.06927819653845
 20
-315.384813650235
 30
0.0
  0
LINE
  5
36
  8
1
 62
     7
 10
484.89967478883301
 20
-239.18137679648601
 30
0.0
 11
484.89967478883301
 21
-254.18137679648601
 31
0.0
  0
LINE
  5
37
  8
1
 62
     7
 10
441.89967478883278
 20
-253.68137679648601
 30
0.0
 11
437.5901997695218
 21
-253.68137679648601
 31
0.0
  0
LINE
  5
38
  8
1
 62
     7
 10
441.89967478883278
 20
-259.68137679648601
 30
0.0
 11
441.89967478883278
 21
-253.68137679648601
 31
0.0
  0
LINE
  5
39
  8
1
 62
     7
 10
441.89967478883278
 20
-259.68137679648601
 30
0.0
 11
443.89967478883278
 21
-259.68137679648601
 31
0.0
  0
LINE
  5
3A
  8
1
 62
     7
 10
441.0017590271766
 20
-257.68137679648601
 30
0.0
 11
441.89967478883278
 21
-257.68137679648601
 31
0.0
  0
LINE
  5
3B
  8
1
 62
     7
 10
441.0017590271766
 20
-311.68137679648601
 30
0.0
 11
443.89967478883301
 21
-311.68137679648601
 31
0.0
  0
LINE
  5
3C
  8
1
 62
     7
 10
443.89967478883278
 20
-257.18137679648601
 30
0.0
 11
443.89967478883301
 21
-312.18137679648601
 31
0.0
  0
LINE
  5
3D
  8
1
 62
     7
 10
445.27467478883301
 20
-309.88450179648601
 30
0.0
 11
445.27467478883301
 21
-301.97825179648601
 31
0.0
  0
LINE
  5
3E
  8
1
 62
     7
 10
455.52467478883301
 20
-309.88450179648601
 30
0.0
 11
455.52467478883301
 21
-301.97825179648601
 31
0.0
  0
LINE
  5
3F
  8
1
 62
     7
 10
452.37510986749282
 20
-309.11887679648589
 30
0.0
 11
456.89967478883301
 21
-309.11887679648589
 31
0.0
  0
LINE
  5
40
  8
1
 62
     7
 10
448.42423971017308
 20
-309.11887679648589
 30
0.0
 11
443.89967478883301
 21
-309.11887679648589
 31
0.0
  0
LINE
  5
41
  8
1
 62
     7
 10
452.37510986749282
 20
-302.74387679648601
 30
0.0
 11
456.89967478883301
 21
-302.74387679648601
 31
0.0
  0
LINE
  5
42
  8
1
 62
     7
 10
448.42423971017308
 20
-302.74387679648601
 30
0.0
 11
443.89967478883301
 21
-302.74387679648601
 31
0.0
  0
LINE
  5
43
  8
1
 62
     7
 10
445.27467478883301
 20
-259.47825179648601
 30
0.0
 11
445.27467478883301
 21
-267.38450179648601
 31
0.0
  0
LINE
  5
44
  8
1
 62
     7
 10
455.52467478883301
 20
-259.47825179648601
 30
0.0
 11
455.52467478883301
 21
-267.38450179648601
 31
0.0
  0
LINE
  5
45
  8
1
 62
     7
 10
452.37510986749282
 20
-260.24387679648589
 30
0.0
 11
456.89967478883301
 21
-260.24387679648589
 31
0.0
  0
LINE
  5
46
  8
1
 62
     7
 10
448.42423971017308
 20
-260.24387679648589
 30
0.0
 11
443.89967478883301
 21
-260.24387679648589
 31
0.0
  0
LINE
  5
47
  8
1
 62
     7
 10
452.37510986749282
 20
-266.61887679648601
 30
0.0
 11
456.89967478883301
 21
-266.61887679648601
 31
0.0
  0
LINE
  5
48
  8
1
 62
     7
 10
448.42423971017308
 20
-266.61887679648601
 30
0.0
 11
443.89967478883301
 21
-266.61887679648601
 31
0.0
  0
LINE
  5
49
  8
1
 62
     7
 10
490.89967478883301
 20
-274.68137679648601
 30
0.0
 11
443.90608035239143
 21
-274.68137679648601
 31
0.0
  0
LINE
  5
4A
  8
1
 62
     7
 10
456.89967478883301
 20
-299.68137679648601
 30
0.0
 11
443.89967478883301
 21
-299.68137679648601
 31
0.0
  0
LINE
  5
4B
  8
1
 62
     7
 10
443.89967478883301
 20
-312.18137679648601
 30
0.0
 11
456.89967478883301
 21
-312.18137679648601
 31
0.0
  0
LINE
  5
4C
  8
1
 62
     7
 10
456.89967478883301
 20
-299.68137679648601
 30
0.0
 11
456.89967478883301
 21
-313.68137679648601
 31
0.0
  0
LINE
  5
4D
  8
1
 62
     7
 10
448.88455598472331
 20
-206.68546892033291
 30
0.0
 11
448.88455598472331
 21
-204.49025195525601
 31
0.0
  0
LINE
  5
4E
  8
1
 62
     7
 10
448.51212607202751
 20
-206.68546892033291
 30
0.0
 11
448.51212607202751
 21
-204.49025195525601
 31
0.0
  0
LINE
  5
4F
  8
1
 62
     7
 10
447.51479359294268
 20
-204.49025195525601
 30
0.0
 11
447.51479359294268
 21
-206.68546892033291
 31
0.0
  0
LINE
  5
50
  8
1
 62
     7
 10
447.88722350563842
 20
-204.49025195525601
 30
0.0
 11
447.88722350563842
 21
-206.68546892033291
 31
0.0
  0
LINE
  5
51
  8
1
 62
     7
 10
446.94967478883302
 20
-206.68546892033291
 30
0.0
 11
449.44967478883302
 21
-206.68546892033291
 31
0.0
  0
LINE
  5
52
  8
1
 62
     7
 10
449.44967478883302
 20
-206.68546892033291
 30
0.0
 11
449.44967478883302
 21
-231.33137679648601
 31
0.0
  0
LINE
  5
53
  8
1
 62
     7
 10
446.94967478883302
 20
-206.68546892033291
 30
0.0
 11
446.94967478883302
 21
-231.33137679648601
 31
0.0
  0
LINE
  5
54
  8
1
 62
     7
 10
471.99967478883298
 20
-261.18137679648601
 30
0.0
 11
473.89967478883301
 21
-261.18137679648601
 31
0.0
  0
LINE
  5
55
  8
1
 62
     7
 10
443.90608035239143
 20
-294.68137679648601
 30
0.0
 11
490.90608035239148
 21
-294.68137679648601
 31
0.0
  0
LINE
  5
56
  8
1
 62
     7
 10
473.89967478883301
 20
-261.18137679648601
 30
0.0
 11
473.89967478883301
 21
-308.18137679648601
 31
0.0
  0
LINE
  5
57
  8
1
 62
     7
 10
443.89967478883301
 20
-271.88137679648582
 30
0.0
 11
473.89967478883301
 21
-271.88137679648582
 31
0.0
  0
LINE
  5
58
  8
1
 62
     7
 10
458.3996747888329
 20
-306.61837679648602
 30
0.0
 11
458.3996747888329
 21
-313.68137679648601
 31
0.0
  0
LINE
  5
59
  8
1
 62
     7
 10
458.3996747888329
 20
-255.68137679648601
 30
0.0
 11
456.89967478883301
 21
-255.68137679648601
 31
0.0
  0
LINE
  5
5A
  8
1
 62
     7
 10
458.3996747888329
 20
-255.68137679648601
 30
0.0
 11
458.3996747888329
 21
-261.37037679648591
 31
0.0
  0
LINE
  5
5B
  8
1
 62
     7
 10
456.89967478883301
 20
-307.18137679648601
 30
0.0
 11
458.3996747888329
 21
-307.18137679648601
 31
0.0
  0
LINE
  5
5C
  8
1
 62
     7
 10
456.89967478883301
 20
-260.78137679648597
 30
0.0
 11
458.3996747888329
 21
-260.78137679648597
 31
0.0
  0
LINE
  5
5D
  8
1
 62
     7
 10
456.89967478883301
 20
-313.68137679648601
 30
0.0
 11
458.3996747888329
 21
-313.68137679648601
 31
0.0
  0
LINE
  5
5E
  8
1
 62
     7
 10
435.39967478883301
 20
-327.18137679648601
 30
0.0
 11
435.39967478883301
 21
-213.68137679648601
 31
0.0
  0
LINE
  5
5F
  8
1
 62
     7
 10
465.89967478883301
 20
-312.18137679648601
 30
0.0
 11
465.89967478883301
 21
-338.03137679648609
 31
0.0
  0
LINE
  5
60
  8
1
 62
     7
 10
458.8996747888329
 20
-305.18137679648601
 30
0.0
 11
456.89967478883301
 21
-305.18137679648601
 31
0.0
  0
LINE
  5
61
  8
1
 62
     7
 10
468.39967478883301
 20
-311.68137679648601
 30
0.0
 11
458.8996747888329
 21
-311.68137679648601
 31
0.0
  0
LINE
  5
62
  8
1
 62
     7
 10
458.8996747888329
 20
-338.53137679648609
 30
0.0
 11
468.39967478883301
 21
-338.53137679648609
 31
0.0
  0
LINE
  5
63
  8
1
 62
     7
 10
458.8996747888329
 20
-341.18137679648601
 30
0.0
 11
458.8996747888329
 21
-338.53137679648609
 31
0.0
  0
LINE
  5
64
  8
1
 62
     7
 10
471.06762398126409
 20
-341.18137679648601
 30
0.0
 11
458.8996747888329
 21
-341.18137679648601
 31
0.0
  0
LINE
  5
65
  8
1
 62
     7
 10
472.79967478883299
 20
-338.18137679648601
 30
0.0
 11
471.06762398126409
 21
-341.18137679648601
 31
0.0
  0
LINE
  5
66
  8
1
 62
     7
 10
474.29967478883287
 20
-338.18137679648612
 30
0.0
 11
472.79967478883299
 21
-338.18137679648601
 31
0.0
  0
LINE
  5
67
  8
1
 62
     7
 10
471.99967478883298
 20
-311.68137679648601
 30
0.0
 11
474.29967478883287
 21
-311.68137679648601
 31
0.0
  0
LINE
  5
68
  8
1
 62
     7
 10
471.99967478883298
 20
-308.18137679648601
 30
0.0
 11
471.99967478883298
 21
-311.68137679648601
 31
0.0
  0
LINE
  5
69
  8
1
 62
     7
 10
473.89967478883301
 20
-308.18137679648601
 30
0.0
 11
471.99967478883298
 21
-308.18137679648601
 31
0.0
  0
LINE
  5
6A
  8
1
 62
     7
 10
471.99967478883298
 20
-257.68137679648601
 30
0.0
 11
471.99967478883298
 21
-261.18137679648601
 31
0.0
  0
LINE
  5
6B
  8
1
 62
     7
 10
474.29967478883287
 20
-257.68137679648601
 30
0.0
 11
471.99967478883298
 21
-257.68137679648601
 31
0.0
  0
LINE
  5
6C
  8
1
 62
     7
 10
474.29967478883287
 20
-231.18137679648601
 30
0.0
 11
474.29967478883287
 21
-269.18137679648589
 31
0.0
  0
LINE
  5
6D
  8
1
 62
     7
 10
472.79967478883299
 20
-231.18137679648601
 30
0.0
 11
474.29967478883287
 21
-231.18137679648601
 31
0.0
  0
LINE
  5
6E
  8
1
 62
     7
 10
471.06762398126409
 20
-228.18137679648601
 30
0.0
 11
472.79967478883299
 21
-231.18137679648601
 31
0.0
  0
LINE
  5
6F
  8
1
 62
     7
 10
458.8996747888329
 20
-228.18137679648601
 30
0.0
 11
471.06762398126409
 21
-228.18137679648601
 31
0.0
  0
LINE
  5
70
  8
1
 62
     7
 10
468.39967478883301
 20
-230.8313767964861
 30
0.0
 11
458.8996747888329
 21
-230.8313767964861
 31
0.0
  0
LINE
  5
71
  8
1
 62
     7
 10
458.8996747888329
 20
-257.68137679648601
 30
0.0
 11
468.39967478883301
 21
-257.68137679648601
 31
0.0
  0
LINE
  5
72
  8
1
 62
     7
 10
458.8996747888329
 20
-264.18137679648601
 30
0.0
 11
458.8996747888329
 21
-257.68137679648601
 31
0.0
  0
LINE
  5
73
  8
1
 62
     7
 10
456.89967478883301
 20
-264.18137679648601
 30
0.0
 11
458.8996747888329
 21
-264.18137679648601
 31
0.0
  0
LINE
  5
74
  8
1
 62
     7
 10
435.39967478883301
 20
-327.18137679648601
 30
0.0
 11
437.3996747888329
 21
-327.18137679648601
 31
0.0
  0
LINE
  5
75
  8
1
 62
     7
 10
435.39967478883301
 20
-309.18137679648601
 30
0.0
 11
437.3996747888329
 21
-309.18137679648601
 31
0.0
  0
LINE
  5
76
  8
1
 62
     7
 10
435.39967478883301
 20
-260.18137679648601
 30
0.0
 11
437.3996747888329
 21
-260.18137679648601
 31
0.0
  0
LINE
  5
77
  8
1
  6
DASHDOT
 62
     3
 10
434.34740631193279
 20
-219.68137679648601
 30
0.0
 11
438.44813578865637
 21
-219.68137679648601
 31
0.0
  0
LINE
  5
78
  8
1
 62
     7
 10
437.3996747888329
 20
-213.68137679648601
 30
0.0
 11
435.39967478883301
 21
-213.68137679648601
 31
0.0
  0
LINE
  5
79
  8
1
 62
     7
 10
465.89967478883301
 20
-338.03137679648609
 30
0.0
 11
443.39967478883301
 21
-338.03137679648597
 31
0.0
  0
LINE
  5
7A
  8
1
 62
     7
 10
443.39967478883301
 20
-231.33137679648601
 30
0.0
 11
465.89967478883301
 21
-231.33137679648601
 31
0.0
  0
LINE
  5
7B
  8
1
 62
     7
 10
458.3996747888329
 20
-312.18137679648601
 30
0.0
 11
465.89967478883301
 21
-312.18137679648601
 31
0.0
  0
LINE
  5
7C
  8
1
 62
     7
 10
465.89967478883301
 20
-257.18137679648601
 30
0.0
 11
465.89967478883301
 21
-231.33137679648601
 31
0.0
  0
LINE
  5
7D
  8
1
 62
     7
 10
458.3996747888329
 20
-257.18137679648601
 30
0.0
 11
465.89967478883301
 21
-257.18137679648601
 31
0.0
  0
LINE
  5
7E
  8
1
  6
DASHDOT
 62
     3
 10
435.39967478883301
 20
-284.68137679648601
 30
0.0
 11
430.39967478883301
 21
-284.68137679648601
 31
0.0
  0
LINE
  5
7F
  8
1
 62
     7
 10
336.60055598472331
 20
-206.68546892033291
 30
0.0
 11
336.60055598472331
 21
-204.49025195525601
 31
0.0
  0
LINE
  5
80
  8
1
 62
     7
 10
336.22812607202729
 20
-206.68546892033291
 30
0.0
 11
336.22812607202729
 21
-204.49025195525601
 31
0.0
  0
LINE
  5
81
  8
1
 62
     7
 10
335.23079359294252
 20
-204.49025195525601
 30
0.0
 11
335.23079359294252
 21
-206.68546892033291
 31
0.0
  0
LINE
  5
82
  8
1
 62
     7
 10
335.60322350563848
 20
-204.49025195525601
 30
0.0
 11
335.60322350563848
 21
-206.68546892033291
 31
0.0
  0
LINE
  5
83
  8
1
 62
     7
 10
334.66567478883292
 20
-206.68546892033291
 30
0.0
 11
337.16567478883292
 21
-206.68546892033291
 31
0.0
  0
LINE
  5
84
  8
1
 62
     7
 10
337.16567478883292
 20
-206.68546892033291
 30
0.0
 11
337.16567478883292
 21
-231.33137679648601
 31
0.0
  0
LINE
  5
85
  8
1
 62
     7
 10
334.66567478883292
 20
-206.68546892033291
 30
0.0
 11
334.66567478883292
 21
-231.33137679648601
 31
0.0
  0
LINE
  5
86
  8
1
 62
     7
 10
358.7836239812641
 20
-341.18137679648601
 30
0.0
 11
346.61567478883302
 21
-341.18137679648601
 31
0.0
  0
LINE
  5
87
  8
1
 62
     7
 10
360.51567478883288
 20
-338.18137679648601
 30
0.0
 11
358.7836239812641
 21
-341.18137679648601
 31
0.0
  0
LINE
  5
88
  8
1
 62
     7
 10
362.015674788833
 20
-338.18137679648612
 30
0.0
 11
360.51567478883288
 21
-338.18137679648601
 31
0.0
  0
LINE
  5
89
  8
1
 62
     7
 10
362.015674788833
 20
-231.18137679648601
 30
0.0
 11
362.015674788833
 21
-338.18137679648612
 31
0.0
  0
LINE
  5
8A
  8
1
 62
     7
 10
360.51567478883288
 20
-231.18137679648601
 30
0.0
 11
362.015674788833
 21
-231.18137679648601
 31
0.0
  0
LINE
  5
8B
  8
1
 62
     7
 10
358.7836239812641
 20
-228.18137679648601
 30
0.0
 11
360.51567478883288
 21
-231.18137679648601
 31
0.0
  0
LINE
  5
8C
  8
1
 62
     7
 10
346.61567478883302
 20
-228.18137679648601
 30
0.0
 11
358.7836239812641
 21
-228.18137679648601
 31
0.0
  0
LINE
  5
8D
  8
1
 62
     7
 10
323.11567478883302
 20
-327.18137679648601
 30
0.0
 11
325.11567478883302
 21
-327.18137679648601
 31
0.0
  0
LINE
  5
8E
  8
1
 62
     7
 10
325.1276876791548
 20
-213.68137679648601
 30
0.0
 11
323.11567478883302
 21
-213.68137679648601
 31
0.0
  0
LINE
  5
8F
  8
1
 62
     7
 10
331.11567478883302
 20
-231.33137679648601
 30
0.0
 11
346.61567478883302
 21
-231.33137679648601
 31
0.0
  0
LINE
  5
90
  8
1
  6
DASHDOT
 62
     3
 10
323.11567478883302
 20
-284.68137679648601
 30
0.0
 11
318.11567478883302
 21
-284.68137679648601
 31
0.0
  0
LINE
  5
91
  8
1
 62
     7
 10
346.61567478883302
 20
-338.03137679648597
 30
0.0
 11
331.11567478883302
 21
-338.03137679648597
 31
0.0
  0
LINE
  5
92
  8
1
 62
     7
 10
360.51567478883288
 20
-338.18137679648601
 30
0.0
 11
360.51567478883288
 21
-231.18137679648601
 31
0.0
  0
LINE
  5
93
  8
1
 62
     7
 10
358.7836239812641
 20
-228.18137679648601
 30
0.0
 11
358.7836239812641
 21
-341.18137679648601
 31
0.0
  0
LINE
  5
94
  8
1
 62
     7
 10
346.61567478883302
 20
-228.18137679648601
 30
0.0
 11
346.61567478883302
 21
-341.18137679648601
 31
0.0
  0
LINE
  5
95
  8
1
 62
     7
 10
201.6428590029669
 20
-204.23345384589189
 30
0.0
 11
202.42125051228069
 21
-207.13071301080629
 31
0.0
  0
LINE
  5
96
  8
1
 62
     7
 10
201.1636672072494
 20
-204.36185290057409
 30
0.0
 11
201.92943328309721
 21
-207.2624950401898
 31
0.0
  0
LINE
  5
97
  8
1
 62
     7
 10
200.68447541153239
 20
-204.49025195525601
 30
0.0
 11
201.45655420411299
 21
-207.38920260752121
 31
0.0
  0
LINE
  5
98
  8
1
 62
     7
 10
199.27138316270691
 20
-207.97471742338979
 30
0.0
 11
198.4968604014058
 21
-205.07642163056971
 31
0.0
  0
LINE
  5
99
  8
1
 62
     7
 10
199.76320039189039
 20
-207.84293539400639
 30
0.0
 11
198.9760521971229
 21
-204.94802257588759
 31
0.0
  0
LINE
  5
9A
  8
1
 62
     7
 10
200.2360794708745
 20
-207.71622782667501
 30
0.0
 11
199.45524399284031
 21
-204.8196235212055
 31
0.0
  0
LINE
  5
9B
  8
1
 62
     7
 10
198.431502271771
 20
-208.19976282985439
 30
0.0
 11
203.2611314032165
 21
-206.90566760434169
 31
0.0
  0
LINE
  5
9C
  8
1
 62
     7
 10
205.30523757165491
 20
-233.85289220680059
 30
0.0
 11
198.431502271771
 21
-208.19976282985439
 31
0.0
  0
LINE
  5
9D
  8
1
 62
     7
 10
210.13486670310019
 20
-232.55879698128811
 30
0.0
 11
203.2611314032165
 21
-206.90566760434169
 31
0.0
  0
LINE
  5
9E
  8
1
  6
DASHDOT
 62
     3
 10
227.38523832090701
 20
-284.68137679648601
 30
0.0
 11
215.64052052106149
 21
-284.68137679648601
 31
0.0
  0
LINE
  5
9F
  8
1
  6
DASHDOT
 62
     3
 10
221.51287942098429
 20
-290.55373569640881
 30
0.0
 11
221.51287942098429
 21
-278.8090178965632
 31
0.0
  0
LINE
  5
A0
  8
1
 62
     7
 10
207.70488336476461
 20
-233.14923396396421
 30
0.0
 11
200.84631683749399
 21
-207.55271521709801
 31
0.0
  0
LINE
  5
A1
  8
1
 62
     7
 10
213.51287942098429
 20
-215.68137679648601
 30
0.0
 11
213.51287942098429
 21
-236.78304697174161
 31
0.0
  0
LINE
  5
A2
  8
1
 62
     7
 10
215.51287942098429
 20
-213.68137679648601
 30
0.0
 11
227.51287942098409
 21
-213.68137679648601
 31
0.0
  0
LINE
  5
A3
  8
1
 62
     7
 10
229.51287942098409
 20
-215.68137679648601
 30
0.0
 11
229.51287942098409
 21
-236.78304697174161
 31
0.0
  0
LINE
  5
A4
  8
1
  6
DASHDOT
 62
     3
 10
225.63262154049519
 20
-219.68137679648601
 30
0.0
 11
217.39313730147319
 21
-219.68137679648601
 31
0.0
  0
LINE
  5
A5
  8
1
  6
DASHDOT
 62
     3
 10
221.51287942098429
 20
-215.56163467697499
 30
0.0
 11
221.51287942098429
 21
-223.8011189159968
 31
0.0
  0
LINE
  5
A6
  8
1
  6
DASHDOT
 62
     3
 10
321.63436306288457
 20
-219.68137679648601
 30
0.0
 11
327.20898590244661
 21
-219.68137679648601
 31
0.0
  0
LINE
  5
A7
  8
1
 62
     7
 10
468.39967478883301
 20
-257.68137679648601
 30
0.0
 11
468.39967478883301
 21
-230.8313767964861
 31
0.0
  0
LINE
  5
A8
  8
1
 62
     7
 10
458.8996747888329
 20
-230.8313767964861
 30
0.0
 11
458.8996747888329
 21
-228.18137679648601
 31
0.0
  0
LINE
  5
A9
  8
1
 62
     7
 10
458.8996747888329
 20
-311.68137679648601
 30
0.0
 11
458.8996747888329
 21
-305.18137679648601
 31
0.0
  0
LINE
  5
AA
  8
1
 62
     7
 10
468.39967478883301
 20
-311.68137679648601
 30
0.0
 11
468.39967478883301
 21
-338.53137679648609
 31
0.0
  0
LINE
  5
AB
  8
1
 62
     7
 10
456.89967478883301
 20
-269.68137679648601
 30
0.0
 11
443.89967478883301
 21
-269.68137679648601
 31
0.0
  0
LINE
  5
AC
  8
1
 62
     7
 10
456.89967478883301
 20
-255.68137679648601
 30
0.0
 11
456.89967478883301
 21
-269.68137679648601
 31
0.0
  0
LINE
  5
AD
  8
1
 62
     7
 10
456.89967478883301
 20
-257.18137679648601
 30
0.0
 11
443.89967478883278
 21
-257.18137679648601
 31
0.0
  0
LINE
  5
AE
  8
1
 62
     7
 10
323.11567478883302
 20
-327.18137679648601
 30
0.0
 11
323.11567478883302
 21
-213.68137679648601
 31
0.0
  0
LINE
  5
AF
  8
1
 62
     7
 10
325.11567478883302
 20
-332.03137679648597
 30
0.0
 11
325.11567478883302
 21
-213.68137679648601
 31
0.0
  0
LINE
  5
B0
  8
1
 62
     7
 10
218.51287942098429
 20
-271.88137679648582
 30
0.0
 11
224.51287942098429
 21
-271.88137679648582
 31
0.0
  0
LINE
  5
B1
  8
1
 62
     7
 10
224.51287942098429
 20
-271.88137679648582
 30
0.0
 11
224.51287942098429
 21
-275.14198478231651
 31
0.0
  0
LINE
  5
B2
  8
1
 62
     7
 10
218.51287942098429
 20
-271.88137679648582
 30
0.0
 11
218.51287942098429
 21
-275.14198478231651
 31
0.0
  0
LINE
  5
B3
  8
1
 62
     7
 10
466.3996747888329
 20
-230.8313767964861
 30
0.0
 11
466.3996747888329
 21
-257.68137679648601
 31
0.0
  0
LINE
  5
B4
  8
1
 62
     7
 10
466.3996747888329
 20
-338.53137679648609
 30
0.0
 11
466.3996747888329
 21
-311.68137679648601
 31
0.0
  0
LINE
  5
B5
  8
1
 62
     7
 10
437.3996747888329
 20
-213.68137679648601
 30
0.0
 11
437.3996747888329
 21
-332.03137679648597
 31
0.0
  0
LINE
  5
B6
  8
1
 62
     7
 10
435.39967478883301
 20
-216.43137679648601
 30
0.0
 11
437.3996747888329
 21
-216.43137679648601
 31
0.0
  0
LINE
  5
B7
  8
1
 62
     7
 10
435.39967478883301
 20
-222.93137679648601
 30
0.0
 11
437.3996747888329
 21
-222.93137679648601
 31
0.0
  0
LINE
  5
B8
  8
1
 62
     7
 10
483.09967478883289
 20
-235.68137679648589
 30
0.0
 11
483.09967478883289
 21
-269.18137679648589
 31
0.0
  0
LINE
  5
B9
  8
1
 62
     7
 10
484.89967478883301
 20
-254.18137679648601
 30
0.0
 11
483.4996747888332
 21
-254.18137679648601
 31
0.0
  0
LINE
  5
BA
  8
1
 62
     7
 10
484.89967478883301
 20
-239.18137679648601
 30
0.0
 11
483.4996747888332
 21
-239.18137679648601
 31
0.0
  0
LINE
  5
BB
  8
1
 62
     7
 10
483.09967478883289
 20
-317.18137679648589
 30
0.0
 11
481.09967478883311
 21
-317.18137679648589
 31
0.0
  0
LINE
  5
BC
  8
1
 62
     7
 10
481.09967478883311
 20
-252.18137679648601
 30
0.0
 11
483.09967478883289
 21
-252.18137679648601
 31
0.0
  0
LINE
  5
BD
  8
1
 62
     7
 10
481.09967478883311
 20
-235.68137679648589
 30
0.0
 11
481.09967478883311
 21
-269.18137679648589
 31
0.0
  0
LINE
  5
BE
  8
1
 62
     7
 10
481.09967478883311
 20
-235.68137679648589
 30
0.0
 11
483.09967478883289
 21
-235.68137679648589
 31
0.0
  0
LINE
  5
BF
  8
1
 62
     7
 10
480.49967478883309
 20
-269.18137679648589
 30
0.0
 11
480.49967478883309
 21
-237.68137679648589
 31
0.0
  0
LINE
  5
C0
  8
1
 62
     7
 10
480.49967478883309
 20
-254.68137679648589
 30
0.0
 11
481.09967478883311
 21
-254.68137679648589
 31
0.0
  0
LINE
  5
C1
  8
1
 62
     7
 10
498.89967478883301
 20
-312.43137679648601
 30
0.0
 11
484.89967478883301
 21
-312.43137679648601
 31
0.0
  0
LINE
  5
C2
  8
1
 62
     7
 10
484.89967478883301
 20
-306.93137679648601
 30
0.0
 11
498.89967478883301
 21
-306.93137679648601
 31
0.0
  0
LINE
  5
C3
  8
1
 62
     7
 10
498.39967478883301
 20
-314.68137679648601
 30
0.0
 11
498.89967478883301
 21
-314.18137679648601
 31
0.0
  0
LINE
  5
C4
  8
1
 62
     7
 10
484.89967478883301
 20
-314.68137679648601
 30
0.0
 11
484.89967478883301
 21
-298.18137679648601
 31
0.0
  0
LINE
  5
C5
  8
1
 62
     7
 10
495.3996747888329
 20
-322.12927096389831
 30
0.0
 11
495.3996747888329
 21
-317.68137679648601
 31
0.0
  0
LINE
  5
C6
  8
1
 62
     7
 10
489.89967478883301
 20
-324.12927096389831
 30
0.0
 11
493.39967478883301
 21
-324.12927096389831
 31
0.0
  0
LINE
  5
C7
  8
1
 62
     7
 10
487.8996747888329
 20
-317.68137679648601
 30
0.0
 11
487.8996747888329
 21
-322.12927096389831
 31
0.0
  0
LINE
  5
C8
  8
1
 62
     7
 10
478.39967478883301
 20
-300.18137679648589
 30
0.0
 11
478.39967478883301
 21
-338.68137679648601
 31
0.0
  0
LINE
  5
C9
  8
1
 62
     7
 10
481.09967478883311
 20
-326.68137679648601
 30
0.0
 11
483.09967478883289
 21
-326.68137679648601
 31
0.0
  0
LINE
  5
CA
  8
1
 62
     7
 10
490.89967478883301
 20
-298.18137679648578
 30
0.0
 11
473.89967478883301
 21
-298.18137679648601
 31
0.0
  0
LINE
  5
CB
  8
1
  6
DASHDOT
 62
     3
 10
499.64417400146891
 20
-309.68137679648601
 30
0.0
 11
483.70467277669792
 21
-309.68137679648601
 31
0.0
  0
LINE
  5
CC
  8
1
 62
     7
 10
482.09967478883311
 20
-336.68137679648601
 30
0.0
 11
479.69967478883291
 21
-336.68137679648601
 31
0.0
  0
LINE
  5
CD
  8
1
 62
     7
 10
474.69967478883302
 20
-338.68137679648601
 30
0.0
 11
479.69967478883291
 21
-338.68137679648601
 31
0.0
  0
LINE
  5
CE
  8
1
 62
     7
 10
479.69967478883291
 20
-311.18137679648601
 30
0.0
 11
474.69967478883302
 21
-311.18137679648601
 31
0.0
  0
LINE
  5
CF
  8
1
 62
     7
 10
490.89967478883301
 20
-305.68137679648578
 30
0.0
 11
490.89967478883301
 21
-263.68137679648601
 31
0.0
  0
LINE
  5
D0
  8
1
 62
     7
 10
498.89967478883301
 20
-305.68137679648578
 30
0.0
 11
490.89967478883301
 21
-305.68137679648578
 31
0.0
  0
LINE
  5
D1
  8
1
 62
     7
 10
484.89967478883301
 20
-302.18137679648601
 30
0.0
 11
490.89967478883312
 21
-302.18137679648601
 31
0.0
  0
LINE
  5
D2
  8
1
 62
     7
 10
484.89967478883301
 20
-230.68137679648601
 30
0.0
 11
498.89967478883301
 21
-230.68137679648609
 31
0.0
  0
LINE
  5
D3
  8
1
 62
     7
 10
483.4996747888332
 20
-254.18137679648601
 30
0.0
 11
483.4996747888332
 21
-239.18137679648601
 31
0.0
  0
LINE
  5
D4
  8
1
 62
     7
 10
484.89967478883301
 20
-230.68137679648601
 30
0.0
 11
484.89967478883301
 21
-239.18137679648601
 31
0.0
  0
LINE
  5
D5
  8
1
 62
     7
 10
479.69967478883291
 20
-255.68137679648601
 30
0.0
 11
480.49967478883309
 21
-255.68137679648601
 31
0.0
  0
LINE
  5
D6
  8
1
 62
     7
 10
479.69967478883291
 20
-237.68137679648589
 30
0.0
 11
481.09967478883311
 21
-237.68137679648589
 31
0.0
  0
LINE
  5
D7
  8
1
 62
     7
 10
478.39967478883301
 20
-230.68137679648601
 30
0.0
 11
478.39967478883301
 21
-269.18137679648589
 31
0.0
  0
LINE
  5
D8
  8
1
 62
     7
 10
473.89967478883301
 20
-271.18137679648589
 30
0.0
 11
490.89967478883301
 21
-271.18137679648589
 31
0.0
  0
LINE
  5
D9
  8
1
 62
     7
 10
474.69967478883279
 20
-230.68137679648601
 30
0.0
 11
474.69967478883279
 21
-269.18137679648589
 31
0.0
  0
LINE
  5
DA
  8
1
 62
     7
 10
490.89967478883301
 20
-263.68137679648601
 30
0.0
 11
498.89967478883301
 21
-263.68137679648601
 31
0.0
  0
LINE
  5
DB
  8
1
 62
     7
 10
490.89967478883301
 20
-267.18137679648589
 30
0.0
 11
484.89967478883301
 21
-267.18137679648589
 31
0.0
  0
LINE
  5
DC
  8
1
 62
     7
 10
490.89967478883301
 20
-305.68137679648578
 30
0.0
 11
490.89967478883301
 21
-297.68882028852181
 31
0.0
  0
LINE
  5
DD
  8
1
 62
     7
 10
478.8996747888329
 20
-230.68137679648609
 30
0.0
 11
478.8996747888329
 21
-269.18137679648589
 31
0.0
  0
LINE
  5
DE
  8
1
 62
     7
 10
474.69967478883279
 20
-230.68137679648601
 30
0.0
 11
479.69967478883279
 21
-230.68137679648601
 31
0.0
  0
LINE
  5
DF
  8
1
 62
     7
 10
474.69967478883279
 20
-258.18137679648601
 30
0.0
 11
479.69967478883279
 21
-258.18137679648601
 31
0.0
  0
LINE
  5
E0
  8
1
 62
     7
 10
483.09967478883289
 20
-240.68137679648601
 30
0.0
 11
483.4996747888332
 21
-240.68137679648601
 31
0.0
  0
LINE
  5
E1
  8
1
 62
     7
 10
483.09967478883289
 20
-252.68137679648589
 30
0.0
 11
483.4996747888332
 21
-252.68137679648589
 31
0.0
  0
LINE
  5
E2
  8
1
 62
     7
 10
603.46409991689416
 20
-229.5129712748458
 30
0.0
 11
611.32349238018344
 21
-200.181319285227
 31
0.0
  0
LINE
  5
E3
  8
1
 62
     7
 10
613.73830694590617
 20
-200.8283668979833
 30
0.0
 11
605.8932367089883
 21
-230.106567611157
 31
0.0
  0
LINE
  5
E4
  8
1
 62
     7
 10
616.15312151162857
 20
-201.47541451073951
 30
0.0
 11
608.2937290483394
 21
-230.80706650035839
 31
0.0
  0
LINE
  5
E5
  8
1
  6
DASHDOT
 62
     3
 10
591.26996066068318
 20
-218.08578694563241
 30
0.0
 11
591.26996066068318
 21
-221.30722761936161
 31
0.0
  0
LINE
  5
E6
  8
1
  6
DASHDOT
 62
     3
 10
589.77833657767258
 20
-219.68137679648601
 30
0.0
 11
592.85575563569557
 21
-219.68137679648601
 31
0.0
  0
LINE
  5
E7
  8
1
  6
DASHDOT
 62
     3
 10
612.26996066068318
 20
-284.68137679648601
 30
0.0
 11
621.25921757075173
 21
-284.68137679648601
 31
0.0
  0
LINE
  5
E8
  8
1
  6
DASHDOT
 62
     3
 10
561.60591218456773
 20
-284.68137679648601
 30
0.0
 11
570.26996066068318
 21
-284.68137679648601
 31
0.0
  0
LINE
  5
E9
  8
1
  6
DASHDOT
 62
     3
 10
591.26996066068318
 20
-279.60419539774392
 30
0.0
 11
591.26996066068318
 21
-289.79727802606823
 31
0.0
  0
LINE
  5
EA
  8
1
  6
DASHDOT
 62
     3
 10
587.14391828642681
 20
-284.68137679648601
 30
0.0
 11
595.70652797840876
 21
-284.68137679648601
 31
0.0
  0
LINE
  5
EB
  8
1
 62
     7
 10
599.26996066068318
 20
-215.68137679648601
 30
0.0
 11
599.26996066068318
 21
-228.7506160292659
 31
0.0
  0
LINE
  5
EC
  8
1
 62
     7
 10
585.26996066068307
 20
-213.68137679648601
 30
0.0
 11
597.26996066068307
 21
-213.68137679648601
 31
0.0
  0
LINE
  5
ED
  8
1
  6
DASHDOT
 62
     3
 10
602.11278751184057
 20
-303.46170380036273
 30
0.0
 11
605.55224145102409
 21
-309.41901277332181
 31
0.0
  0
LINE
  5
EE
  8
1
  6
DASHDOT
 62
     3
 10
580.4271338095258
 20
-303.46170380036273
 30
0.0
 11
576.98767987034171
 21
-309.41901277332181
 31
0.0
  0
LINE
  5
EF
  8
1
  6
DASHDOT
 62
     3
 10
605.80838427425022
 20
-259.50008843582867
 30
0.0
 11
601.96677232996217
 21
-266.15395550629898
 31
0.0
  0
LINE
  5
F0
  8
1
  6
DASHDOT
 62
     3
 10
580.4271338095258
 20
-265.90104979260929
 30
0.0
 11
576.98767987034205
 21
-259.94374081965009
 31
0.0
  0
LINE
  5
F1
  8
1
 62
     7
 10
583.26996066068318
 20
-228.7506160292659
 30
0.0
 11
583.26996066068318
 21
-215.68137679648601
 31
0.0
  0
LINE
  5
F2
  8
1
 62
     7
 10
641.76485183502257
 20
-295.32727161101548
 30
0.0
 11
607.29779089245346
 21
-235.62857087091231
 31
0.0
  0
LINE
  5
F3
  8
1
 62
     7
 10
575.24213042891279
 20
-235.62857087091231
 30
0.0
 11
540.77506948634334
 21
-295.32727161101548
 31
0.0
  0
LINE
  5
F4
  8
1
 62
     7
 10
556.80289971811339
 20
-323.08828790753012
 30
0.0
 11
625.73702160325263
 21
-323.08828790753012
 31
0.0
  0
LINE
  5
F5
  8
1
 62
     7
 10
616.50881958893092
 20
-326.68137679648601
 30
0.0
 11
566.03110173243499
 21
-326.68137679648601
 31
0.0
  0
LINE
  5
F6
  8
1
 62
     7
 10
615.02359815550551
 20
-241.82388380209139
 30
0.0
 11
640.26245708375336
 21
-285.53886979088031
 31
0.0
  0
LINE
  5
F7
  8
1
 62
     7
 10
542.27746423761255
 20
-285.53886979088031
 30
0.0
 11
567.51632316586063
 21
-241.82388380209139
 31
0.0
  0
LINE
  5
F8
  8
1
 62
     7
 10
616.15312151162857
 20
-201.47541451073951
 30
0.0
 11
611.32349238018344
 21
-200.181319285227
 31
0.0
  0
LINE
  5
F9
  8
1
 62
     7
 10
614.462751315623
 20
-201.02248118181009
 30
0.0
 11
615.75684654113559
 21
-196.19285205036491
 31
0.0
  0
LINE
  5
FA
  8
1
 62
     7
 10
614.65593648088065
 20
-201.07424499083069
 30
0.0
 11
615.95003170639325
 21
-196.24461585938539
 31
0.0
  0
LINE
  5
FB
  8
1
 62
     7
 10
614.84912164613854
 20
-201.12600879985121
 30
0.0
 11
616.14321687165113
 21
-196.2963796684059
 31
0.0
  0
LINE
  5
FC
  8
1
 62
     7
 10
615.0423068113962
 20
-201.17777260887169
 30
0.0
 11
616.33640203690891
 21
-196.34814347742639
 31
0.0
  0
LINE
  5
FD
  8
1
 62
     7
 10
615.23549197665432
 20
-201.22953641789209
 30
0.0
 11
616.52958720216668
 21
-196.3999072864469
 31
0.0
  0
LINE
  5
FE
  8
1
 62
     7
 10
612.24112191515803
 20
-200.42719737807451
 30
0.0
 11
613.53521714067062
 21
-195.59756824662909
 31
0.0
  0
LINE
  5
FF
  8
1
 62
     7
 10
612.43430708041558
 20
-200.478961187095
 30
0.0
 11
613.7284023059284
 21
-195.64933205564961
 31
0.0
  0
LINE
  5
100
  8
1
 62
     7
 10
612.62749224567358
 20
-200.53072499611551
 30
0.0
 11
613.92158747118617
 21
-195.70109586467009
 31
0.0
  0
LINE
  5
101
  8
1
 62
     7
 10
612.82067741093135
 20
-200.58248880513591
 30
0.0
 11
614.11477263644383
 21
-195.75285967369061
 31
0.0
  0
LINE
  5
102
  8
1
 62
     7
 10
613.01386257618935
 20
-200.63425261415651
 30
0.0
 11
614.30795780170172
 21
-195.80462348271109
 31
0.0
  0
LINE
  5
103
  8
1
 62
     7
 10
498.89967478883301
 20
-230.68137679648609
 30
0.0
 11
498.89967478883301
 21
-314.18137679648601
 31
0.0
  0
LINE
  5
104
  8
1
  6
DASHDOT
 62
     3
 10
498.89967478883301
 20
-284.68137679648601
 30
0.0
 11
505.89967478883301
 21
-284.68137679648601
 31
0.0
  0
LINE
  5
105
  8
1
 62
     7
 10
479.69967478883279
 20
-230.68137679648601
 30
0.0
 11
479.69967478883291
 21
-269.18137679648589
 31
0.0
  0
LINE
  5
106
  8
1
 62
     7
 10
372.61567478883302
 20
-254.18137679648601
 30
0.0
 11
371.2156747888331
 21
-254.18137679648601
 31
0.0
  0
LINE
  5
107
  8
1
 62
     7
 10
372.61567478883302
 20
-239.18137679648601
 30
0.0
 11
371.2156747888331
 21
-239.18137679648601
 31
0.0
  0
LINE
  5
108
  8
1
 62
     7
 10
368.81567478883312
 20
-235.68137679648589
 30
0.0
 11
368.81567478883312
 21
-326.68137679648601
 31
0.0
  0
LINE
  5
109
  8
1
 62
     7
 10
370.81567478883301
 20
-235.68137679648589
 30
0.0
 11
370.81567478883301
 21
-326.68137679648601
 31
0.0
  0
LINE
  5
10A
  8
1
 62
     7
 10
371.2156747888331
 20
-239.18137679648601
 30
0.0
 11
371.2156747888331
 21
-254.18137679648601
 31
0.0
  0
LINE
  5
10B
  8
1
 62
     7
 10
368.81567478883312
 20
-235.68137679648589
 30
0.0
 11
370.81567478883301
 21
-235.68137679648589
 31
0.0
  0
LINE
  5
10C
  8
1
 62
     7
 10
368.2156747888331
 20
-322.68100843046437
 30
0.0
 11
368.2156747888331
 21
-237.68137679648589
 31
0.0
  0
LINE
  5
10D
  8
1
 62
     7
 10
368.2156747888331
 20
-254.68137679648589
 30
0.0
 11
368.81567478883312
 21
-254.68137679648589
 31
0.0
  0
LINE
  5
10E
  8
1
 62
     7
 10
386.11567478883302
 20
-314.68137679648601
 30
0.0
 11
386.61567478883302
 21
-314.18137679648601
 31
0.0
  0
LINE
  5
10F
  8
1
 62
     7
 10
372.61567478883302
 20
-314.68137679648601
 30
0.0
 11
372.61567478883302
 21
-230.68137679648601
 31
0.0
  0
LINE
  5
110
  8
1
 62
     7
 10
383.11567478883302
 20
-322.12927096389848
 30
0.0
 11
383.11567478883302
 21
-317.68137679648601
 31
0.0
  0
LINE
  5
111
  8
1
 62
     7
 10
377.61567478883302
 20
-324.12927096389848
 30
0.0
 11
381.11567478883302
 21
-324.12927096389848
 31
0.0
  0
LINE
  5
112
  8
1
 62
     7
 10
375.61567478883302
 20
-317.68137679648601
 30
0.0
 11
375.61567478883302
 21
-322.12927096389848
 31
0.0
  0
LINE
  5
113
  8
1
 62
     7
 10
368.81567478883312
 20
-326.68137679648601
 30
0.0
 11
370.81567478883301
 21
-326.68137679648601
 31
0.0
  0
LINE
  5
114
  8
1
 62
     7
 10
367.4156747888328
 20
-230.68137679648601
 30
0.0
 11
367.41567478883297
 21
-338.68137679648601
 31
0.0
  0
LINE
  5
115
  8
1
 62
     7
 10
366.61567478883302
 20
-230.68137679648609
 30
0.0
 11
366.61567478883302
 21
-338.68137679648601
 31
0.0
  0
LINE
  5
116
  8
1
 62
     7
 10
369.81567478883312
 20
-336.68137679648601
 30
0.0
 11
367.41567478883297
 21
-336.68137679648601
 31
0.0
  0
LINE
  5
117
  8
1
 62
     7
 10
362.41567478883297
 20
-338.68137679648601
 30
0.0
 11
367.41567478883297
 21
-338.68137679648601
 31
0.0
  0
LINE
  5
118
  8
1
 62
     7
 10
372.61567478883302
 20
-230.68137679648601
 30
0.0
 11
386.61567478883302
 21
-230.68137679648609
 31
0.0
  0
LINE
  5
119
  8
1
 62
     7
 10
367.41567478883297
 20
-255.68137679648601
 30
0.0
 11
368.2156747888331
 21
-255.68137679648601
 31
0.0
  0
LINE
  5
11A
  8
1
 62
     7
 10
367.41567478883297
 20
-237.68137679648589
 30
0.0
 11
368.81567478883312
 21
-237.68137679648589
 31
0.0
  0
LINE
  5
11B
  8
1
 62
     7
 10
366.11567478883302
 20
-230.68137679648601
 30
0.0
 11
366.11567478883302
 21
-338.68137679648601
 31
0.0
  0
LINE
  5
11C
  8
1
 62
     7
 10
367.4156747888328
 20
-230.68137679648601
 30
0.0
 11
362.4156747888328
 21
-230.68137679648601
 31
0.0
  0
LINE
  5
11D
  8
1
 62
     7
 10
362.4156747888328
 20
-230.68137679648601
 30
0.0
 11
362.41567478883297
 21
-338.68137679648601
 31
0.0
  0
LINE
  5
11E
  8
1
 62
     7
 10
370.81567478883301
 20
-240.68137679648601
 30
0.0
 11
371.2156747888331
 21
-240.68137679648601
 31
0.0
  0
LINE
  5
11F
  8
1
 62
     7
 10
370.81567478883301
 20
-252.68137679648589
 30
0.0
 11
371.2156747888331
 21
-252.68137679648589
 31
0.0
  0
LINE
  5
120
  8
1
 62
     7
 10
386.61567478883302
 20
-230.68137679648609
 30
0.0
 11
386.61567478883302
 21
-314.18137679648601
 31
0.0
  0
LINE
  5
121
  8
1
  6
DASHDOT
 62
     3
 10
386.61567478883302
 20
-284.68137679648601
 30
0.0
 11
393.61567478883302
 21
-284.68137679648601
 31
0.0
  0
LINE
  5
122
  8
1
 62
     7
 10
481.09967478883311
 20
-322.68100843046437
 30
0.0
 11
480.2996747888331
 21
-325.222376796486
 31
0.0
  0
LINE
  5
123
  8
1
 62
     7
 10
480.49967478883309
 20
-322.68100843046437
 30
0.0
 11
479.69967478883308
 21
-325.29344399576257
 31
0.0
  0
LINE
  5
124
  8
1
 62
     7
 10
482.09967478883311
 20
-327.68137679648601
 30
0.0
 11
480.2996747888331
 21
-327.68137679648601
 31
0.0
  0
LINE
  5
125
  8
1
 62
     7
 10
480.99967478883309
 20
-327.68137679648601
 30
0.0
 11
480.99967478883309
 21
-336.68137679648601
 31
0.0
  0
LINE
  5
126
  8
1
 62
     7
 10
482.59967478883311
 20
-336.18137679648601
 30
0.0
 11
482.59967478883311
 21
-328.18137679648601
 31
0.0
  0
LINE
  5
127
  8
1
 62
     7
 10
482.09967478883311
 20
-336.68137679648601
 30
0.0
 11
482.59967478883311
 21
-336.18137679648601
 31
0.0
  0
LINE
  5
128
  8
1
 62
     7
 10
482.59967478883311
 20
-336.18137679648601
 30
0.0
 11
482.59967478883311
 21
-335.68137679648589
 31
0.0
  0
LINE
  5
129
  8
1
 62
     7
 10
482.09967478883311
 20
-336.68137679648601
 30
0.0
 11
482.59967478883311
 21
-336.18137679648601
 31
0.0
  0
LINE
  5
12A
  8
1
 62
     7
 10
482.09967478883311
 20
-327.68137679648601
 30
0.0
 11
482.59967478883311
 21
-328.18137679648601
 31
0.0
  0
LINE
  5
12B
  8
1
 62
     7
 10
482.09967478883311
 20
-327.68137679648601
 30
0.0
 11
482.59967478883311
 21
-328.18137679648601
 31
0.0
  0
LINE
  5
12C
  8
1
 62
     7
 10
480.2996747888331
 20
-325.222376796486
 30
0.0
 11
480.2996747888331
 21
-336.68137679648601
 31
0.0
  0
LINE
  5
12D
  8
1
 62
     7
 10
479.69967478883291
 20
-338.68137679648601
 30
0.0
 11
479.69967478883308
 21
-300.18137679648589
 31
0.0
  0
LINE
  5
12E
  8
1
 62
     7
 10
480.49967478883309
 20
-322.68100843046437
 30
0.0
 11
480.49967478883309
 21
-300.18137679648589
 31
0.0
  0
LINE
  5
12F
  8
1
 62
     7
 10
474.29967478883287
 20
-300.18137679648589
 30
0.0
 11
474.29967478883287
 21
-338.18137679648612
 31
0.0
  0
LINE
  5
130
  8
1
 62
     7
 10
474.69967478883302
 20
-300.18137679648589
 30
0.0
 11
474.69967478883302
 21
-338.68137679648601
 31
0.0
  0
LINE
  5
131
  8
1
 62
     7
 10
478.8996747888329
 20
-300.18137679648589
 30
0.0
 11
478.8996747888329
 21
-338.68137679648601
 31
0.0
  0
LINE
  5
132
  8
1
 62
     7
 10
481.09967478883311
 20
-300.18137679648589
 30
0.0
 11
481.09967478883311
 21
-326.68137679648601
 31
0.0
  0
LINE
  5
133
  8
1
 62
     7
 10
483.09967478883289
 20
-300.18137679648589
 30
0.0
 11
483.09967478883289
 21
-326.68137679648601
 31
0.0
  0
LINE
  5
134
  8
1
 62
     7
 10
484.89967478883301
 20
-269.18137679648589
 30
0.0
 11
484.89967478883301
 21
-254.18137679648601
 31
0.0
  0
LINE
  5
135
  8
1
 62
     7
 10
368.81567478883312
 20
-322.68100843046437
 30
0.0
 11
368.01567478883311
 21
-325.222376796486
 31
0.0
  0
LINE
  5
136
  8
1
 62
     7
 10
368.2156747888331
 20
-322.68100843046437
 30
0.0
 11
367.41567478883309
 21
-325.29344399576257
 31
0.0
  0
LINE
  5
137
  8
1
 62
     7
 10
369.81567478883312
 20
-327.68137679648601
 30
0.0
 11
368.01567478883311
 21
-327.68137679648601
 31
0.0
  0
LINE
  5
138
  8
1
 62
     7
 10
368.7156747888331
 20
-327.68137679648601
 30
0.0
 11
368.7156747888331
 21
-336.68137679648601
 31
0.0
  0
LINE
  5
139
  8
1
 62
     7
 10
370.31567478883318
 20
-336.18137679648601
 30
0.0
 11
370.31567478883318
 21
-328.18137679648601
 31
0.0
  0
LINE
  5
13A
  8
1
 62
     7
 10
369.81567478883312
 20
-336.68137679648601
 30
0.0
 11
370.31567478883318
 21
-336.18137679648601
 31
0.0
  0
LINE
  5
13B
  8
1
 62
     7
 10
370.31567478883318
 20
-336.18137679648601
 30
0.0
 11
370.31567478883318
 21
-335.68137679648589
 31
0.0
  0
LINE
  5
13C
  8
1
 62
     7
 10
369.81567478883312
 20
-336.68137679648601
 30
0.0
 11
370.31567478883318
 21
-336.18137679648601
 31
0.0
  0
LINE
  5
13D
  8
1
 62
     7
 10
369.81567478883312
 20
-327.68137679648601
 30
0.0
 11
370.31567478883318
 21
-328.18137679648601
 31
0.0
  0
LINE
  5
13E
  8
1
 62
     7
 10
369.81567478883312
 20
-327.68137679648601
 30
0.0
 11
370.31567478883318
 21
-328.18137679648601
 31
0.0
  0
LINE
  5
13F
  8
1
 62
     7
 10
368.01567478883311
 20
-325.222376796486
 30
0.0
 11
368.01567478883311
 21
-336.68137679648601
 31
0.0
  0
ARC
  5
140
  8
1
  6
DASHDOT
 62
     3
 10
591.26996066068318
 20
-284.68137679648601
 30
0.0
 40
25.000000000000011
 50
45.509310334819212
 51
74.90583106446681
  0
ARC
  5
141
  8
1
  6
DASHDOT
 62
     3
 10
591.26996066068318
 20
-284.68137679648601
 30
0.0
 40
25.00000000000005
 50
285.5093103348193
 51
314.90583106446678
  0
ARC
  5
142
  8
1
 62
     7
 10
221.51287942098429
 20
-284.68137679648601
 30
0.0
 40
53.350000000000009
 50
98.624210943215274
 51
81.375789056784811
  0
ARC
  5
143
  8
1
 62
     7
 10
221.51287942098429
 20
-284.68137679648601
 30
0.0
 40
56.500000000000057
 50
98.140032175425318
 51
102.4639605197205
  0
ARC
  5
144
  8
1
 62
     7
 10
443.39967478883301
 20
-252.18137679648601
 30
0.0
 40
6.0
 50
180.0
 51
246.4435356908993
  0
ARC
  5
145
  8
1
 62
     7
 10
443.39967478883301
 20
-237.33137679648601
 30
0.0
 40
6.0
 50
90.0
 51
180.0
  0
ARC
  5
146
  8
1
 62
     7
 10
443.39967478883301
 20
-317.18137679648589
 30
0.0
 40
6.0000000000000178
 50
113.5564643091016
 51
180.0
  0
ARC
  5
147
  8
1
 62
     7
 10
443.39967478883301
 20
-332.03137679648597
 30
0.0
 40
6.0
 50
180.0
 51
270.0
  0
ARC
  5
148
  8
1
 62
     7
 10
331.11567478883302
 20
-237.33137679648601
 30
0.0
 40
6.0
 50
90.0
 51
180.0
  0
ARC
  5
149
  8
1
 62
     7
 10
331.11567478883302
 20
-332.03137679648597
 30
0.0
 40
6.0
 50
180.0
 51
270.0
  0
ARC
  5
14A
  8
1
 62
     7
 10
215.51287942098429
 20
-215.68137679648601
 30
0.0
 40
2.0
 50
90.0
 51
180.0
  0
ARC
  5
14B
  8
1
 62
     7
 10
227.51287942098409
 20
-215.68137679648601
 30
0.0
 40
2.0
 50
0.0
 51
90.0
  0
ARC
  5
14C
  8
1
 62
     7
 10
205.51287942098429
 20
-236.78304697174161
 30
0.0
 40
8.0000000000000089
 50
288.47142630525627
 51
0.0
  0
ARC
  5
14D
  8
1
 62
     7
 10
237.51287942098421
 20
-236.78304697174161
 30
0.0
 40
8.0
 50
180.0
 51
251.5285736947429
  0
ARC
  5
14E
  8
1
 62
     7
 10
221.51287942098429
 20
-284.68137679648601
 30
0.0
 40
56.500000000000128
 50
107.5360394802798
 51
81.859967824574795
  0
ARC
  5
14F
  8
1
 62
     7
 10
221.51287942098429
 20
-284.68137679648601
 30
0.0
 40
42.499999999999979
 50
108.4714263052566
 51
71.528573694743699
  0
ARC
  5
150
  8
1
 62
     7
 10
221.51287942098429
 20
-284.68137679648601
 30
0.0
 40
10.00000000000003
 50
107.4576031237219
 51
72.542396876277977
  0
ARC
  5
151
  8
1
  6
DASHDOT
 62
     3
 10
591.26996066068318
 20
-284.68137679648601
 30
0.0
 40
25.00000000000005
 50
165.50931033481939
 51
194.9058310644665
  0
ARC
  5
152
  8
1
  6
DASHDOT
 62
     3
 10
591.26996066068318
 20
-284.68137679648601
 30
0.0
 40
24.999999999999851
 50
229.51536214674269
 51
251.34464585693269
  0
ARC
  5
153
  8
1
  6
DASHDOT
 62
     3
 10
591.26996066068318
 20
-284.68137679648601
 30
0.0
 40
25.000000000000011
 50
346.25753306746577
 51
12.865245629079769
  0
ARC
  5
154
  8
1
  6
DASHDOT
 62
     3
 10
591.26996066068318
 20
-284.68137679648601
 30
0.0
 40
25.000000000000028
 50
107.7076855583103
 51
130.7700441555954
  0
ARC
  5
155
  8
1
 62
     7
 10
597.26996066068307
 20
-215.68137679648601
 30
0.0
 40
2.0
 50
0.0
 51
90.0
  0
ARC
  5
156
  8
1
 62
     7
 10
585.26996066068307
 20
-215.68137679648601
 30
0.0
 40
2.0
 50
90.0
 51
180.0
  0
ARC
  5
157
  8
1
 62
     7
 10
591.26996066068318
 20
-284.68137679648601
 30
0.0
 40
53.000000000000107
 50
315.8948521830747
 51
344.10514781692552
  0
ARC
  5
158
  8
1
 62
     7
 10
591.26996066068318
 20
-284.68137679648601
 30
0.0
 40
53.00000000000022
 50
75.89485218307469
 51
104.1051478169254
  0
ARC
  5
159
  8
1
 62
     7
 10
579.57225744783477
 20
-238.12857087091231
 30
0.0
 40
5.000000000000048
 50
104.1051478169243
 51
150.0
  0
ARC
  5
15A
  8
1
 62
     7
 10
637.43472481610047
 20
-297.82727161101548
 30
0.0
 40
4.9999999999999201
 50
344.10514781692581
 51
29.99999999999989
  0
ARC
  5
15B
  8
1
 62
     7
 10
602.96766387353125
 20
-238.12857087091231
 30
0.0
 40
5.000000000000016
 50
29.99999999999989
 51
75.894852183075855
  0
ARC
  5
15C
  8
1
 62
     7
 10
625.73702160325263
 20
-318.08828790753012
 30
0.0
 40
5.0
 50
270.0
 51
315.89485218307408
  0
ARC
  5
15D
  8
1
 62
     7
 10
556.80289971811339
 20
-318.08828790753012
 30
0.0
 40
5.0000000000000524
 50
224.10514781692581
 51
270.0
  0
ARC
  5
15E
  8
1
 62
     7
 10
591.26996066068318
 20
-284.68137679648601
 30
0.0
 40
53.000000000000107
 50
195.89485218307451
 51
224.1051478169253
  0
ARC
  5
15F
  8
1
 62
     7
 10
545.10519650526555
 20
-297.82727161101548
 30
0.0
 40
5.000000000000016
 50
150.0
 51
195.89485218307459
  0
ARC
  5
160
  8
1
 62
     7
 10
574.87301268094109
 20
-328.72839822756163
 30
0.0
 40
14.99999999999984
 50
69.581709741809462
 51
123.3944986889146
  0
ARC
  5
161
  8
1
 62
     7
 10
591.26996066068318
 20
-284.68137679648601
 30
0.0
 40
32.00000000000022
 50
249.58170974180831
 51
290.33498709240661
  0
ARC
  5
162
  8
1
 62
     7
 10
637.61427417090295
 20
-276.85803957593669
 30
0.0
 40
15.00000000000008
 50
189.58170974180851
 51
243.39449868891509
  0
ARC
  5
163
  8
1
 62
     7
 10
561.32259513020517
 20
-248.45769258595951
 30
0.0
 40
14.99999999999992
 50
309.58170974180831
 51
3.39449868891472
  0
ARC
  5
164
  8
1
 62
     7
 10
591.26996066068318
 20
-284.68137679648601
 30
0.0
 40
32.000000000000099
 50
129.5817097418084
 51
170.33498709240681
  0
ARC
  5
165
  8
1
 62
     7
 10
607.66690864042516
 20
-328.7283982275618
 30
0.0
 40
15.00000000000003
 50
56.605501311086279
 51
110.418290258192
  0
ARC
  5
166
  8
1
 62
     7
 10
544.92564715046296
 20
-276.85803957593669
 30
0.0
 40
14.99999999999979
 50
296.60550131108482
 51
350.41829025819118
  0
ARC
  5
167
  8
1
 62
     7
 10
624.17892600449159
 20
-303.68137679648612
 30
0.0
 40
14.999999999999879
 50
236.60550131108491
 51
63.394498688915093
  0
ARC
  5
168
  8
1
 62
     7
 10
558.36099531687444
 20
-303.68137679648612
 30
0.0
 40
15.0000000000003
 50
116.60550131108479
 51
303.39449868891512
  0
ARC
  5
169
  8
1
 62
     7
 10
621.21732619116096
 20
-248.45769258595951
 30
0.0
 40
14.99999999999984
 50
176.60550131108531
 51
230.4182902581916
  0
ARC
  5
16A
  8
1
 62
     7
 10
591.26996066068318
 20
-246.68137679648601
 30
0.0
 40
15.00000000000008
 50
356.60550131108522
 51
183.39449868891469
  0
ARC
  5
16B
  8
1
 62
     7
 10
591.26996066068318
 20
-284.68137679648601
 30
0.0
 40
32.000000000000028
 50
9.6650129075930824
 51
50.418290258191512
  0
ARC
  5
16C
  8
1
 62
     7
 10
591.26996066068318
 20
-284.68137679648601
 30
0.0
 40
48.999999999999893
 50
231.6111677157626
 51
238.99728086612589
  0
ARC
  5
16D
  8
1
 62
     7
 10
591.26996066068318
 20
-284.68137679648601
 30
0.0
 40
49.000000000000021
 50
301.00271913387388
 51
308.38883228423759
  0
ARC
  5
16E
  8
1
 62
     7
 10
591.26996066068318
 20
-284.68137679648601
 30
0.0
 40
48.999999999999957
 50
351.61116771576241
 51
358.997280866126
  0
ARC
  5
16F
  8
1
 62
     7
 10
591.26996066068318
 20
-284.68137679648601
 30
0.0
 40
49.000000000000092
 50
111.61116771576251
 51
118.997280866126
  0
ARC
  5
170
  8
1
 62
     7
 10
591.26996066068318
 20
-284.68137679648601
 30
0.0
 40
49.000000000000092
 50
61.002719133874074
 51
68.388832284237424
  0
ARC
  5
171
  8
1
 62
     7
 10
591.26996066068318
 20
-284.68137679648601
 30
0.0
 40
49.000000000000007
 50
181.00271913387391
 51
188.38883228423711
  0
ARC
  5
172
  8
1
 62
     7
 10
577.26996066068295
 20
-308.9300881024501
 30
0.0
 40
25.000000000000028
 50
214.48920527721779
 51
239.99999999999989
  0
ARC
  5
173
  8
1
 62
     7
 10
591.26996066068318
 20
-284.68137679648601
 30
0.0
 40
53.000000000000028
 50
239.99999999999989
 51
299.99999999999977
  0
ARC
  5
174
  8
1
 62
     7
 10
605.26996066068307
 20
-308.93008810245021
 30
0.0
 40
24.999999999999869
 50
299.9999999999996
 51
325.51079472278201
  0
ARC
  5
175
  8
1
 62
     7
 10
605.26996066068307
 20
-260.43266549052169
 30
0.0
 40
24.99999999999994
 50
59.999999999999332
 51
85.51079472278164
  0
ARC
  5
176
  8
1
 62
     7
 10
563.26996066068307
 20
-284.68137679648601
 30
0.0
 40
25.0
 50
180.0
 51
205.51079472278181
  0
ARC
  5
177
  8
1
 62
     7
 10
591.26996066068318
 20
-284.68137679648601
 30
0.0
 40
53.0
 50
0.0
 51
59.999999999999709
  0
ARC
  5
178
  8
1
 62
     7
 10
591.26996066068318
 20
-284.68137679648601
 30
0.0
 40
53.000000000000028
 50
119.9999999999997
 51
180.0
  0
ARC
  5
179
  8
1
 62
     7
 10
619.26996066068307
 20
-284.68137679648601
 30
0.0
 40
25.000000000000089
 50
334.48920527721742
 51
0.0
  0
ARC
  5
17A
  8
1
 62
     7
 10
577.26996066068307
 20
-260.43266549052152
 30
0.0
 40
24.999999999999961
 50
94.489205277217835
 51
119.9999999999999
  0
CIRCLE
  5
17B
  8
1
 62
     7
 10
450.3996747888329
 20
-305.93137679648601
 30
0.0
 40
3.75
  0
CIRCLE
  5
17C
  8
1
 62
     7
 10
450.3996747888329
 20
-263.43137679648601
 30
0.0
 40
3.75
  0
CIRCLE
  5
17D
  8
1
 62
     7
 10
221.51287942098429
 20
-219.68137679648601
 30
0.0
 40
3.25
  0
CIRCLE
  5
17E
  8
1
 62
     7
 10
221.51287942098429
 20
-284.68137679648601
 30
0.0
 40
24.5
  0
CIRCLE
  5
17F
  8
1
 62
     7
 10
221.51287942098429
 20
-284.68137679648601
 30
0.0
 40
17.5
  0
CIRCLE
  5
180
  8
1
 62
     7
 10
591.26996066068318
 20
-284.68137679648601
 30
0.0
 40
54.0
  0
CIRCLE
  5
181
  8
1
 62
     7
 10
591.26996066068318
 20
-332.18137679648601
 30
0.0
 40
5.0
  0
CIRCLE
  5
182
  8
1
 62
     7
 10
550.13375398092217
 20
-260.93137679648589
 30
0.0
 40
5.0
  0
CIRCLE
  5
183
  8
1
 62
     7
 10
632.40616734044374
 20
-260.93137679648589
 30
0.0
 40
5.0
  0
CIRCLE
  5
184
  8
1
 62
     3
 10
616.26996066068318
 20
-284.68137679648601
 30
0.0
 40
2.500000000000008
  0
CIRCLE
  5
185
  8
1
 62
     7
 10
616.26996066068318
 20
-284.68137679648601
 30
0.0
 40
1.500000000000123
  0
CIRCLE
  5
186
  8
1
 62
     3
 10
578.76996066068318
 20
-306.33201189109673
 30
0.0
 40
2.500000000000008
  0
CIRCLE
  5
187
  8
1
 62
     7
 10
578.76996066068318
 20
-306.33201189109673
 30
0.0
 40
1.4999999999999261
  0
CIRCLE
  5
188
  8
1
 62
     7
 10
603.76996066068318
 20
-263.03074170187489
 30
0.0
 40
2.7500000000001279
  0
CIRCLE
  5
189
  8
1
 62
     7
 10
603.76996066068318
 20
-306.33201189109673
 30
0.0
 40
2.7500000000001279
  0
CIRCLE
  5
18A
  8
1
 62
     7
 10
578.76996066068318
 20
-263.03074170187489
 30
0.0
 40
1.5
  0
CIRCLE
  5
18B
  8
1
 62
     3
 10
578.76996066068318
 20
-263.03074170187489
 30
0.0
 40
2.5
  0
CIRCLE
  5
18C
  8
1
 62
     7
 10
566.26996066068318
 20
-284.68137679648601
 30
0.0
 40
2.75
  0
CIRCLE
  5
18D
  8
1
 62
     7
 10
591.26996066068318
 20
-284.68137679648601
 30
0.0
 40
21.0
  0
CIRCLE
  5
18E
  8
1
 62
     7
 10
591.26996066068318
 20
-284.68137679648601
 30
0.0
 40
17.5
  0
CIRCLE
  5
18F
  8
1
 62
     7
 10
591.26996066068318
 20
-284.68137679648601
 30
0.0
 40
13.5
  0
CIRCLE
  5
190
  8
1
 62
     7
 10
591.26996066068318
 20
-284.68137679648601
 30
0.0
 40
10.0
  0
CIRCLE
  5
191
  8
1
 62
     7
 10
603.76996066068318
 20
-263.03074170187489
 30
0.0
 40
2.7500000000001279
  0
CIRCLE
  5
192
  8
1
 62
     7
 10
591.26996066068318
 20
-246.68137679648601
 30
0.0
 40
2.0
  0
CIRCLE
  5
193
  8
1
 62
     3
 10
591.26996066068318
 20
-246.68137679648601
 30
0.0
 40
2.5
  0
CIRCLE
  5
194
  8
1
 62
     7
 10
591.26996066068318
 20
-246.68137679648601
 30
0.0
 40
6.0
  0
CIRCLE
  5
195
  8
1
 62
     7
 10
558.36099531687444
 20
-303.68137679648612
 30
0.0
 40
2.0000000000000151
  0
CIRCLE
  5
196
  8
1
 62
     3
 10
558.36099531687444
 20
-303.68137679648612
 30
0.0
 40
2.500000000000008
  0
CIRCLE
  5
197
  8
1
 62
     7
 10
558.36099531687444
 20
-303.68137679648612
 30
0.0
 40
6.0
  0
CIRCLE
  5
198
  8
1
 62
     7
 10
624.17892600449159
 20
-303.68137679648612
 30
0.0
 40
2.0000000000000151
  0
CIRCLE
  5
199
  8
1
 62
     3
 10
624.17892600449159
 20
-303.68137679648612
 30
0.0
 40
2.500000000000008
  0
CIRCLE
  5
19A
  8
1
 62
     7
 10
624.17892600449159
 20
-303.68137679648612
 30
0.0
 40
5.9999999999998517
  0
CIRCLE
  5
19B
  8
1
 62
     7
 10
591.26996066068318
 20
-284.68137679648601
 30
0.0
 40
56.5
  0
CIRCLE
  5
19C
  8
1
 62
     7
 10
624.17892600449159
 20
-303.68137679648612
 30
0.0
 40
9.4999999999999911
  0
CIRCLE
  5
19D
  8
1
 62
     7
 10
558.36099531687444
 20
-303.68137679648612
 30
0.0
 40
9.500000000000238
  0
CIRCLE
  5
19E
  8
1
 62
     7
 10
591.26996066068318
 20
-246.68137679648601
 30
0.0
 40
9.5
  0
CIRCLE
  5
19F
  8
1
 62
     7
 10
603.76996066068318
 20
-263.03074170187489
 30
0.0
 40
2.7500000000001279
  0
CIRCLE
  5
1A0
  8
1
 62
     7
 10
591.26996066068318
 20
-246.68137679648601
 30
0.0
 40
7.5
  0
CIRCLE
  5
1A1
  8
1
 62
     7
 10
558.36099531687444
 20
-303.68137679648612
 30
0.0
 40
7.5
  0
CIRCLE
  5
1A2
  8
1
 62
     7
 10
624.17892600449159
 20
-303.68137679648612
 30
0.0
 40
7.5
  0
CIRCLE
  5
1A3
  8
1
 62
     7
 10
591.26996066068318
 20
-219.68137679648601
 30
0.0
 40
3.25
  0
ARC
  5
1A4
  8
1
 62
     7
 10
486.89967478883301
 20
-317.68137679648601
 30
0.0
 40
1.0
 50
0.0
 51
90.0
  0
ARC
  5
1A5
  8
1
 62
     7
 10
496.3996747888329
 20
-317.68137679648601
 30
0.0
 40
1.0
 50
90.0
 51
180.0
  0
ARC
  5
1A6
  8
1
 62
     7
 10
486.89967478883301
 20
-314.68137679648601
 30
0.0
 40
2.0
 50
180.0
 51
270.0
  0
ARC
  5
1A7
  8
1
 62
     7
 10
489.89967478883301
 20
-322.12927096389831
 30
0.0
 40
2.0
 50
180.0
 51
270.0
  0
ARC
  5
1A8
  8
1
 62
     7
 10
493.39967478883301
 20
-322.12927096389831
 30
0.0
 40
2.0
 50
270.0
 51
0.0
  0
ARC
  5
1A9
  8
1
 62
     7
 10
496.3996747888329
 20
-314.68137679648601
 30
0.0
 40
2.0
 50
270.0
 51
0.0
  0
ARC
  5
1AA
  8
1
 62
     7
 10
374.61567478883302
 20
-317.68137679648601
 30
0.0
 40
1.0
 50
0.0
 51
90.0
  0
ARC
  5
1AB
  8
1
 62
     7
 10
384.11567478883302
 20
-317.68137679648601
 30
0.0
 40
1.0
 50
90.0
 51
180.0
  0
ARC
  5
1AC
  8
1
 62
     7
 10
374.61567478883302
 20
-314.68137679648601
 30
0.0
 40
2.0
 50
180.0
 51
270.0
  0
ARC
  5
1AD
  8
1
 62
     7
 10
377.61567478883302
 20
-322.12927096389848
 30
0.0
 40
2.0
 50
180.0
 51
270.0
  0
ARC
  5
1AE
  8
1
 62
     7
 10
381.11567478883302
 20
-322.12927096389848
 30
0.0
 40
2.0
 50
270.0
 51
0.0
  0
ARC
  5
1AF
  8
1
 62
     7
 10
384.11567478883302
 20
-314.68137679648601
 30
0.0
 40
2.0
 50
270.0
 51
0.0
  0
TEXT
  5
1B1
  8
1
 62
     7
 10
205.76287942098429
 20
-147.22147547134131
 30
0.0
 40
7.0
  1
VCSHA 2.5
 41
0.9
  7
SIMPLEX
  0
ENDSEC
  0
EOF
