  0
SECTION
  2
HEADER
  9
$ACADVER
  1
AC1009
  9
$INSBASE
 10
0.0
 20
0.0
 30
0.0
  9
$EXTMIN
 10
87.333399712515927
 20
262.0
 30
0.0
  9
$EXTMAX
 10
686.62132034355977
 20
736.08607317843359
 30
0.0
  9
$LIMMIN
 10
87.333399712515913
 20
262.0
  9
$LIMMAX
 10
686.00000000000011
 20
734.84343249131427
  9
$ORTHOMODE
 70
     0
  9
$REGENMODE
 70
     1
  9
$FILLMODE
 70
     1
  9
$QTEXTMODE
 70
     0
  9
$MIRRTEXT
 70
     1
  9
$DRAGMODE
 70
     2
  9
$LTSCALE
 40
1.0
  9
$OSMODE
 70
    37
  9
$ATTMODE
 70
     1
  9
$TEXTSIZE
 40
3.5
  9
$TRACEWID
 40
0.5
  9
$TEXTSTYLE
  7
STANDARD
  9
$CLAYER
  8
0
  9
$CELTYPE
  6
BYLAYER
  9
$CECOLOR
 62
   256
  9
$DIMSCALE
 40
1.0
  9
$DIMASZ
 40
0.18
  9
$DIMEXO
 40
0.0625
  9
$DIMDLI
 40
0.38
  9
$DIMRND
 40
0.0
  9
$DIMDLE
 40
0.0
  9
$DIMEXE
 40
0.18
  9
$DIMTP
 40
0.0
  9
$DIMTM
 40
0.0
  9
$DIMTXT
 40
0.18
  9
$DIMCEN
 40
0.09
  9
$DIMTSZ
 40
0.0
  9
$DIMTOL
 70
     0
  9
$DIMLIM
 70
     0
  9
$DIMTIH
 70
     1
  9
$DIMTOH
 70
     1
  9
$DIMSE1
 70
     0
  9
$DIMSE2
 70
     0
  9
$DIMTAD
 70
     0
  9
$DIMZIN
 70
     0
  9
$DIMBLK
  1

  9
$DIMASO
 70
     1
  9
$DIMSHO
 70
     1
  9
$DIMPOST
  1

  9
$DIMAPOST
  1

  9
$DIMALT
 70
     0
  9
$DIMALTD
 70
     2
  9
$DIMALTF
 40
25.399999999999999
  9
$DIMLFAC
 40
1.0
  9
$DIMTOFL
 70
     0
  9
$DIMTVP
 40
0.0
  9
$DIMTIX
 70
     0
  9
$DIMSOXD
 70
     0
  9
$DIMSAH
 70
     0
  9
$DIMBLK1
  1

  9
$DIMBLK2
  1

  9
$DIMSTYLE
  2
STANDARD
  9
$DIMCLRD
 70
     0
  9
$DIMCLRE
 70
     0
  9
$DIMCLRT
 70
     0
  9
$DIMTFAC
 40
1.0
  9
$DIMGAP
 40
0.09
  9
$LUNITS
 70
     2
  9
$LUPREC
 70
     4
  9
$SKETCHINC
 40
0.1
  9
$FILLETRAD
 40
2.0
  9
$AUNITS
 70
     0
  9
$AUPREC
 70
     0
  9
$MENU
  1
ACAD
  9
$ELEVATION
 40
0.0
  9
$PELEVATION
 40
0.0
  9
$THICKNESS
 40
0.0
  9
$LIMCHECK
 70
     0
  9
$BLIPMODE
 70
     0
  9
$CHAMFERA
 40
0.0
  9
$CHAMFERB
 40
0.0
  9
$SKPOLY
 70
     0
  9
$TDCREATE
 40
2452095.4479160882
  9
$TDUPDATE
 40
2452095.4486376159
  9
$TDINDWG
 40
0.0007393519
  9
$TDUSRTIMER
 40
0.0007393519
  9
$USRTIMER
 70
     1
  9
$ANGBASE
 50
0.0
  9
$ANGDIR
 70
     0
  9
$PDMODE
 70
     0
  9
$PDSIZE
 40
0.0
  9
$PLINEWID
 40
0.0
  9
$COORDS
 70
     1
  9
$SPLFRAME
 70
     0
  9
$SPLINETYPE
 70
     6
  9
$SPLINESEGS
 70
     8
  9
$ATTDIA
 70
     0
  9
$ATTREQ
 70
     1
  9
$HANDLING
 70
 10241
  9
$HANDSEED
  5
3F2
  9
$SURFTAB1
 70
     6
  9
$SURFTAB2
 70
     6
  9
$SURFTYPE
 70
     6
  9
$SURFU
 70
     6
  9
$SURFV
 70
     6
  9
$UCSNAME
  2

  9
$UCSORG
 10
0.0
 20
0.0
 30
0.0
  9
$UCSXDIR
 10
1.0
 20
0.0
 30
0.0
  9
$UCSYDIR
 10
0.0
 20
1.0
 30
0.0
  9
$PUCSNAME
  2

  9
$PUCSORG
 10
0.0
 20
0.0
 30
0.0
  9
$PUCSXDIR
 10
1.0
 20
0.0
 30
0.0
  9
$PUCSYDIR
 10
0.0
 20
1.0
 30
0.0
  9
$USERI1
 70
     0
  9
$USERI2
 70
     0
  9
$USERI3
 70
     0
  9
$USERI4
 70
     0
  9
$USERI5
 70
     0
  9
$USERR1
 40
0.0
  9
$USERR2
 40
0.0
  9
$USERR3
 40
0.0
  9
$USERR4
 40
0.0
  9
$USERR5
 40
0.0
  9
$WORLDVIEW
 70
     1
  9
$SHADEDGE
 70
     3
  9
$SHADEDIF
 70
    70
  9
$TILEMODE
 70
     1
  9
$MAXACTVP
 70
    64
  9
$PLIMCHECK
 70
     0
  9
$PEXTMIN
 10
1.0000000000000000E+020
 20
1.0000000000000000E+020
 30
1.0000000000000000E+020
  9
$PEXTMAX
 10
-1.0000000000000000E+020
 20
-1.0000000000000000E+020
 30
-1.0000000000000000E+020
  9
$PLIMMIN
 10
0.0
 20
0.0
  9
$PLIMMAX
 10
12.0
 20
9.0
  9
$UNITMODE
 70
     0
  9
$VISRETAIN
 70
     1
  9
$PLINEGEN
 70
     0
  9
$PSLTSCALE
 70
     1
  0
ENDSEC
  0
SECTION
  2
TABLES
  0
TABLE
  2
VPORT
 70
     2
  0
VPORT
  2
*ACTIVE
 70
     0
 10
0.0
 20
0.0
 11
1.0
 21
1.0
 12
586.91073059763585
 22
639.36682661981263
 13
0.0
 23
0.0
 14
1.0
 24
1.0
 15
0.0
 25
0.0
 16
0.0
 26
0.0
 36
1.0
 17
0.0
 27
0.0
 37
0.0
 40
8.9999997456802703
 41
3.0569948186528491
 42
50.0
 43
0.0
 44
0.0
 50
0.0
 51
0.0
 71
     0
 72
   100
 73
     1
 74
     1
 75
     0
 76
     0
 77
     0
 78
     0
  0
ENDTAB
  0
TABLE
  2
LTYPE
 70
     9
  0
LTYPE
  2
CONTINUOUS
 70
     0
  3
Solid line
 72
    65
 73
     0
 40
0.0
  0
LTYPE
  2
BORDER
 70
     0
  3
__ __ . __ __ .
 72
    65
 73
     6
 40
27.570172381660459
 49
7.8771921090458452
 49
-3.9385960545229231
 49
7.8771921090458452
 49
-3.9385960545229231
 49
0.0
 49
-3.9385960545229231
  0
LTYPE
  2
CENTER
 70
     0
  3
____ _ ____ _
 72
    65
 73
     4
 40
31.508768436183381
 49
19.692980272614601
 49
-3.9385960545229231
 49
3.9385960545229231
 49
-3.9385960545229231
  0
LTYPE
  2
DASHDOT
 70
     0
  3
__ . __ . __ .
 72
    65
 73
     4
 40
15.75438421809169
 49
7.8771921090458452
 49
-3.9385960545229231
 49
0.0
 49
-3.9385960545229231
  0
LTYPE
  2
DASHED
 70
     0
  3
__ __ __ __ __
 72
    65
 73
     2
 40
11.81578816356877
 49
7.8771921090458452
 49
-3.9385960545229231
  0
LTYPE
  2
DIVIDE
 70
     0
  3
__ . . __ . . 
 72
    65
 73
     6
 40
19.692980272614601
 49
7.8771921090458452
 49
-3.9385960545229231
 49
0.0
 49
-3.9385960545229231
 49
0.0
 49
-3.9385960545229231
  0
LTYPE
  2
DOT
 70
     0
  3
..............
 72
    65
 73
     4
 40
7.8771921090458452
 49
0.0
 49
-3.9385960545229231
 49
0.0
 49
-3.9385960545229231
  0
LTYPE
  2
HIDDEN
 70
     0
  3
_ _ _ _ _ _ _
 72
    65
 73
     2
 40
5.9078940817843844
 49
3.9385960545229231
 49
-1.9692980272614611
  0
LTYPE
  2
PHANTOM
 70
     0
  3
_____ _ _ _____ _ _ 
 72
    65
 73
     6
 40
39.38596054522921
 49
19.692980272614601
 49
-3.9385960545229231
 49
3.9385960545229231
 49
-3.9385960545229231
 49
3.9385960545229231
 49
-3.9385960545229231
  0
ENDTAB
  0
TABLE
  2
LAYER
 70
     2
  0
LAYER
  2
0
 70
     0
 62
     7
  6
CONTINUOUS
  0
LAYER
  2
1
 70
     0
 62
     7
  6
CONTINUOUS
  0
ENDTAB
  0
TABLE
  2
STYLE
 70
     4
  0
STYLE
  2
STANDARD
 70
     0
 40
0.0
 41
1.0
 50
0.0
 71
     0
 42
3.5
  3
txt
  4

  0
STYLE
  2
SIMPLEX
 70
     0
 40
0.0
 41
1.0
 50
0.0
 71
     0
 42
3.5
  3
simplex
  4

  0
STYLE
  2
COMPLEX
 70
     0
 40
0.0
 41
1.0
 50
0.0
 71
     0
 42
3.5
  3
complex
  4

  0
STYLE
  2
ITALIC
 70
     0
 40
0.0
 41
1.0
 50
0.0
 71
     0
 42
3.5
  3
italic
  4

  0
ENDTAB
  0
TABLE
  2
VIEW
 70
     0
  0
ENDTAB
  0
TABLE
  2
UCS
 70
     0
  0
ENDTAB
  0
TABLE
  2
APPID
 70
     1
  0
APPID
  2
ACAD
 70
     0
  0
ENDTAB
  0
TABLE
  2
DIMSTYLE
 70
     1
  0
DIMSTYLE
  2
STANDARD
 70
     0
  3

  4

  5

  6

  7

 40
1.0
 41
0.18
 42
0.0625
 43
0.38
 44
0.18
 45
0.0
 46
0.0
 47
0.0
 48
0.0
140
0.18
141
0.09
142
0.0
143
25.399999999999999
144
1.0
145
0.0
146
1.0
147
0.09
 71
     0
 72
     0
 73
     1
 74
     1
 75
     0
 76
     0
 77
     0
 78
     0
170
     0
171
     2
172
     0
173
     0
174
     0
175
     0
176
     0
177
     0
178
     0
  0
ENDTAB
  0
ENDSEC
  0
SECTION
  2
BLOCKS
  0
BLOCK
  8
0
  2
$MODEL_SPACE
 70
     0
 10
0.0
 20
0.0
 30
0.0
  3
$MODEL_SPACE
  1

  0
ENDBLK
  5
20
  8
0
  0
BLOCK
 67
     1
  8
0
  2
$PAPER_SPACE
 70
     0
 10
0.0
 20
0.0
 30
0.0
  3
$PAPER_SPACE
  1

  0
ENDBLK
  5
1C
 67
     1
  8
0
  0
ENDSEC
  0
SECTION
  2
ENTITIES
  0
POINT
  5
33
  8
1
  6
CENTER
 62
     7
 10
369.00000000000011
 20
559.84343249131416
 30
0.0
  0
POINT
  5
34
  8
1
  6
CENTER
 62
     7
 10
369.00000000000011
 20
719.84343249131427
 30
0.0
  0
POINT
  5
35
  8
1
  6
CENTER
 62
     7
 10
155.0
 20
559.84343249131416
 30
0.0
  0
POINT
  5
36
  8
1
  6
CENTER
 62
     7
 10
155.0
 20
719.84343249131427
 30
0.0
  0
LINE
  5
37
  8
1
 62
     7
 10
188.49999999999989
 20
578.01990307954873
 30
0.0
 11
183.47893962030989
 21
580.97346800877915
 31
0.0
  0
LINE
  5
38
  8
1
 62
     7
 10
525.29832942752091
 20
436.23720447841168
 30
0.0
 11
523.82485578727801
 21
437.71067811865458
 31
0.0
  0
LINE
  5
39
  8
1
 62
     7
 10
531.25950114310604
 20
444.4181683865578
 30
0.0
 11
533.03969554882076
 21
442.63797398084262
 31
0.0
  0
LINE
  5
3A
  8
1
 62
     7
 10
535.89752078943593
 20
446.85121655209332
 30
0.0
 11
536.80016195374901
 21
445.94857538778058
 31
0.0
  0
LINE
  5
3B
  8
1
 62
     7
 10
541.54840779574886
 20
448.27139735764609
 30
0.0
 11
539.43305469536904
 21
450.3867504580262
 31
0.0
  0
LINE
  5
3C
  8
1
 62
     7
 10
544.84722766562095
 20
452.04364529963959
 30
0.0
 11
545.46755563075885
 21
451.42331733450112
 31
0.0
  0
LINE
  5
3D
  8
1
 62
     7
 10
550.87688969642375
 20
453.08505108070187
 30
0.0
 11
548.38276157155292
 21
455.57917920557247
 31
0.0
  0
LINE
  5
3E
  8
1
 62
     7
 10
520.2893218813449
 20
434.1751442127221
 30
0.0
 11
521.76279552158803
 21
432.70167057247932
 31
0.0
  0
LINE
  5
3F
  8
1
 62
     7
 10
518.3014099882239
 20
429.0919882939786
 30
0.0
 11
517.11736551937474
 21
430.27603276282679
 31
0.0
  0
LINE
  5
40
  8
1
 62
     7
 10
515.36202601915693
 20
424.96030445117879
 30
0.0
 11
513.5818316134422
 21
426.74049885689408
 31
0.0
  0
LINE
  5
41
  8
1
 62
     7
 10
512.05142461221885
 20
421.19983804625122
 30
0.0
 11
511.14878344790628
 21
422.10247921056418
 31
0.0
  0
LINE
  5
42
  8
1
 62
     7
 10
507.61324954197369
 20
418.56694530463142
 30
0.0
 11
509.72860264235391
 21
416.45159220425131
 31
0.0
  0
LINE
  5
43
  8
1
 62
     7
 10
506.57668266549888
 20
412.53244436924109
 30
0.0
 11
505.95635470036041
 21
413.15277233437939
 31
0.0
  0
LINE
  5
44
  8
1
 62
     7
 10
502.42082079442741
 20
409.61723842844663
 30
0.0
 11
504.91494891929892
 21
407.1231103035762
 31
0.0
  0
LINE
  5
45
  8
1
 62
     7
 10
502.75035410835977
 20
401.99999999999977
 30
0.0
 11
499.0
 21
401.99999999999977
 31
0.0
  0
LINE
  5
46
  8
1
 62
     7
 10
527.7239672371727
 20
440.88263448062492
 30
0.0
 11
528.90801170602094
 21
439.6985900117769
 31
0.0
  0
LINE
  5
47
  8
1
 62
     7
 10
556.0
 20
459.0
 30
0.0
 11
556.0
 21
455.24964589164063
 31
0.0
  0
LINE
  5
48
  8
1
 62
     7
 10
658.17514421272199
 20
437.71067811865458
 30
0.0
 11
656.70167057247875
 21
436.23720447841168
 31
0.0
  0
LINE
  5
49
  8
1
 62
     7
 10
648.96030445117879
 20
442.63797398084262
 30
0.0
 11
650.74049885689476
 21
444.4181683865578
 31
0.0
  0
LINE
  5
4A
  8
1
 62
     7
 10
645.19983804625178
 20
445.94857538778058
 30
0.0
 11
646.10247921056373
 21
446.85121655209332
 31
0.0
  0
LINE
  5
4B
  8
1
 62
     7
 10
642.56694530463176
 20
450.3867504580262
 30
0.0
 11
640.45159220425182
 21
448.27139735764609
 31
0.0
  0
LINE
  5
4C
  8
1
 62
     7
 10
636.53244436924092
 20
451.42331733450112
 30
0.0
 11
637.15277233437985
 21
452.04364529963959
 31
0.0
  0
LINE
  5
4D
  8
1
 62
     7
 10
633.61723842844685
 20
455.57917920557247
 30
0.0
 11
631.1231103035758
 21
453.08505108070187
 31
0.0
  0
LINE
  5
4E
  8
1
 62
     7
 10
660.23720447841208
 20
432.70167057247932
 30
0.0
 11
661.71067811865476
 21
434.1751442127221
 31
0.0
  0
LINE
  5
4F
  8
1
 62
     7
 10
664.88263448062571
 20
430.27603276282679
 30
0.0
 11
663.69859001177713
 21
429.0919882939786
 31
0.0
  0
LINE
  5
50
  8
1
 62
     7
 10
653.09198829397883
 20
439.6985900117769
 30
0.0
 11
654.27603276282673
 21
440.88263448062492
 31
0.0
  0
LINE
  5
51
  8
1
 62
     7
 10
626.0
 20
455.24964589164063
 30
0.0
 11
626.0
 21
459.0
 31
0.0
  0
LINE
  5
52
  8
1
 62
     7
 10
672.27139735764615
 20
416.45159220425131
 30
0.0
 11
674.38675045802631
 21
418.56694530463142
 31
0.0
  0
LINE
  5
53
  8
1
 62
     7
 10
676.04364529963971
 20
413.15277233437939
 30
0.0
 11
675.42331733450203
 21
412.53244436924109
 31
0.0
  0
LINE
  5
54
  8
1
 62
     7
 10
677.08505108070187
 20
407.1231103035762
 30
0.0
 11
679.57917920557236
 21
409.61723842844663
 31
0.0
  0
LINE
  5
55
  8
1
 62
     7
 10
683.0
 20
401.99999999999977
 30
0.0
 11
679.24964589164085
 21
401.99999999999977
 31
0.0
  0
LINE
  5
56
  8
1
 62
     7
 10
670.85121655209355
 20
422.10247921056418
 30
0.0
 11
669.94857538778081
 21
421.19983804625122
 31
0.0
  0
LINE
  5
57
  8
1
 62
     7
 10
668.4181683865578
 20
426.74049885689408
 30
0.0
 11
666.63797398084171
 21
424.96030445117879
 31
0.0
  0
LINE
  5
58
  8
1
 62
     7
 10
656.70167057247875
 20
297.76279552158809
 30
0.0
 11
658.17514421272199
 21
296.28932188134519
 31
0.0
  0
LINE
  5
59
  8
1
 62
     7
 10
650.74049885689385
 20
289.58183161344181
 30
0.0
 11
648.96030445117879
 21
291.3620260191571
 31
0.0
  0
LINE
  5
5A
  8
1
 62
     7
 10
646.10247921056373
 20
287.14878344790651
 30
0.0
 11
645.19983804625178
 21
288.05142461221931
 31
0.0
  0
LINE
  5
5B
  8
1
 62
     7
 10
640.45159220425182
 20
285.72860264235379
 30
0.0
 11
642.56694530463085
 21
283.61324954197357
 31
0.0
  0
LINE
  5
5C
  8
1
 62
     7
 10
637.15277233437871
 20
281.95635470036018
 30
0.0
 11
636.53244436924092
 21
282.57668266549882
 31
0.0
  0
LINE
  5
5D
  8
1
 62
     7
 10
631.1231103035758
 20
280.9149489192979
 30
0.0
 11
633.61723842844685
 21
278.42082079442741
 31
0.0
  0
LINE
  5
5E
  8
1
 62
     7
 10
661.71067811865487
 20
299.82485578727773
 30
0.0
 11
660.23720447841208
 21
301.29832942752063
 31
0.0
  0
LINE
  5
5F
  8
1
 62
     7
 10
663.69859001177713
 20
304.90801170602128
 30
0.0
 11
664.8826344806248
 21
303.7239672371731
 31
0.0
  0
LINE
  5
60
  8
1
 62
     7
 10
654.27603276282673
 20
293.1173655193748
 30
0.0
 11
653.09198829397883
 21
294.30140998822282
 31
0.0
  0
LINE
  5
61
  8
1
 62
     7
 10
626.0
 20
274.99999999999989
 30
0.0
 11
626.0
 21
278.75035410835932
 31
0.0
  0
LINE
  5
62
  8
1
 62
     7
 10
674.38675045802574
 20
315.43305469536853
 30
0.0
 11
672.27139735764615
 21
317.54840779574857
 31
0.0
  0
LINE
  5
63
  8
1
 62
     7
 10
675.42331733450203
 20
321.4675556307588
 30
0.0
 11
676.04364529963971
 21
320.84722766562032
 31
0.0
  0
LINE
  5
64
  8
1
 62
     7
 10
679.57917920557293
 20
324.38276157155332
 30
0.0
 11
677.08505108070187
 21
326.87688969642358
 31
0.0
  0
LINE
  5
65
  8
1
 62
     7
 10
679.24964589164085
 20
332.0
 30
0.0
 11
683.0
 21
332.0
 31
0.0
  0
LINE
  5
66
  8
1
 62
     7
 10
669.94857538778081
 20
312.80016195374861
 30
0.0
 11
670.85121655209377
 21
311.8975207894357
 31
0.0
  0
LINE
  5
67
  8
1
 62
     7
 10
666.63797398084171
 20
309.03969554882099
 30
0.0
 11
668.4181683865578
 21
307.25950114310569
 31
0.0
  0
LINE
  5
68
  8
1
 62
     7
 10
523.82485578727801
 20
296.28932188134519
 30
0.0
 11
525.29832942752091
 21
297.76279552158809
 31
0.0
  0
LINE
  5
69
  8
1
 62
     7
 10
533.03969554882076
 20
291.3620260191571
 30
0.0
 11
531.25950114310604
 21
289.58183161344192
 31
0.0
  0
LINE
  5
6A
  8
1
 62
     7
 10
536.80016195374901
 20
288.05142461221931
 30
0.0
 11
535.89752078943593
 21
287.14878344790651
 31
0.0
  0
LINE
  5
6B
  8
1
 62
     7
 10
539.43305469536904
 20
283.61324954197357
 30
0.0
 11
541.54840779574886
 21
285.72860264235379
 31
0.0
  0
LINE
  5
6C
  8
1
 62
     7
 10
545.46755563075885
 20
282.57668266549882
 30
0.0
 11
544.84722766562095
 21
281.95635470036018
 31
0.0
  0
LINE
  5
6D
  8
1
 62
     7
 10
548.38276157155292
 20
278.42082079442741
 30
0.0
 11
550.87688969642375
 21
280.9149489192979
 31
0.0
  0
LINE
  5
6E
  8
1
 62
     7
 10
521.76279552158803
 20
301.29832942752063
 30
0.0
 11
520.2893218813449
 21
299.82485578727773
 31
0.0
  0
LINE
  5
6F
  8
1
 62
     7
 10
517.11736551937486
 20
303.7239672371731
 30
0.0
 11
518.3014099882239
 21
304.90801170602128
 31
0.0
  0
LINE
  5
70
  8
1
 62
     7
 10
513.58183161344175
 20
307.25950114310569
 30
0.0
 11
515.36202601915693
 21
309.03969554882099
 31
0.0
  0
LINE
  5
71
  8
1
 62
     7
 10
511.148783447906
 20
311.8975207894357
 30
0.0
 11
512.05142461221885
 21
312.80016195374861
 31
0.0
  0
LINE
  5
72
  8
1
 62
     7
 10
509.72860264235391
 20
317.54840779574857
 30
0.0
 11
507.61324954197403
 21
315.43305469536853
 31
0.0
  0
LINE
  5
73
  8
1
 62
     7
 10
505.9563547003599
 20
320.84722766562032
 30
0.0
 11
506.57668266549888
 21
321.4675556307588
 31
0.0
  0
LINE
  5
74
  8
1
 62
     7
 10
504.91494891929892
 20
326.87688969642358
 30
0.0
 11
502.42082079442798
 21
324.38276157155332
 31
0.0
  0
LINE
  5
75
  8
1
 62
     7
 10
499.0
 20
332.0
 30
0.0
 11
502.75035410835977
 21
332.0
 31
0.0
  0
LINE
  5
76
  8
1
 62
     7
 10
528.90801170602094
 20
294.30140998822282
 30
0.0
 11
527.7239672371727
 21
293.1173655193748
 31
0.0
  0
LINE
  5
77
  8
1
 62
     7
 10
556.0
 20
278.75035410835932
 30
0.0
 11
556.0
 21
274.99999999999989
 31
0.0
  0
LINE
  5
78
  8
1
 62
     7
 10
260.0
 20
460.0
 30
0.0
 11
264.0
 21
460.0
 31
0.0
  0
LINE
  5
79
  8
1
 62
     7
 10
202.0
 20
462.0
 30
0.0
 11
260.0
 21
462.0
 31
0.0
  0
LINE
  5
7A
  8
1
 62
     7
 10
260.00000000000011
 20
274.0
 30
0.0
 11
264.0
 21
274.0
 31
0.0
  0
LINE
  5
7B
  8
1
 62
     7
 10
264.0
 20
286.5
 30
0.0
 11
264.00000000000011
 21
272.0
 31
0.0
  0
LINE
  5
7C
  8
1
 62
     7
 10
225.5000000000002
 20
271.99999999999989
 30
0.0
 11
260.00000000000011
 21
272.0
 31
0.0
  0
LINE
  5
7D
  8
1
 62
     7
 10
298.50000000000011
 20
272.0
 30
0.0
 11
264.00000000000011
 21
272.0
 31
0.0
  0
LINE
  5
7E
  8
1
  6
DASHED
 62
     7
 10
673.36212410038979
 20
321.66853680071938
 30
0.0
 11
685.63787589961009
 21
344.33146319928062
 31
0.0
  0
LINE
  5
7F
  8
1
 62
     7
 10
623.0
 20
462.0
 30
0.0
 11
559.0
 21
462.0
 31
0.0
  0
LINE
  5
80
  8
1
 62
     7
 10
496.0
 20
398.99999999999977
 30
0.0
 11
496.0
 21
265.0
 31
0.0
  0
LINE
  5
81
  8
1
  6
DASHED
 62
     3
 10
406.00000000000011
 20
371.0
 30
0.0
 11
404.61435935394502
 21
370.19999999999987
 31
0.0
  0
LINE
  5
82
  8
1
  6
DASHED
 62
     3
 10
406.00000000000011
 20
363.0
 30
0.0
 11
404.61435935394502
 21
363.80000000000001
 31
0.0
  0
LINE
  5
83
  8
1
  6
DASHED
 62
     3
 10
406.00000000000011
 20
371.0
 30
0.0
 11
422.00000000000011
 21
371.0
 31
0.0
  0
LINE
  5
84
  8
1
  6
DASHED
 62
     3
 10
406.00000000000011
 20
363.0
 30
0.0
 11
406.00000000000011
 21
371.0
 31
0.0
  0
LINE
  5
85
  8
1
  6
DASHED
 62
     3
 10
422.00000000000011
 20
363.0
 30
0.0
 11
406.00000000000011
 21
363.0
 31
0.0
  0
LINE
  5
86
  8
1
  6
DASHED
 62
     7
 10
397.29059892324159
 20
367.0
 30
0.0
 11
399.60000000000008
 21
370.19999999999987
 31
0.0
  0
LINE
  5
87
  8
1
  6
DASHED
 62
     7
 10
399.60000000000008
 20
363.80000000000001
 30
0.0
 11
397.29059892324159
 21
367.0
 31
0.0
  0
LINE
  5
88
  8
1
  6
DASHED
 62
     7
 10
399.60000000000008
 20
370.19999999999987
 30
0.0
 11
422.00000000000011
 21
370.19999999999987
 31
0.0
  0
LINE
  5
89
  8
1
  6
DASHED
 62
     7
 10
399.60000000000008
 20
363.80000000000001
 30
0.0
 11
399.60000000000008
 21
370.19999999999987
 31
0.0
  0
LINE
  5
8A
  8
1
  6
DASHED
 62
     7
 10
422.00000000000011
 20
363.80000000000001
 30
0.0
 11
399.60000000000008
 21
363.80000000000001
 31
0.0
  0
LINE
  5
8B
  8
1
 62
     7
 10
686.0
 20
265.0
 30
0.0
 11
686.00000000000011
 21
398.99999999999977
 31
0.0
  0
LINE
  5
8C
  8
1
 62
     7
 10
496.0
 20
265.0
 30
0.0
 11
546.0
 21
265.0
 31
0.0
  0
LINE
  5
8D
  8
1
 62
     7
 10
587.0
 20
382.5
 30
0.0
 11
587.0
 21
375.49999999999989
 31
0.0
  0
LINE
  5
8E
  8
1
 62
     7
 10
595.0
 20
382.5
 30
0.0
 11
587.0
 21
382.5
 31
0.0
  0
LINE
  5
8F
  8
1
 62
     7
 10
595.0
 20
375.49999999999989
 30
0.0
 11
595.0
 21
382.5
 31
0.0
  0
LINE
  5
90
  8
1
 62
     7
 10
587.0
 20
375.49999999999989
 30
0.0
 11
595.0
 21
375.49999999999989
 31
0.0
  0
LINE
  5
91
  8
1
 62
     7
 10
588.0
 20
348.20306154330081
 30
0.0
 11
585.60000000000002
 21
348.20306154330081
 31
0.0
  0
LINE
  5
92
  8
1
 62
     7
 10
588.0
 20
352.30306154330083
 30
0.0
 11
588.0
 21
348.20306154330081
 31
0.0
  0
LINE
  5
93
  8
1
 62
     7
 10
594.0
 20
348.20306154330081
 30
0.0
 11
596.39999999999986
 21
348.20306154330081
 31
0.0
  0
LINE
  5
94
  8
1
 62
     7
 10
594.0
 20
352.30306154330083
 30
0.0
 11
594.0
 21
348.20306154330081
 31
0.0
  0
LINE
  5
95
  8
1
 62
     7
 10
583.60000000000002
 20
350.20306154330081
 30
0.0
 11
583.60000000000002
 21
351.06970845301169
 31
0.0
  0
LINE
  5
96
  8
1
 62
     7
 10
598.39999999999986
 20
350.20306154330081
 30
0.0
 11
598.39999999999986
 21
351.06970845301169
 31
0.0
  0
LINE
  5
97
  8
1
 62
     7
 10
326.4789396203098
 20
434.13003551746482
 30
0.0
 11
331.68347775862981
 21
431.06854249492369
 31
0.0
  0
LINE
  5
98
  8
1
 62
     7
 10
322.00000000000011
 20
462.0
 30
0.0
 11
264.0
 21
462.0
 31
0.0
  0
LINE
  5
99
  8
1
 62
     7
 10
377.00000000000011
 20
352.0
 30
0.0
 11
373.50000000000011
 21
352.0
 31
0.0
  0
LINE
  5
9A
  8
1
 62
     7
 10
377.00000000000011
 20
382.0
 30
0.0
 11
373.50000000000011
 21
382.0
 31
0.0
  0
LINE
  5
9B
  8
1
 62
     7
 10
370.00000000000011
 20
406.0
 30
0.0
 11
344.00000000000011
 21
406.0
 31
0.0
  0
LINE
  5
9C
  8
1
 62
     7
 10
372.00000000000011
 20
404.0
 30
0.0
 11
372.00000000000011
 21
330.0
 31
0.0
  0
LINE
  5
9D
  8
1
 62
     7
 10
373.50000000000011
 20
348.20306154330081
 30
0.0
 11
372.00000000000011
 21
348.20306154330081
 31
0.0
  0
LINE
  5
9E
  8
1
 62
     7
 10
373.50000000000011
 20
384.80000000000001
 30
0.0
 11
373.50000000000011
 21
348.20306154330081
 31
0.0
  0
LINE
  5
9F
  8
1
 62
     7
 10
372.00000000000011
 20
384.80000000000001
 30
0.0
 11
373.50000000000011
 21
384.80000000000001
 31
0.0
  0
LINE
  5
A0
  8
1
 62
     7
 10
377.00000000000011
 20
382.0
 30
0.0
 11
377.00000000000011
 21
352.0
 31
0.0
  0
LINE
  5
A1
  8
1
 62
     7
 10
421.00000000000011
 20
354.49999999999989
 30
0.0
 11
377.00000000000011
 21
354.49999999999989
 31
0.0
  0
LINE
  5
A2
  8
1
  6
DASHED
 62
     7
 10
382.00000000000011
 20
375.49999999999989
 30
0.0
 11
422.00000000000011
 21
375.49999999999989
 31
0.0
  0
LINE
  5
A3
  8
1
  6
DASHED
 62
     7
 10
382.00000000000011
 20
379.49999999999989
 30
0.0
 11
382.00000000000011
 21
375.49999999999989
 31
0.0
  0
LINE
  5
A4
  8
1
 62
     7
 10
382.00000000000011
 20
382.5
 30
0.0
 11
382.00000000000011
 21
379.49999999999989
 31
0.0
  0
LINE
  5
A5
  8
1
 62
     7
 10
422.00000000000011
 20
382.5
 30
0.0
 11
382.00000000000011
 21
382.5
 31
0.0
  0
LINE
  5
A6
  8
1
 62
     7
 10
421.00000000000011
 20
379.49999999999989
 30
0.0
 11
377.00000000000011
 21
379.49999999999989
 31
0.0
  0
LINE
  5
A7
  8
1
 62
     7
 10
422.00000000000011
 20
382.5
 30
0.0
 11
422.00000000000011
 21
355.5
 31
0.0
  0
LINE
  5
A8
  8
1
 62
     7
 10
421.00000000000011
 20
354.49999999999989
 30
0.0
 11
422.00000000000011
 21
355.5
 31
0.0
  0
LINE
  5
A9
  8
1
 62
     7
 10
421.00000000000011
 20
379.49999999999989
 30
0.0
 11
421.00000000000011
 21
354.49999999999989
 31
0.0
  0
LINE
  5
AA
  8
1
 62
     7
 10
421.00000000000011
 20
379.49999999999989
 30
0.0
 11
422.00000000000011
 21
378.5
 31
0.0
  0
LINE
  5
AB
  8
1
  6
DASHDOT
 62
     3
 10
432.00000000000023
 20
367.0
 30
0.0
 11
394.60000000000008
 21
367.0
 31
0.0
  0
LINE
  5
AC
  8
1
 62
     7
 10
345.00000000000011
 20
328.0
 30
0.0
 11
370.00000000000011
 21
328.0
 31
0.0
  0
LINE
  5
AD
  8
1
 62
     7
 10
340.52106037969031
 20
308.13003551746482
 30
0.0
 11
331.91817636526861
 21
303.06951550898151
 31
0.0
  0
LINE
  5
AE
  8
1
 62
     7
 10
342.00000000000011
 20
310.7158381629381
 30
0.0
 11
342.00000000000011
 21
423.28416183706179
 31
0.0
  0
LINE
  5
AF
  8
1
 62
     7
 10
345.09653809232418
 20
280.0
 30
0.0
 11
370.00000000000011
 21
280.0
 31
0.0
  0
LINE
  5
B0
  8
1
 62
     7
 10
372.00000000000011
 20
278.0
 30
0.0
 11
372.00000000000011
 21
265.0
 31
0.0
  0
LINE
  5
B1
  8
1
 62
     7
 10
372.00000000000011
 20
265.0
 30
0.0
 11
301.50000000000011
 21
265.0
 31
0.0
  0
LINE
  5
B2
  8
1
 62
     7
 10
255.0000000000002
 20
320.99999999999989
 30
0.0
 11
227.5000000000002
 21
321.0
 31
0.0
  0
LINE
  5
B3
  8
1
 62
     7
 10
257.00000000000011
 20
272.0
 30
0.0
 11
257.00000000000011
 21
280.60805774315719
 31
0.0
  0
LINE
  5
B4
  8
1
 62
     7
 10
267.00000000000011
 20
272.0
 30
0.0
 11
267.00000000000011
 21
280.60805774315821
 31
0.0
  0
LINE
  5
B5
  8
1
 62
     7
 10
258.00000000000011
 20
345.0
 30
0.0
 11
227.5000000000002
 21
344.99999999999977
 31
0.0
  0
LINE
  5
B6
  8
1
 62
     7
 10
296.50000000000011
 20
344.99999999999977
 30
0.0
 11
266.5
 21
345.0
 31
0.0
  0
LINE
  5
B7
  8
1
 62
     7
 10
296.50000000000011
 20
321.00000000000011
 30
0.0
 11
269.00000000000011
 21
320.99999999999989
 31
0.0
  0
LINE
  5
B8
  8
1
 62
     7
 10
301.50000000000011
 20
342.0
 30
0.0
 11
301.50000000000011
 21
265.0
 31
0.0
  0
LINE
  5
B9
  8
1
 62
     7
 10
222.50000000000011
 20
342.0
 30
0.0
 11
222.50000000000011
 21
265.0
 31
0.0
  0
LINE
  5
BA
  8
1
 62
     7
 10
636.0
 20
265.0
 30
0.0
 11
636.0
 21
269.0
 31
0.0
  0
LINE
  5
BB
  8
1
 62
     7
 10
654.1243556529821
 20
280.0
 30
0.0
 11
684.0
 21
280.0
 31
0.0
  0
LINE
  5
BC
  8
1
  6
DASHED
 62
     7
 10
676.5
 20
280.0
 30
0.0
 11
676.5
 21
265.0
 31
0.0
  0
LINE
  5
BD
  8
1
  6
DASHED
 62
     7
 10
665.5
 20
265.0
 30
0.0
 11
665.5
 21
280.0
 31
0.0
  0
LINE
  5
BE
  8
1
  6
DASHDOT
 62
     3
 10
671.0
 20
283.0
 30
0.0
 11
671.0
 21
262.0
 31
0.0
  0
LINE
  5
BF
  8
1
 62
     7
 10
549.0
 20
272.0
 30
0.0
 11
633.0
 21
272.0
 31
0.0
  0
LINE
  5
C0
  8
1
 62
     7
 10
652.62435565298222
 20
279.59807621135337
 30
0.0
 11
637.5
 21
270.86602540378442
 31
0.0
  0
LINE
  5
C1
  8
1
 62
     7
 10
498.0
 20
280.0
 30
0.0
 11
527.87564434701756
 21
280.0
 31
0.0
  0
LINE
  5
C2
  8
1
  6
DASHED
 62
     7
 10
505.49999999999989
 20
265.0
 30
0.0
 11
505.49999999999989
 21
280.0
 31
0.0
  0
LINE
  5
C3
  8
1
  6
DASHED
 62
     7
 10
516.5
 20
280.0
 30
0.0
 11
516.5
 21
265.0
 31
0.0
  0
LINE
  5
C4
  8
1
 62
     7
 10
544.5
 20
270.86602540378442
 30
0.0
 11
529.37564434701778
 21
279.59807621135337
 31
0.0
  0
LINE
  5
C5
  8
1
 62
     7
 10
546.0
 20
269.0
 30
0.0
 11
546.0
 21
265.0
 31
0.0
  0
LINE
  5
C6
  8
1
 62
     7
 10
636.0
 20
265.0
 30
0.0
 11
686.0
 21
265.0
 31
0.0
  0
LINE
  5
C7
  8
1
  6
DASHDOT
 62
     3
 10
511.00000000000023
 20
262.0
 30
0.0
 11
511.00000000000023
 21
283.0
 31
0.0
  0
LINE
  5
C8
  8
1
 62
     7
 10
504.0
 20
304.0
 30
0.0
 11
504.0
 21
283.0
 31
0.0
  0
LINE
  5
C9
  8
1
 62
     7
 10
504.0
 20
307.0
 30
0.0
 11
497.5
 21
307.0
 31
0.0
  0
LINE
  5
CA
  8
1
 62
     7
 10
678.00000000000023
 20
283.0
 30
0.0
 11
678.00000000000023
 21
304.0
 31
0.0
  0
LINE
  5
CB
  8
1
 62
     7
 10
684.50000000000023
 20
307.0
 30
0.0
 11
678.00000000000023
 21
307.0
 31
0.0
  0
LINE
  5
CC
  8
1
  6
DASHED
 62
     7
 10
362.50000000000011
 20
280.0
 30
0.0
 11
362.50000000000011
 21
265.0
 31
0.0
  0
LINE
  5
CD
  8
1
  6
DASHED
 62
     7
 10
351.50000000000011
 20
265.0
 30
0.0
 11
351.50000000000011
 21
280.0
 31
0.0
  0
LINE
  5
CE
  8
1
  6
DASHDOT
 62
     3
 10
357.00000000000011
 20
283.0
 30
0.0
 11
357.00000000000011
 21
262.0
 31
0.0
  0
LINE
  5
CF
  8
1
 62
     7
 10
652.87577027095415
 20
428.87577027095381
 30
0.0
 11
645.62596230522649
 21
430.8183504606514
 31
0.0
  0
LINE
  5
D0
  8
1
 62
     7
 10
645.62596230522649
 20
430.8183504606514
 30
0.0
 11
640.31873452919615
 21
425.51112268462128
 31
0.0
  0
LINE
  5
D1
  8
1
 62
     7
 10
640.31873452919615
 20
425.51112268462128
 30
0.0
 11
642.26131471889335
 21
418.26131471889357
 31
0.0
  0
LINE
  5
D2
  8
1
 62
     7
 10
642.26131471889335
 20
418.26131471889357
 30
0.0
 11
649.51112268462111
 21
416.31873452919598
 31
0.0
  0
LINE
  5
D3
  8
1
 62
     7
 10
649.51112268462111
 20
416.31873452919598
 30
0.0
 11
654.81835046065135
 21
421.62596230522621
 31
0.0
  0
LINE
  5
D4
  8
1
 62
     7
 10
654.81835046065135
 20
421.62596230522621
 30
0.0
 11
652.87577027095415
 21
428.87577027095381
 31
0.0
  0
LINE
  5
D5
  8
1
 62
     7
 10
529.12422972904585
 20
428.87577027095438
 30
0.0
 11
527.18164953934843
 21
421.62596230522661
 31
0.0
  0
LINE
  5
D6
  8
1
 62
     7
 10
527.18164953934843
 20
421.62596230522661
 30
0.0
 11
532.48887731537855
 21
416.31873452919632
 31
0.0
  0
LINE
  5
D7
  8
1
 62
     7
 10
532.48887731537855
 20
416.31873452919632
 30
0.0
 11
539.73868528110609
 21
418.26131471889357
 31
0.0
  0
LINE
  5
D8
  8
1
 62
     7
 10
539.73868528110609
 20
418.26131471889357
 30
0.0
 11
541.68126547080385
 21
425.51112268462128
 31
0.0
  0
LINE
  5
D9
  8
1
 62
     7
 10
541.68126547080385
 20
425.51112268462128
 30
0.0
 11
536.37403769477373
 21
430.81835046065169
 31
0.0
  0
LINE
  5
DA
  8
1
 62
     7
 10
536.37403769477373
 20
430.81835046065169
 30
0.0
 11
529.12422972904585
 21
428.87577027095438
 31
0.0
  0
LINE
  5
DB
  8
1
 62
     7
 10
529.1242297290454
 20
305.12422972904608
 30
0.0
 11
536.37403769477305
 21
303.18164953934843
 31
0.0
  0
LINE
  5
DC
  8
1
 62
     7
 10
536.37403769477305
 20
303.18164953934843
 30
0.0
 11
541.68126547080351
 21
308.4888773153786
 31
0.0
  0
LINE
  5
DD
  8
1
 62
     7
 10
541.68126547080351
 20
308.4888773153786
 30
0.0
 11
539.73868528110609
 21
315.73868528110631
 31
0.0
  0
LINE
  5
DE
  8
1
 62
     7
 10
539.73868528110609
 20
315.73868528110631
 30
0.0
 11
532.48887731537855
 21
317.68126547080391
 31
0.0
  0
LINE
  5
DF
  8
1
 62
     7
 10
532.48887731537855
 20
317.68126547080391
 30
0.0
 11
527.1816495393482
 21
312.37403769477379
 31
0.0
  0
LINE
  5
E0
  8
1
 62
     7
 10
527.1816495393482
 20
312.37403769477379
 30
0.0
 11
529.1242297290454
 21
305.12422972904608
 31
0.0
  0
LINE
  5
E1
  8
1
 62
     7
 10
652.87577027095347
 20
305.12422972904562
 30
0.0
 11
654.81835046065112
 21
312.37403769477339
 31
0.0
  0
LINE
  5
E2
  8
1
 62
     7
 10
654.81835046065112
 20
312.37403769477339
 30
0.0
 11
649.51112268462111
 21
317.68126547080368
 31
0.0
  0
LINE
  5
E3
  8
1
 62
     7
 10
649.51112268462111
 20
317.68126547080368
 30
0.0
 11
642.26131471889335
 21
315.73868528110631
 31
0.0
  0
LINE
  5
E4
  8
1
 62
     7
 10
642.26131471889335
 20
315.73868528110631
 30
0.0
 11
640.31873452919581
 21
308.48887731537872
 31
0.0
  0
LINE
  5
E5
  8
1
 62
     7
 10
640.31873452919581
 20
308.48887731537872
 30
0.0
 11
645.6259623052257
 21
303.18164953934831
 31
0.0
  0
LINE
  5
E6
  8
1
 62
     7
 10
645.6259623052257
 20
303.18164953934831
 30
0.0
 11
652.87577027095347
 21
305.12422972904562
 31
0.0
  0
LINE
  5
E7
  8
1
 62
     7
 10
326.00000000000011
 20
318.4314575050762
 30
0.0
 11
327.00000000000011
 21
318.4314575050762
 31
0.0
  0
LINE
  5
E8
  8
1
 62
     7
 10
327.00000000000011
 20
318.4314575050762
 30
0.0
 11
327.00000000000011
 21
302.4314575050762
 31
0.0
  0
LINE
  5
E9
  8
1
 62
     7
 10
195.0
 20
310.4314575050762
 30
0.0
 11
197.0
 21
312.4314575050762
 31
0.0
  0
LINE
  5
EA
  8
1
 62
     7
 10
195.0
 20
308.4314575050762
 30
0.0
 11
197.0
 21
310.4314575050762
 31
0.0
  0
LINE
  5
EB
  8
1
 62
     7
 10
195.0
 20
318.13145750507618
 30
0.0
 11
197.0
 21
318.13145750507618
 31
0.0
  0
LINE
  5
EC
  8
1
 62
     7
 10
195.0
 20
318.13145750507618
 30
0.0
 11
195.0
 21
302.73145750507621
 31
0.0
  0
LINE
  5
ED
  8
1
 62
     7
 10
197.0
 20
302.73145750507621
 30
0.0
 11
195.0
 21
302.73145750507621
 31
0.0
  0
LINE
  5
EE
  8
1
 62
     7
 10
326.00000000000011
 20
302.4314575050762
 30
0.0
 11
327.00000000000011
 21
302.4314575050762
 31
0.0
  0
LINE
  5
EF
  8
1
 62
     7
 10
332.50000000000011
 20
316.0564575050762
 30
0.0
 11
332.50000000000011
 21
304.8064575050762
 31
0.0
  0
LINE
  5
F0
  8
1
 62
     7
 10
331.80717967697262
 20
317.93145750507608
 30
0.0
 11
327.00000000000011
 21
317.93145750507608
 31
0.0
  0
LINE
  5
F1
  8
1
 62
     7
 10
331.80717967697262
 20
314.1814575050762
 30
0.0
 11
327.00000000000011
 21
314.1814575050762
 31
0.0
  0
LINE
  5
F2
  8
1
 62
     7
 10
331.80717967697262
 20
306.6814575050762
 30
0.0
 11
327.00000000000011
 21
306.6814575050762
 31
0.0
  0
LINE
  5
F3
  8
1
 62
     7
 10
331.80717967697262
 20
302.93145750507608
 30
0.0
 11
327.00000000000011
 21
302.93145750507608
 31
0.0
  0
LINE
  5
F4
  8
1
 62
     7
 10
331.68347775862981
 20
302.93145750507608
 30
0.0
 11
326.4789396203098
 21
299.86996448253512
 31
0.0
  0
LINE
  5
F5
  8
1
  6
DASHED
 62
     3
 10
119.38564064605519
 20
370.19999999999987
 30
0.0
 11
118.0
 21
371.0
 31
0.0
  0
LINE
  5
F6
  8
1
  6
DASHED
 62
     3
 10
119.38564064605519
 20
363.80000000000001
 30
0.0
 11
118.0
 21
363.0
 31
0.0
  0
LINE
  5
F7
  8
1
  6
DASHED
 62
     3
 10
102.0
 20
371.0
 30
0.0
 11
118.0
 21
371.0
 31
0.0
  0
LINE
  5
F8
  8
1
  6
DASHED
 62
     3
 10
118.0
 20
371.0
 30
0.0
 11
118.0
 21
363.0
 31
0.0
  0
LINE
  5
F9
  8
1
  6
DASHED
 62
     3
 10
118.0
 20
363.0
 30
0.0
 11
102.0
 21
363.0
 31
0.0
  0
LINE
  5
FA
  8
1
  6
DASHED
 62
     7
 10
124.39999999999991
 20
370.19999999999987
 30
0.0
 11
126.7094010767584
 21
367.0
 31
0.0
  0
LINE
  5
FB
  8
1
  6
DASHED
 62
     7
 10
126.7094010767584
 20
367.0
 30
0.0
 11
124.39999999999991
 21
363.80000000000001
 31
0.0
  0
LINE
  5
FC
  8
1
  6
DASHED
 62
     7
 10
102.0
 20
370.19999999999987
 30
0.0
 11
124.39999999999991
 21
370.19999999999987
 31
0.0
  0
LINE
  5
FD
  8
1
  6
DASHED
 62
     7
 10
124.39999999999991
 20
370.19999999999987
 30
0.0
 11
124.39999999999991
 21
363.80000000000001
 31
0.0
  0
LINE
  5
FE
  8
1
  6
DASHED
 62
     7
 10
124.39999999999991
 20
363.80000000000001
 30
0.0
 11
102.0
 21
363.80000000000001
 31
0.0
  0
LINE
  5
FF
  8
1
 62
     7
 10
150.5
 20
352.0
 30
0.0
 11
147.0
 21
352.0
 31
0.0
  0
LINE
  5
100
  8
1
 62
     7
 10
152.0
 20
348.20306154330081
 30
0.0
 11
150.5
 21
348.20306154330081
 31
0.0
  0
LINE
  5
101
  8
1
 62
     7
 10
147.0
 20
354.49999999999989
 30
0.0
 11
103.0
 21
354.49999999999989
 31
0.0
  0
LINE
  5
102
  8
1
 62
     7
 10
102.0
 20
355.5
 30
0.0
 11
103.0
 21
354.49999999999989
 31
0.0
  0
LINE
  5
103
  8
1
 62
     7
 10
154.0
 20
328.0
 30
0.0
 11
179.0
 21
328.0
 31
0.0
  0
LINE
  5
104
  8
1
 62
     7
 10
152.0
 20
265.0
 30
0.0
 11
152.0
 21
278.0
 31
0.0
  0
LINE
  5
105
  8
1
  6
DASHED
 62
     7
 10
161.5
 20
265.0
 30
0.0
 11
161.5
 21
280.0
 31
0.0
  0
LINE
  5
106
  8
1
  6
DASHED
 62
     7
 10
172.5
 20
280.0
 30
0.0
 11
172.5
 21
265.0
 31
0.0
  0
LINE
  5
107
  8
1
  6
DASHDOT
 62
     3
 10
167.0
 20
262.0
 30
0.0
 11
167.0
 21
283.0
 31
0.0
  0
LINE
  5
108
  8
1
 62
     7
 10
199.0
 20
459.0
 30
0.0
 11
199.0
 21
296.03125
 31
0.0
  0
LINE
  5
109
  8
1
 62
     7
 10
197.0
 20
318.4314575050762
 30
0.0
 11
198.0
 21
318.4314575050762
 31
0.0
  0
LINE
  5
10A
  8
1
 62
     7
 10
197.0
 20
302.4314575050762
 30
0.0
 11
197.0
 21
318.4314575050762
 31
0.0
  0
LINE
  5
10B
  8
1
 62
     7
 10
197.0
 20
302.4314575050762
 30
0.0
 11
198.0
 21
302.4314575050762
 31
0.0
  0
LINE
  5
10C
  8
1
 62
     7
 10
197.52106037969011
 20
299.86996448253512
 30
0.0
 11
192.31652224137039
 21
302.93145750507608
 31
0.0
  0
LINE
  5
10D
  8
1
 62
     7
 10
102.0
 20
355.5
 30
0.0
 11
102.0
 21
382.5
 31
0.0
  0
LINE
  5
10E
  8
1
 62
     7
 10
102.0
 20
355.5
 30
0.0
 11
103.0
 21
354.49999999999989
 31
0.0
  0
LINE
  5
10F
  8
1
 62
     7
 10
103.0
 20
354.49999999999989
 30
0.0
 11
103.0
 21
379.49999999999989
 31
0.0
  0
LINE
  5
110
  8
1
 62
     7
 10
102.0
 20
378.5
 30
0.0
 11
103.0
 21
379.49999999999989
 31
0.0
  0
LINE
  5
111
  8
1
 62
     7
 10
150.5
 20
352.0
 30
0.0
 11
147.0
 21
352.0
 31
0.0
  0
LINE
  5
112
  8
1
 62
     7
 10
150.5
 20
382.0
 30
0.0
 11
147.0
 21
382.0
 31
0.0
  0
LINE
  5
113
  8
1
 62
     7
 10
152.0
 20
348.20306154330081
 30
0.0
 11
150.5
 21
348.20306154330081
 31
0.0
  0
LINE
  5
114
  8
1
 62
     7
 10
150.5
 20
348.20306154330081
 30
0.0
 11
150.5
 21
384.80000000000001
 31
0.0
  0
LINE
  5
115
  8
1
 62
     7
 10
150.5
 20
384.80000000000001
 30
0.0
 11
152.0
 21
384.80000000000001
 31
0.0
  0
LINE
  5
116
  8
1
 62
     7
 10
147.0
 20
352.0
 30
0.0
 11
147.0
 21
382.0
 31
0.0
  0
LINE
  5
117
  8
1
  6
DASHED
 62
     7
 10
142.0
 20
375.49999999999989
 30
0.0
 11
142.0
 21
379.49999999999989
 31
0.0
  0
LINE
  5
118
  8
1
 62
     7
 10
142.0
 20
379.49999999999989
 30
0.0
 11
142.0
 21
382.5
 31
0.0
  0
LINE
  5
119
  8
1
 62
     7
 10
147.0
 20
379.49999999999989
 30
0.0
 11
103.0
 21
379.49999999999989
 31
0.0
  0
LINE
  5
11A
  8
1
  6
DASHED
 62
     7
 10
102.0
 20
375.49999999999989
 30
0.0
 11
142.0
 21
375.49999999999989
 31
0.0
  0
LINE
  5
11B
  8
1
 62
     7
 10
142.0
 20
382.5
 30
0.0
 11
102.0
 21
382.5
 31
0.0
  0
LINE
  5
11C
  8
1
 62
     7
 10
152.0
 20
330.0
 30
0.0
 11
152.0
 21
404.0
 31
0.0
  0
LINE
  5
11D
  8
1
 62
     7
 10
183.4789396203098
 20
425.86996448253518
 30
0.0
 11
188.49999999999989
 21
428.82352941176458
 31
0.0
  0
LINE
  5
11E
  8
1
 62
     7
 10
180.0
 20
406.0
 30
0.0
 11
154.0
 21
406.0
 31
0.0
  0
LINE
  5
11F
  8
1
 62
     7
 10
222.50000000000011
 20
265.0
 30
0.0
 11
152.0
 21
265.0
 31
0.0
  0
LINE
  5
120
  8
1
  6
DASHED
 62
     7
 10
496.36212410038968
 20
344.33146319928062
 30
0.0
 11
508.63787589961032
 21
321.66853680071938
 31
0.0
  0
LINE
  5
121
  8
1
  6
DASHED
 62
     7
 10
509.0
 20
320.23968735509709
 30
0.0
 11
509.0
 21
280.0
 31
0.0
  0
LINE
  5
122
  8
1
 62
     7
 10
212.0
 20
318.11499461858682
 30
0.0
 11
212.0
 21
308.39395401539832
 31
0.0
  0
LINE
  5
123
  8
1
 62
     7
 10
201.0
 20
320.11499461858682
 30
0.0
 11
210.0
 21
320.11499461858682
 31
0.0
  0
LINE
  5
124
  8
1
 62
     7
 10
180.83807472530529
 20
280.70712554947642
 30
0.0
 11
210.9346128176293
 21
306.10107956487479
 31
0.0
  0
LINE
  5
125
  8
1
 62
     7
 10
154.0
 20
280.0
 30
0.0
 11
178.90346190767599
 21
280.0
 31
0.0
  0
LINE
  5
126
  8
1
 62
     7
 10
188.49999999999989
 20
304.8064575050762
 30
0.0
 11
188.49999999999989
 21
316.0564575050762
 31
0.0
  0
LINE
  5
127
  8
1
 62
     7
 10
189.22168783648701
 20
302.93145750507608
 30
0.0
 11
194.27831216351291
 21
302.93145750507608
 31
0.0
  0
LINE
  5
128
  8
1
 62
     7
 10
189.22168783648701
 20
306.6814575050762
 30
0.0
 11
194.27831216351291
 21
306.6814575050762
 31
0.0
  0
LINE
  5
129
  8
1
 62
     7
 10
189.22168783648701
 20
314.1814575050762
 30
0.0
 11
194.27831216351291
 21
314.1814575050762
 31
0.0
  0
LINE
  5
12A
  8
1
 62
     7
 10
189.22168783648701
 20
317.93145750507608
 30
0.0
 11
194.27831216351291
 21
317.93145750507608
 31
0.0
  0
LINE
  5
12B
  8
1
 62
     7
 10
183.4789396203098
 20
308.13003551746482
 30
0.0
 11
188.49999999999989
 21
305.17647058823519
 31
0.0
  0
LINE
  5
12C
  8
1
 62
     7
 10
188.49999999999989
 20
314.4314575050762
 30
0.0
 11
187.8000000000001
 21
314.4314575050762
 31
0.0
  0
LINE
  5
12D
  8
1
 62
     7
 10
187.8000000000001
 20
314.4314575050762
 30
0.0
 11
187.0
 21
313.63145750507613
 31
0.0
  0
LINE
  5
12E
  8
1
 62
     7
 10
187.0
 20
313.63145750507613
 30
0.0
 11
187.0
 21
307.23145750507621
 31
0.0
  0
LINE
  5
12F
  8
1
 62
     7
 10
187.0
 20
307.23145750507621
 30
0.0
 11
187.80000000000001
 21
306.4314575050762
 31
0.0
  0
LINE
  5
130
  8
1
 62
     7
 10
187.80000000000001
 20
306.4314575050762
 30
0.0
 11
188.49999999999989
 21
306.4314575050762
 31
0.0
  0
LINE
  5
131
  8
1
 62
     3
 10
188.49999999999989
 20
307.23145750507621
 30
0.0
 11
187.0
 21
307.23145750507621
 31
0.0
  0
LINE
  5
132
  8
1
 62
     7
 10
187.80000000000001
 20
306.4314575050762
 30
0.0
 11
187.8000000000001
 21
314.4314575050762
 31
0.0
  0
LINE
  5
133
  8
1
 62
     3
 10
188.49999999999989
 20
313.63145750507613
 30
0.0
 11
187.0
 21
313.63145750507613
 31
0.0
  0
LINE
  5
134
  8
1
 62
     7
 10
264.0
 20
462.0
 30
0.0
 11
264.0
 21
311.5
 31
0.0
  0
LINE
  5
135
  8
1
 62
     7
 10
312.00000000000011
 20
308.39395401539832
 30
0.0
 11
312.00000000000011
 21
318.11499461858682
 31
0.0
  0
LINE
  5
136
  8
1
 62
     7
 10
314.00000000000011
 20
320.11499461858682
 30
0.0
 11
323.00000000000011
 21
320.11499461858682
 31
0.0
  0
LINE
  5
137
  8
1
 62
     7
 10
313.06538718237078
 20
306.10107956487479
 30
0.0
 11
343.1619252746948
 21
280.70712554947642
 31
0.0
  0
LINE
  5
138
  8
1
 62
     7
 10
260.00000000000011
 20
286.5
 30
0.0
 11
260.00000000000011
 21
272.0
 31
0.0
  0
LINE
  5
139
  8
1
  6
DASHDOT
 62
     3
 10
591.0
 20
374.19178454782201
 30
0.0
 11
591.0
 21
358.87991600162098
 31
0.0
  0
LINE
  5
13A
  8
1
  6
DASHDOT
 62
     3
 10
598.71827861449901
 20
367.0
 30
0.0
 11
583.18369198035305
 21
367.0
 31
0.0
  0
LINE
  5
13B
  8
1
  6
DASHED
 62
     7
 10
673.0
 20
280.0
 30
0.0
 11
673.0
 21
320.23968735509709
 31
0.0
  0
LINE
  5
13C
  8
1
 62
     7
 10
182.0
 20
310.7158381629381
 30
0.0
 11
182.0
 21
423.28416183706179
 31
0.0
  0
LINE
  5
13D
  8
1
 62
     7
 10
325.00000000000011
 20
296.0140845070423
 30
0.0
 11
325.00000000000011
 21
459.0
 31
0.0
  0
LINE
  5
13E
  8
1
 62
     7
 10
260.0
 20
462.0
 30
0.0
 11
260.00000000000011
 21
311.5
 31
0.0
  0
LINE
  5
13F
  8
1
 62
     7
 10
199.0
 20
456.0
 30
0.0
 11
260.0
 21
456.0
 31
0.0
  0
LINE
  5
140
  8
1
 62
     7
 10
264.0
 20
456.0
 30
0.0
 11
325.00000000000011
 21
456.0
 31
0.0
  0
LINE
  5
141
  8
1
 62
     7
 10
325.00000000000011
 20
450.3867504580262
 30
0.0
 11
264.0
 21
450.3867504580262
 31
0.0
  0
LINE
  5
142
  8
1
 62
     7
 10
260.0
 20
450.3867504580262
 30
0.0
 11
199.0
 21
450.3867504580262
 31
0.0
  0
LINE
  5
143
  8
1
 62
     7
 10
199.0
 20
445.0
 30
0.0
 11
260.0
 21
445.0
 31
0.0
  0
LINE
  5
144
  8
1
 62
     7
 10
264.0
 20
445.0
 30
0.0
 11
325.00000000000011
 21
445.0
 31
0.0
  0
LINE
  5
145
  8
1
 62
     7
 10
325.00000000000011
 20
438.4429111656886
 30
0.0
 11
264.0
 21
438.4429111656886
 31
0.0
  0
LINE
  5
146
  8
1
 62
     7
 10
260.0
 20
438.4429111656886
 30
0.0
 11
199.0
 21
438.4429111656886
 31
0.0
  0
LINE
  5
147
  8
1
 62
     7
 10
199.0
 20
431.0
 30
0.0
 11
260.0
 21
431.0
 31
0.0
  0
LINE
  5
148
  8
1
 62
     7
 10
264.0
 20
431.0
 30
0.0
 11
325.00000000000011
 21
431.0
 31
0.0
  0
LINE
  5
149
  8
1
 62
     7
 10
325.00000000000011
 20
422.8347122575978
 30
0.0
 11
264.0
 21
422.8347122575978
 31
0.0
  0
LINE
  5
14A
  8
1
 62
     7
 10
260.0
 20
422.8347122575978
 30
0.0
 11
199.0
 21
422.8347122575978
 31
0.0
  0
LINE
  5
14B
  8
1
 62
     7
 10
199.0
 20
414.0
 30
0.0
 11
260.0
 21
414.0
 31
0.0
  0
LINE
  5
14C
  8
1
 62
     7
 10
264.0
 20
414.0
 30
0.0
 11
325.00000000000011
 21
414.0
 31
0.0
  0
LINE
  5
14D
  8
1
 62
     7
 10
325.00000000000011
 20
401.99999999999977
 30
0.0
 11
264.0
 21
401.99999999999977
 31
0.0
  0
LINE
  5
14E
  8
1
 62
     7
 10
260.00000000000011
 20
401.99999999999977
 30
0.0
 11
199.0
 21
401.99999999999977
 31
0.0
  0
LINE
  5
14F
  8
1
 62
     7
 10
327.00000000000011
 20
415.56854249492358
 30
0.0
 11
326.00000000000011
 21
415.56854249492358
 31
0.0
  0
LINE
  5
150
  8
1
 62
     7
 10
327.00000000000011
 20
431.56854249492358
 30
0.0
 11
327.00000000000011
 21
415.56854249492358
 31
0.0
  0
LINE
  5
151
  8
1
 62
     7
 10
197.0
 20
421.56854249492369
 30
0.0
 11
195.0
 21
423.56854249492358
 31
0.0
  0
LINE
  5
152
  8
1
 62
     7
 10
197.0
 20
423.56854249492358
 30
0.0
 11
195.0
 21
425.56854249492369
 31
0.0
  0
LINE
  5
153
  8
1
 62
     7
 10
197.0
 20
415.86854249492359
 30
0.0
 11
195.0
 21
415.86854249492359
 31
0.0
  0
LINE
  5
154
  8
1
 62
     7
 10
195.0
 20
431.26854249492362
 30
0.0
 11
195.0
 21
415.86854249492359
 31
0.0
  0
LINE
  5
155
  8
1
 62
     7
 10
195.0
 20
431.26854249492362
 30
0.0
 11
197.0
 21
431.26854249492362
 31
0.0
  0
LINE
  5
156
  8
1
 62
     7
 10
327.00000000000011
 20
431.56854249492358
 30
0.0
 11
326.00000000000011
 21
431.56854249492358
 31
0.0
  0
LINE
  5
157
  8
1
 62
     7
 10
332.50000000000011
 20
429.19354249492369
 30
0.0
 11
332.50000000000011
 21
417.94354249492369
 31
0.0
  0
LINE
  5
158
  8
1
 62
     7
 10
327.00000000000011
 20
416.06854249492358
 30
0.0
 11
331.80717967697262
 21
416.06854249492358
 31
0.0
  0
LINE
  5
159
  8
1
 62
     7
 10
327.00000000000011
 20
419.81854249492369
 30
0.0
 11
331.80717967697262
 21
419.81854249492369
 31
0.0
  0
LINE
  5
15A
  8
1
 62
     7
 10
327.00000000000011
 20
427.31854249492369
 30
0.0
 11
331.80717967697262
 21
427.31854249492369
 31
0.0
  0
LINE
  5
15B
  8
1
 62
     7
 10
327.00000000000011
 20
431.06854249492369
 30
0.0
 11
331.80717967697262
 21
431.06854249492369
 31
0.0
  0
LINE
  5
15C
  8
1
 62
     7
 10
198.0
 20
415.56854249492358
 30
0.0
 11
197.0
 21
415.56854249492358
 31
0.0
  0
LINE
  5
15D
  8
1
 62
     7
 10
197.0
 20
415.56854249492358
 30
0.0
 11
197.0
 21
431.56854249492358
 31
0.0
  0
LINE
  5
15E
  8
1
 62
     7
 10
198.0
 20
431.56854249492358
 30
0.0
 11
197.0
 21
431.56854249492358
 31
0.0
  0
LINE
  5
15F
  8
1
 62
     7
 10
188.49999999999989
 20
417.94354249492369
 30
0.0
 11
188.49999999999989
 21
429.19354249492369
 31
0.0
  0
LINE
  5
160
  8
1
 62
     7
 10
194.27831216351291
 20
431.06854249492369
 30
0.0
 11
189.22168783648701
 21
431.06854249492369
 31
0.0
  0
LINE
  5
161
  8
1
 62
     7
 10
194.27831216351291
 20
427.31854249492369
 30
0.0
 11
189.22168783648701
 21
427.31854249492369
 31
0.0
  0
LINE
  5
162
  8
1
 62
     7
 10
194.27831216351291
 20
419.81854249492369
 30
0.0
 11
189.22168783648701
 21
419.81854249492369
 31
0.0
  0
LINE
  5
163
  8
1
 62
     7
 10
194.27831216351291
 20
416.06854249492358
 30
0.0
 11
189.22168783648701
 21
416.06854249492358
 31
0.0
  0
LINE
  5
164
  8
1
 62
     7
 10
187.80000000000001
 20
419.56854249492358
 30
0.0
 11
188.49999999999989
 21
419.56854249492358
 31
0.0
  0
LINE
  5
165
  8
1
 62
     7
 10
187.0
 20
420.36854249492359
 30
0.0
 11
187.80000000000001
 21
419.56854249492358
 31
0.0
  0
LINE
  5
166
  8
1
 62
     7
 10
187.0
 20
426.76854249492362
 30
0.0
 11
187.0
 21
420.36854249492359
 31
0.0
  0
LINE
  5
167
  8
1
 62
     7
 10
187.80000000000001
 20
427.56854249492358
 30
0.0
 11
187.0
 21
426.76854249492362
 31
0.0
  0
LINE
  5
168
  8
1
 62
     7
 10
188.49999999999989
 20
427.56854249492358
 30
0.0
 11
187.80000000000001
 21
427.56854249492358
 31
0.0
  0
LINE
  5
169
  8
1
 62
     3
 10
187.0
 20
426.76854249492362
 30
0.0
 11
188.49999999999989
 21
426.76854249492362
 31
0.0
  0
LINE
  5
16A
  8
1
 62
     7
 10
187.80000000000001
 20
419.56854249492358
 30
0.0
 11
187.80000000000001
 21
427.56854249492358
 31
0.0
  0
LINE
  5
16B
  8
1
 62
     3
 10
187.0
 20
420.36854249492359
 30
0.0
 11
188.49999999999989
 21
420.36854249492359
 31
0.0
  0
LINE
  5
16C
  8
1
 62
     7
 10
192.31652224137019
 20
431.06854249492369
 30
0.0
 11
197.52106037969011
 21
434.13003551746482
 31
0.0
  0
LINE
  5
16D
  8
1
 62
     7
 10
331.91817636526861
 20
430.9304844910186
 30
0.0
 11
340.52106037969031
 21
425.86996448253518
 31
0.0
  0
LINE
  5
16E
  8
1
  6
DASHDOT
 62
     3
 10
129.40000000000001
 20
367.0
 30
0.0
 11
92.0
 21
367.0
 31
0.0
  0
LINE
  5
16F
  8
1
 62
     7
 10
323.00000000000011
 20
550.53202023870892
 30
0.0
 11
264.0
 21
550.53202023870892
 31
0.0
  0
LINE
  5
170
  8
1
 62
     7
 10
323.00000000000011
 20
555.72444898625486
 30
0.0
 11
264.0
 21
555.72444898625486
 31
0.0
  0
LINE
  5
171
  8
1
 62
     7
 10
323.00000000000011
 20
561.69303105772269
 30
0.0
 11
264.0
 21
561.69303105772269
 31
0.0
  0
LINE
  5
172
  8
1
 62
     7
 10
323.00000000000011
 20
568.40052132562505
 30
0.0
 11
264.0
 21
568.40052132562505
 31
0.0
  0
LINE
  5
173
  8
1
 62
     7
 10
323.00000000000011
 20
575.83516668145376
 30
0.0
 11
264.0
 21
575.83516668145376
 31
0.0
  0
LINE
  5
174
  8
1
 62
     7
 10
323.00000000000011
 20
584.00872023371664
 30
0.0
 11
264.0
 21
584.00872023371664
 31
0.0
  0
LINE
  5
175
  8
1
 62
     7
 10
323.00000000000011
 20
592.95842710990178
 30
0.0
 11
264.0
 21
592.95842710990178
 31
0.0
  0
LINE
  5
176
  8
1
 62
     7
 10
344.00000000000011
 20
548.34343249131416
 30
0.0
 11
344.00000000000011
 21
553.34343249131405
 31
0.0
  0
LINE
  5
177
  8
1
 62
     7
 10
357.00000000000011
 20
571.84343249131416
 30
0.0
 11
325.53912629364982
 21
571.84343249131416
 31
0.0
  0
LINE
  5
178
  8
1
 62
     7
 10
357.00000000000011
 20
547.84343249131416
 30
0.0
 11
345.50000000000011
 21
547.84343249131416
 31
0.0
  0
LINE
  5
179
  8
1
  6
DASHDOT
 62
     3
 10
357.00000000000011
 20
551.34343249131416
 30
0.0
 11
357.00000000000011
 21
568.34343249131416
 31
0.0
  0
LINE
  5
17A
  8
1
  6
DASHDOT
 62
     3
 10
348.50000000000011
 20
559.84343249131416
 30
0.0
 11
365.50000000000011
 21
559.84343249131416
 31
0.0
  0
LINE
  5
17B
  8
1
 62
     7
 10
372.00000000000011
 20
602.84343249131416
 30
0.0
 11
372.00000000000011
 21
676.84343249131439
 31
0.0
  0
LINE
  5
17C
  8
1
 62
     7
 10
325.00000000000011
 20
546.84343249131405
 30
0.0
 11
325.00000000000011
 21
732.84343249131439
 31
0.0
  0
LINE
  5
17D
  8
1
 62
     7
 10
366.00000000000011
 20
544.84343249131405
 30
0.0
 11
264.0
 21
544.84343249131405
 31
0.0
  0
LINE
  5
17E
  8
1
 62
     7
 10
372.00000000000011
 20
550.84343249131405
 30
0.0
 11
372.00000000000011
 21
588.84343249131416
 31
0.0
  0
LINE
  5
17F
  8
1
 62
     7
 10
264.0
 20
544.84343249131405
 30
0.0
 11
264.0
 21
734.84343249131427
 31
0.0
  0
LINE
  5
180
  8
1
 62
     7
 10
264.0
 20
549.34343249131427
 30
0.0
 11
260.0
 21
549.34343249131427
 31
0.0
  0
LINE
  5
181
  8
1
 62
     7
 10
344.00000000000011
 20
600.84343249131416
 30
0.0
 11
370.00000000000011
 21
600.84343249131416
 31
0.0
  0
LINE
  5
182
  8
1
 62
     7
 10
340.52106037969128
 20
580.97346800877847
 30
0.0
 11
331.91817636526861
 21
575.91294800029573
 31
0.0
  0
LINE
  5
183
  8
1
 62
     7
 10
342.00000000000011
 20
696.12759432837618
 30
0.0
 11
342.00000000000011
 21
583.55927065425215
 31
0.0
  0
LINE
  5
184
  8
1
 62
     7
 10
342.00000000000011
 20
594.84343249131427
 30
0.0
 11
366.00000000000011
 21
594.84343249131427
 31
0.0
  0
LINE
  5
185
  8
1
 62
     7
 10
325.00000000000011
 20
552.84343249131405
 30
0.0
 11
341.00000000000011
 21
552.84343249131405
 31
0.0
  0
LINE
  5
186
  8
1
 62
     7
 10
264.0
 20
686.72843787272666
 30
0.0
 11
323.00000000000011
 21
686.72843787272666
 31
0.0
  0
LINE
  5
187
  8
1
 62
     7
 10
344.00000000000011
 20
726.34343249131427
 30
0.0
 11
344.00000000000011
 21
731.34343249131416
 31
0.0
  0
LINE
  5
188
  8
1
 62
     7
 10
325.53912629364982
 20
707.84343249131427
 30
0.0
 11
357.00000000000011
 21
707.84343249131427
 31
0.0
  0
LINE
  5
189
  8
1
 62
     7
 10
345.50000000000011
 20
731.84343249131416
 30
0.0
 11
357.00000000000011
 21
731.84343249131416
 31
0.0
  0
LINE
  5
18A
  8
1
  6
DASHDOT
 62
     3
 10
357.00000000000011
 20
711.34343249131427
 30
0.0
 11
357.00000000000011
 21
728.34343249131427
 31
0.0
  0
LINE
  5
18B
  8
1
  6
DASHDOT
 62
     3
 10
365.50000000000011
 20
719.84343249131427
 30
0.0
 11
348.50000000000011
 21
719.84343249131427
 31
0.0
  0
LINE
  5
18C
  8
1
 62
     7
 10
264.0
 20
734.84343249131427
 30
0.0
 11
366.00000000000011
 21
734.84343249131427
 31
0.0
  0
LINE
  5
18D
  8
1
 62
     7
 10
372.00000000000011
 20
690.84343249131439
 30
0.0
 11
372.00000000000011
 21
728.84343249131439
 31
0.0
  0
LINE
  5
18E
  8
1
 62
     7
 10
260.0
 20
730.34343249131416
 30
0.0
 11
264.0
 21
730.34343249131416
 31
0.0
  0
LINE
  5
18F
  8
1
 62
     7
 10
370.00000000000011
 20
678.84343249131439
 30
0.0
 11
344.00000000000011
 21
678.84343249131439
 31
0.0
  0
LINE
  5
190
  8
1
 62
     7
 10
326.4789396203098
 20
706.97346800877915
 30
0.0
 11
331.68347775862992
 21
703.91197498623842
 31
0.0
  0
LINE
  5
191
  8
1
 62
     7
 10
366.00000000000011
 20
684.84343249131427
 30
0.0
 11
342.00000000000011
 21
684.84343249131427
 31
0.0
  0
LINE
  5
192
  8
1
 62
     7
 10
341.00000000000011
 20
726.84343249131439
 30
0.0
 11
325.00000000000011
 21
726.84343249131439
 31
0.0
  0
LINE
  5
193
  8
1
 62
     7
 10
183.0
 20
552.84343249131405
 30
0.0
 11
199.0
 21
552.84343249131405
 31
0.0
  0
LINE
  5
194
  8
1
 62
     7
 10
158.0
 20
594.84343249131427
 30
0.0
 11
182.0
 21
594.84343249131427
 31
0.0
  0
LINE
  5
195
  8
1
 62
     7
 10
182.0
 20
583.55927065425215
 30
0.0
 11
182.0
 21
696.12759432837618
 31
0.0
  0
LINE
  5
196
  8
1
 62
     7
 10
197.52106037969031
 20
572.7133969738494
 30
0.0
 11
192.31652224137
 21
575.77488999639081
 31
0.0
  0
LINE
  5
197
  8
1
 62
     7
 10
154.0
 20
600.84343249131416
 30
0.0
 11
180.0
 21
600.84343249131416
 31
0.0
  0
LINE
  5
198
  8
1
 62
     7
 10
152.0
 20
588.84343249131416
 30
0.0
 11
152.0
 21
550.84343249131405
 31
0.0
  0
LINE
  5
199
  8
1
 62
     7
 10
260.0
 20
544.84343249131405
 30
0.0
 11
158.0
 21
544.84343249131405
 31
0.0
  0
LINE
  5
19A
  8
1
 62
     7
 10
199.0
 20
732.84343249131439
 30
0.0
 11
199.0
 21
546.84343249131405
 31
0.0
  0
LINE
  5
19B
  8
1
 62
     7
 10
152.0
 20
602.84343249131416
 30
0.0
 11
154.0
 21
600.84343249131416
 31
0.0
  0
LINE
  5
19C
  8
1
 62
     7
 10
152.0
 20
676.84343249131416
 30
0.0
 11
152.0
 21
602.84343249131416
 31
0.0
  0
LINE
  5
19D
  8
1
  6
DASHDOT
 62
     3
 10
158.5
 20
559.84343249131416
 30
0.0
 11
175.5
 21
559.84343249131416
 31
0.0
  0
LINE
  5
19E
  8
1
  6
DASHDOT
 62
     3
 10
167.0
 20
568.34343249131416
 30
0.0
 11
167.0
 21
551.34343249131416
 31
0.0
  0
LINE
  5
19F
  8
1
 62
     7
 10
178.5
 20
547.84343249131416
 30
0.0
 11
167.0
 21
547.84343249131416
 31
0.0
  0
LINE
  5
1A0
  8
1
 62
     7
 10
198.4608737063503
 20
571.84343249131416
 30
0.0
 11
167.0
 21
571.84343249131416
 31
0.0
  0
LINE
  5
1A1
  8
1
 62
     7
 10
180.0
 20
553.34343249131405
 30
0.0
 11
180.0
 21
548.34343249131416
 31
0.0
  0
LINE
  5
1A2
  8
1
 62
     7
 10
260.0
 20
592.95842710990178
 30
0.0
 11
201.0
 21
592.95842710990178
 31
0.0
  0
LINE
  5
1A3
  8
1
 62
     7
 10
260.0
 20
584.00872023371664
 30
0.0
 11
201.0
 21
584.00872023371664
 31
0.0
  0
LINE
  5
1A4
  8
1
 62
     7
 10
260.0
 20
575.83516668145376
 30
0.0
 11
201.0
 21
575.83516668145376
 31
0.0
  0
LINE
  5
1A5
  8
1
 62
     7
 10
260.0
 20
568.40052132562505
 30
0.0
 11
201.0
 21
568.40052132562505
 31
0.0
  0
LINE
  5
1A6
  8
1
 62
     7
 10
260.0
 20
561.69303105772269
 30
0.0
 11
201.0
 21
561.69303105772269
 31
0.0
  0
LINE
  5
1A7
  8
1
 62
     7
 10
260.0
 20
555.72444898625486
 30
0.0
 11
201.0
 21
555.72444898625486
 31
0.0
  0
LINE
  5
1A8
  8
1
 62
     7
 10
260.0
 20
550.53202023870892
 30
0.0
 11
201.0
 21
550.53202023870892
 31
0.0
  0
LINE
  5
1A9
  8
1
 62
     7
 10
199.0
 20
726.84343249131439
 30
0.0
 11
183.0
 21
726.84343249131439
 31
0.0
  0
LINE
  5
1AA
  8
1
 62
     7
 10
182.0
 20
684.84343249131427
 30
0.0
 11
158.0
 21
684.84343249131427
 31
0.0
  0
LINE
  5
1AB
  8
1
 62
     7
 10
183.47893962030989
 20
698.71339697384929
 30
0.0
 11
188.49999999999989
 21
701.66696190307812
 31
0.0
  0
LINE
  5
1AC
  8
1
 62
     7
 10
180.0
 20
678.84343249131439
 30
0.0
 11
154.0
 21
678.84343249131439
 31
0.0
  0
LINE
  5
1AD
  8
1
 62
     7
 10
152.0
 20
728.84343249131439
 30
0.0
 11
152.0
 21
690.84343249131439
 31
0.0
  0
LINE
  5
1AE
  8
1
 62
     7
 10
158.0
 20
734.84343249131427
 30
0.0
 11
260.0
 21
734.84343249131427
 31
0.0
  0
LINE
  5
1AF
  8
1
 62
     7
 10
154.0
 20
678.84343249131439
 30
0.0
 11
152.0
 21
676.84343249131416
 31
0.0
  0
LINE
  5
1B0
  8
1
  6
DASHDOT
 62
     3
 10
175.5
 20
719.84343249131427
 30
0.0
 11
158.5
 21
719.84343249131427
 31
0.0
  0
LINE
  5
1B1
  8
1
  6
DASHDOT
 62
     3
 10
167.0
 20
728.34343249131427
 30
0.0
 11
167.0
 21
711.34343249131427
 31
0.0
  0
LINE
  5
1B2
  8
1
 62
     7
 10
167.0
 20
731.84343249131416
 30
0.0
 11
178.5
 21
731.84343249131416
 31
0.0
  0
LINE
  5
1B3
  8
1
 62
     7
 10
167.0
 20
707.84343249131427
 30
0.0
 11
198.4608737063503
 21
707.84343249131427
 31
0.0
  0
LINE
  5
1B4
  8
1
 62
     7
 10
180.0
 20
731.34343249131416
 30
0.0
 11
180.0
 21
726.34343249131427
 31
0.0
  0
LINE
  5
1B5
  8
1
 62
     7
 10
201.0
 20
686.72843787272666
 30
0.0
 11
260.0
 21
686.72843787272666
 31
0.0
  0
LINE
  5
1B6
  8
1
 62
     7
 10
377.00000000000011
 20
624.84343249131427
 30
0.0
 11
373.50000000000011
 21
624.84343249131427
 31
0.0
  0
LINE
  5
1B7
  8
1
 62
     7
 10
377.00000000000011
 20
654.84343249131416
 30
0.0
 11
373.50000000000011
 21
654.84343249131416
 31
0.0
  0
LINE
  5
1B8
  8
1
 62
     7
 10
373.50000000000011
 20
621.04649403461519
 30
0.0
 11
372.00000000000011
 21
621.04649403461519
 31
0.0
  0
LINE
  5
1B9
  8
1
 62
     7
 10
373.50000000000011
 20
657.64343249131423
 30
0.0
 11
373.50000000000011
 21
621.04649403461519
 31
0.0
  0
LINE
  5
1BA
  8
1
 62
     7
 10
372.00000000000011
 20
657.64343249131423
 30
0.0
 11
373.50000000000011
 21
657.64343249131423
 31
0.0
  0
LINE
  5
1BB
  8
1
 62
     7
 10
377.00000000000011
 20
654.84343249131416
 30
0.0
 11
377.00000000000011
 21
624.84343249131427
 31
0.0
  0
LINE
  5
1BC
  8
1
 62
     7
 10
421.00000000000011
 20
627.34343249131416
 30
0.0
 11
377.00000000000011
 21
627.34343249131416
 31
0.0
  0
LINE
  5
1BD
  8
1
 62
     7
 10
421.00000000000011
 20
652.34343249131416
 30
0.0
 11
377.00000000000011
 21
652.34343249131416
 31
0.0
  0
LINE
  5
1BE
  8
1
 62
     7
 10
421.00000000000011
 20
627.34343249131416
 30
0.0
 11
422.00000000000011
 21
628.34343249131427
 31
0.0
  0
LINE
  5
1BF
  8
1
 62
     7
 10
421.00000000000011
 20
652.34343249131416
 30
0.0
 11
421.00000000000011
 21
643.84343249131416
 31
0.0
  0
LINE
  5
1C0
  8
1
 62
     7
 10
421.00000000000011
 20
652.34343249131416
 30
0.0
 11
422.00000000000011
 21
651.34343249131416
 31
0.0
  0
LINE
  5
1C1
  8
1
  6
DASHDOT
 62
     3
 10
432.00000000000023
 20
639.84343249131416
 30
0.0
 11
422.00000000000011
 21
639.84343249131416
 31
0.0
  0
LINE
  5
1C2
  8
1
 62
     7
 10
386.00000000000011
 20
643.84343249131416
 30
0.0
 11
422.00000000000011
 21
643.84343249131416
 31
0.0
  0
LINE
  5
1C3
  8
1
 62
     7
 10
386.00000000000011
 20
635.84343249131416
 30
0.0
 11
422.00000000000011
 21
635.84343249131416
 31
0.0
  0
LINE
  5
1C4
  8
1
 62
     7
 10
422.00000000000011
 20
651.34343249131416
 30
0.0
 11
422.00000000000011
 21
628.34343249131427
 31
0.0
  0
LINE
  5
1C5
  8
1
 62
     7
 10
421.00000000000011
 20
635.84343249131416
 30
0.0
 11
421.00000000000011
 21
627.34343249131416
 31
0.0
  0
LINE
  5
1C6
  8
1
 62
     7
 10
150.5
 20
624.84343249131427
 30
0.0
 11
147.0
 21
624.84343249131427
 31
0.0
  0
LINE
  5
1C7
  8
1
 62
     7
 10
152.0
 20
621.04649403461519
 30
0.0
 11
150.5
 21
621.04649403461519
 31
0.0
  0
LINE
  5
1C8
  8
1
 62
     7
 10
147.0
 20
627.34343249131416
 30
0.0
 11
103.0
 21
627.34343249131416
 31
0.0
  0
LINE
  5
1C9
  8
1
 62
     7
 10
102.0
 20
628.34343249131427
 30
0.0
 11
103.0
 21
627.34343249131416
 31
0.0
  0
LINE
  5
1CA
  8
1
 62
     7
 10
102.0
 20
628.34343249131427
 30
0.0
 11
103.0
 21
627.34343249131416
 31
0.0
  0
LINE
  5
1CB
  8
1
 62
     7
 10
103.0
 20
627.34343249131416
 30
0.0
 11
103.0
 21
635.84343249131416
 31
0.0
  0
LINE
  5
1CC
  8
1
 62
     7
 10
102.0
 20
651.34343249131416
 30
0.0
 11
103.0
 21
652.34343249131416
 31
0.0
  0
LINE
  5
1CD
  8
1
 62
     7
 10
150.5
 20
624.84343249131427
 30
0.0
 11
147.0
 21
624.84343249131427
 31
0.0
  0
LINE
  5
1CE
  8
1
 62
     7
 10
150.5
 20
654.84343249131416
 30
0.0
 11
147.0
 21
654.84343249131416
 31
0.0
  0
LINE
  5
1CF
  8
1
 62
     7
 10
152.0
 20
621.04649403461519
 30
0.0
 11
150.5
 21
621.04649403461519
 31
0.0
  0
LINE
  5
1D0
  8
1
 62
     7
 10
150.5
 20
621.04649403461519
 30
0.0
 11
150.5
 21
657.64343249131423
 31
0.0
  0
LINE
  5
1D1
  8
1
 62
     7
 10
150.5
 20
657.64343249131423
 30
0.0
 11
152.0
 21
657.64343249131423
 31
0.0
  0
LINE
  5
1D2
  8
1
 62
     7
 10
147.0
 20
624.84343249131427
 30
0.0
 11
147.0
 21
654.84343249131416
 31
0.0
  0
LINE
  5
1D3
  8
1
 62
     7
 10
147.0
 20
652.34343249131416
 30
0.0
 11
103.0
 21
652.34343249131416
 31
0.0
  0
LINE
  5
1D4
  8
1
 62
     7
 10
138.0
 20
643.84343249131416
 30
0.0
 11
102.0
 21
643.84343249131416
 31
0.0
  0
LINE
  5
1D5
  8
1
 62
     7
 10
102.0
 20
628.34343249131427
 30
0.0
 11
102.0
 21
651.34343249131416
 31
0.0
  0
LINE
  5
1D6
  8
1
 62
     7
 10
138.0
 20
635.84343249131416
 30
0.0
 11
102.0
 21
635.84343249131416
 31
0.0
  0
LINE
  5
1D7
  8
1
 62
     7
 10
103.0
 20
643.84343249131416
 30
0.0
 11
103.0
 21
652.34343249131416
 31
0.0
  0
LINE
  5
1D8
  8
1
  6
DASHDOT
 62
     3
 10
102.0
 20
639.84343249131416
 30
0.0
 11
92.0
 21
639.84343249131416
 31
0.0
  0
LINE
  5
1D9
  8
1
 62
     7
 10
327.00000000000011
 20
688.41197498623785
 30
0.0
 11
326.00000000000011
 21
688.41197498623785
 31
0.0
  0
LINE
  5
1DA
  8
1
 62
     7
 10
327.00000000000011
 20
704.41197498623785
 30
0.0
 11
327.00000000000011
 21
688.41197498623785
 31
0.0
  0
LINE
  5
1DB
  8
1
 62
     7
 10
197.0
 20
694.41197498623785
 30
0.0
 11
195.0
 21
696.41197498623785
 31
0.0
  0
LINE
  5
1DC
  8
1
 62
     7
 10
197.0
 20
696.41197498623785
 30
0.0
 11
195.0
 21
698.41197498623785
 31
0.0
  0
LINE
  5
1DD
  8
1
 62
     7
 10
197.0
 20
688.71197498623792
 30
0.0
 11
195.0
 21
688.71197498623792
 31
0.0
  0
LINE
  5
1DE
  8
1
 62
     7
 10
195.0
 20
704.1119749862379
 30
0.0
 11
195.0
 21
688.71197498623792
 31
0.0
  0
LINE
  5
1DF
  8
1
 62
     7
 10
195.0
 20
704.1119749862379
 30
0.0
 11
197.0
 21
704.1119749862379
 31
0.0
  0
LINE
  5
1E0
  8
1
 62
     7
 10
327.00000000000011
 20
704.41197498623785
 30
0.0
 11
326.00000000000011
 21
704.41197498623785
 31
0.0
  0
LINE
  5
1E1
  8
1
 62
     7
 10
332.50000000000011
 20
702.03697498623785
 30
0.0
 11
332.50000000000011
 21
690.78697498623796
 31
0.0
  0
LINE
  5
1E2
  8
1
 62
     7
 10
327.00000000000011
 20
688.91197498623796
 30
0.0
 11
331.80717967697262
 21
688.91197498623796
 31
0.0
  0
LINE
  5
1E3
  8
1
 62
     7
 10
327.00000000000011
 20
692.66197498623785
 30
0.0
 11
331.80717967697262
 21
692.66197498623785
 31
0.0
  0
LINE
  5
1E4
  8
1
 62
     7
 10
327.00000000000011
 20
700.16197498623796
 30
0.0
 11
331.80717967697262
 21
700.16197498623796
 31
0.0
  0
LINE
  5
1E5
  8
1
 62
     7
 10
327.00000000000011
 20
703.91197498623785
 30
0.0
 11
331.80717967697262
 21
703.91197498623785
 31
0.0
  0
LINE
  5
1E6
  8
1
 62
     7
 10
326.00000000000011
 20
591.27488999639047
 30
0.0
 11
327.00000000000011
 21
591.27488999639047
 31
0.0
  0
LINE
  5
1E7
  8
1
 62
     7
 10
327.00000000000011
 20
591.27488999639047
 30
0.0
 11
327.00000000000011
 21
575.27488999639047
 31
0.0
  0
LINE
  5
1E8
  8
1
 62
     7
 10
195.0
 20
583.27488999639047
 30
0.0
 11
197.0
 21
585.27488999639058
 31
0.0
  0
LINE
  5
1E9
  8
1
 62
     7
 10
195.0
 20
581.27488999639058
 30
0.0
 11
197.0
 21
583.27488999639047
 31
0.0
  0
LINE
  5
1EA
  8
1
 62
     7
 10
195.0
 20
590.97488999639029
 30
0.0
 11
197.0
 21
590.97488999639029
 31
0.0
  0
LINE
  5
1EB
  8
1
 62
     7
 10
195.0
 20
590.97488999639029
 30
0.0
 11
195.0
 21
575.57488999639054
 31
0.0
  0
LINE
  5
1EC
  8
1
 62
     7
 10
197.0
 20
575.57488999639054
 30
0.0
 11
195.0
 21
575.57488999639054
 31
0.0
  0
LINE
  5
1ED
  8
1
 62
     7
 10
326.00000000000011
 20
575.27488999639047
 30
0.0
 11
327.00000000000011
 21
575.27488999639047
 31
0.0
  0
LINE
  5
1EE
  8
1
 62
     7
 10
332.50000000000011
 20
588.89988999639058
 30
0.0
 11
332.50000000000011
 21
577.64988999639058
 31
0.0
  0
LINE
  5
1EF
  8
1
 62
     7
 10
331.80717967697262
 20
590.77488999639047
 30
0.0
 11
327.00000000000011
 21
590.77488999639047
 31
0.0
  0
LINE
  5
1F0
  8
1
 62
     7
 10
331.80717967697262
 20
587.02488999639058
 30
0.0
 11
327.00000000000011
 21
587.02488999639058
 31
0.0
  0
LINE
  5
1F1
  8
1
 62
     7
 10
331.80717967697262
 20
579.52488999639058
 30
0.0
 11
327.00000000000011
 21
579.52488999639058
 31
0.0
  0
LINE
  5
1F2
  8
1
 62
     7
 10
331.80717967697262
 20
575.77488999639058
 30
0.0
 11
327.00000000000011
 21
575.77488999639058
 31
0.0
  0
LINE
  5
1F3
  8
1
 62
     7
 10
331.68347775862981
 20
575.77488999639058
 30
0.0
 11
326.47893962030861
 21
572.71339697384974
 31
0.0
  0
LINE
  5
1F4
  8
1
 62
     7
 10
198.0
 20
688.41197498623785
 30
0.0
 11
197.0
 21
688.41197498623785
 31
0.0
  0
LINE
  5
1F5
  8
1
 62
     7
 10
197.0
 20
688.41197498623785
 30
0.0
 11
197.0
 21
704.41197498623785
 31
0.0
  0
LINE
  5
1F6
  8
1
 62
     7
 10
198.0
 20
704.41197498623785
 30
0.0
 11
197.0
 21
704.41197498623785
 31
0.0
  0
LINE
  5
1F7
  8
1
 62
     7
 10
188.49999999999989
 20
690.78697498623796
 30
0.0
 11
188.49999999999989
 21
702.03697498623785
 31
0.0
  0
LINE
  5
1F8
  8
1
 62
     7
 10
194.27831216351291
 20
703.91197498623785
 30
0.0
 11
189.22168783648701
 21
703.91197498623785
 31
0.0
  0
LINE
  5
1F9
  8
1
 62
     7
 10
194.27831216351291
 20
700.16197498623796
 30
0.0
 11
189.22168783648701
 21
700.16197498623796
 31
0.0
  0
LINE
  5
1FA
  8
1
 62
     7
 10
194.27831216351291
 20
692.66197498623785
 30
0.0
 11
189.22168783648701
 21
692.66197498623785
 31
0.0
  0
LINE
  5
1FB
  8
1
 62
     7
 10
194.27831216351291
 20
688.91197498623796
 30
0.0
 11
189.22168783648701
 21
688.91197498623796
 31
0.0
  0
LINE
  5
1FC
  8
1
 62
     7
 10
187.80000000000001
 20
692.41197498623785
 30
0.0
 11
188.49999999999989
 21
692.41197498623785
 31
0.0
  0
LINE
  5
1FD
  8
1
 62
     7
 10
187.0
 20
693.21197498623792
 30
0.0
 11
187.80000000000001
 21
692.41197498623785
 31
0.0
  0
LINE
  5
1FE
  8
1
 62
     7
 10
187.0
 20
699.6119749862379
 30
0.0
 11
187.0
 21
693.21197498623792
 31
0.0
  0
LINE
  5
1FF
  8
1
 62
     7
 10
187.80000000000001
 20
700.41197498623785
 30
0.0
 11
187.0
 21
699.6119749862379
 31
0.0
  0
LINE
  5
200
  8
1
 62
     7
 10
188.49999999999989
 20
700.41197498623785
 30
0.0
 11
187.80000000000001
 21
700.41197498623785
 31
0.0
  0
LINE
  5
201
  8
1
 62
     3
 10
187.0
 20
699.6119749862379
 30
0.0
 11
188.49999999999989
 21
699.6119749862379
 31
0.0
  0
LINE
  5
202
  8
1
 62
     7
 10
187.80000000000001
 20
692.41197498623785
 30
0.0
 11
187.80000000000001
 21
700.41197498623785
 31
0.0
  0
LINE
  5
203
  8
1
 62
     3
 10
187.0
 20
693.21197498623792
 30
0.0
 11
188.49999999999989
 21
693.21197498623792
 31
0.0
  0
LINE
  5
204
  8
1
 62
     7
 10
197.0
 20
575.27488999639047
 30
0.0
 11
197.0
 21
591.27488999639047
 31
0.0
  0
LINE
  5
205
  8
1
 62
     7
 10
197.0
 20
575.27488999639047
 30
0.0
 11
198.0
 21
575.27488999639047
 31
0.0
  0
LINE
  5
206
  8
1
 62
     7
 10
188.49999999999989
 20
577.64988999639058
 30
0.0
 11
188.49999999999989
 21
588.89988999639058
 31
0.0
  0
LINE
  5
207
  8
1
 62
     7
 10
189.22168783648701
 20
575.77488999639058
 30
0.0
 11
194.27831216351291
 21
575.77488999639058
 31
0.0
  0
LINE
  5
208
  8
1
 62
     7
 10
189.22168783648701
 20
579.52488999639058
 30
0.0
 11
194.27831216351291
 21
579.52488999639058
 31
0.0
  0
LINE
  5
209
  8
1
 62
     7
 10
189.22168783648701
 20
587.02488999639058
 30
0.0
 11
194.27831216351291
 21
587.02488999639058
 31
0.0
  0
LINE
  5
20A
  8
1
 62
     7
 10
189.22168783648701
 20
590.77488999639047
 30
0.0
 11
194.27831216351291
 21
590.77488999639047
 31
0.0
  0
LINE
  5
20B
  8
1
 62
     7
 10
188.49999999999989
 20
587.27488999639047
 30
0.0
 11
187.80000000000001
 21
587.27488999639047
 31
0.0
  0
LINE
  5
20C
  8
1
 62
     7
 10
187.80000000000001
 20
587.27488999639047
 30
0.0
 11
187.0
 21
586.47488999639029
 31
0.0
  0
LINE
  5
20D
  8
1
 62
     7
 10
187.0
 20
586.47488999639029
 30
0.0
 11
187.0
 21
580.07488999639054
 31
0.0
  0
LINE
  5
20E
  8
1
 62
     7
 10
187.0
 20
580.07488999639054
 30
0.0
 11
187.80000000000001
 21
579.27488999639047
 31
0.0
  0
LINE
  5
20F
  8
1
 62
     7
 10
187.80000000000001
 20
579.27488999639047
 30
0.0
 11
188.49999999999989
 21
579.27488999639047
 31
0.0
  0
LINE
  5
210
  8
1
 62
     3
 10
188.49999999999989
 20
580.07488999639054
 30
0.0
 11
187.0
 21
580.07488999639054
 31
0.0
  0
LINE
  5
211
  8
1
 62
     7
 10
187.80000000000001
 20
579.27488999639047
 30
0.0
 11
187.80000000000001
 21
587.27488999639047
 31
0.0
  0
LINE
  5
212
  8
1
 62
     3
 10
188.49999999999989
 20
586.47488999639029
 30
0.0
 11
187.0
 21
586.47488999639029
 31
0.0
  0
LINE
  5
213
  8
1
 62
     7
 10
331.91817636526781
 20
703.77391698233373
 30
0.0
 11
340.5210603796902
 21
698.7133969738494
 31
0.0
  0
LINE
  5
214
  8
1
 62
     7
 10
192.31652224137181
 20
703.91197498623785
 30
0.0
 11
197.52106037969031
 21
706.97346800877915
 31
0.0
  0
LINE
  5
215
  8
1
 62
     7
 10
198.0
 20
591.27488999639047
 30
0.0
 11
197.0
 21
591.27488999639047
 31
0.0
  0
LINE
  5
216
  8
1
 62
     7
 10
260.0
 20
734.84343249131427
 30
0.0
 11
260.0
 21
544.84343249131405
 31
0.0
  0
LINE
  5
217
  8
1
 62
     7
 10
285.00000000000023
 20
544.84343249131405
 30
0.0
 11
285.00000000000023
 21
538.84343249131416
 31
0.0
  0
LINE
  5
218
  8
1
 62
     7
 10
284.00000000000028
 20
537.84343249131416
 30
0.0
 11
240.00000000000031
 21
537.84343249131416
 31
0.0
  0
LINE
  5
219
  8
1
 62
     7
 10
239.00000000000031
 20
538.84343249131416
 30
0.0
 11
239.00000000000031
 21
544.84343249131405
 31
0.0
  0
LINE
  5
21A
  8
1
 62
     7
 10
239.00000000000031
 20
541.84343249131427
 30
0.0
 11
285.00000000000023
 21
541.84343249131427
 31
0.0
  0
LINE
  5
21B
  8
1
 62
     7
 10
257.00000000000023
 20
316.03126017915429
 30
0.0
 11
257.00000000000023
 21
311.5
 31
0.0
  0
LINE
  5
21C
  8
1
  6
DASHED
 62
     7
 10
496.0
 20
293.99351532518369
 30
0.0
 11
495.28903397914843
 21
293.99351532518369
 31
0.0
  0
LINE
  5
21D
  8
1
  6
DASHED
 62
     7
 10
496.0
 20
304.00648467481608
 30
0.0
 11
502.0
 21
304.00648467481608
 31
0.0
  0
LINE
  5
21E
  8
1
 62
     7
 10
263.00000000000028
 20
295.51939923077907
 30
0.0
 11
263.00000000000028
 21
291.5
 31
0.0
  0
LINE
  5
21F
  8
1
 62
     7
 10
261.00000000000023
 20
302.48060076922081
 30
0.0
 11
261.00000000000023
 21
306.49999999999989
 31
0.0
  0
LINE
  5
220
  8
1
 62
     7
 10
233.73750000000021
 20
297.25
 30
0.0
 11
234.2625000000001
 21
297.25
 31
0.0
  0
LINE
  5
221
  8
1
 62
     7
 10
232.25000000000031
 20
299.2625000000001
 30
0.0
 11
232.25000000000031
 21
298.73750000000013
 31
0.0
  0
LINE
  5
222
  8
1
 62
     7
 10
234.2625000000001
 20
300.75
 30
0.0
 11
233.73750000000021
 21
300.75
 31
0.0
  0
LINE
  5
223
  8
1
 62
     7
 10
235.75000000000031
 20
298.73750000000013
 30
0.0
 11
235.75000000000031
 21
299.2625000000001
 31
0.0
  0
LINE
  5
224
  8
1
 62
     7
 10
289.73750000000018
 20
297.25
 30
0.0
 11
290.26249999999999
 21
297.25
 31
0.0
  0
LINE
  5
225
  8
1
 62
     7
 10
288.25000000000023
 20
299.2625000000001
 30
0.0
 11
288.25000000000023
 21
298.73750000000013
 31
0.0
  0
LINE
  5
226
  8
1
 62
     7
 10
290.26249999999999
 20
300.75
 30
0.0
 11
289.73750000000018
 21
300.75
 31
0.0
  0
LINE
  5
227
  8
1
 62
     7
 10
291.75000000000028
 20
298.73750000000013
 30
0.0
 11
291.75000000000028
 21
299.2625000000001
 31
0.0
  0
LINE
  5
228
  8
1
 62
     7
 10
261.00000000000023
 20
291.5
 30
0.0
 11
261.00000000000023
 21
295.51939923077907
 31
0.0
  0
LINE
  5
229
  8
1
 62
     7
 10
263.00000000000028
 20
306.49999999999989
 30
0.0
 11
263.00000000000028
 21
302.48060076922081
 31
0.0
  0
LINE
  5
22A
  8
1
 62
     7
 10
285.00000000000023
 20
288.5
 30
0.0
 11
294.1724137931036
 21
296.93103448275838
 31
0.0
  0
LINE
  5
22B
  8
1
 62
     7
 10
285.00000000000023
 20
309.5
 30
0.0
 11
294.1724137931036
 21
301.06896551724128
 31
0.0
  0
LINE
  5
22C
  8
1
 62
     7
 10
277.68375534189158
 20
292.42307849421388
 30
0.0
 11
280.31624465810887
 21
293.94294690957082
 31
0.0
  0
LINE
  5
22D
  8
1
 62
     7
 10
280.81624465810887
 20
293.07692150578657
 30
0.0
 11
278.18375534189153
 21
291.55705309042929
 31
0.0
  0
LINE
  5
22E
  8
1
 62
     7
 10
266.68375534189153
 20
293.94294690957082
 30
0.0
 11
269.31624465810887
 21
292.42307849421388
 31
0.0
  0
LINE
  5
22F
  8
1
 62
     7
 10
268.81624465810887
 20
291.55705309042929
 30
0.0
 11
266.18375534189153
 21
293.07692150578657
 31
0.0
  0
LINE
  5
230
  8
1
 62
     7
 10
269.31624465810887
 20
305.57692150578657
 30
0.0
 11
266.68375534189153
 21
304.05705309042941
 31
0.0
  0
LINE
  5
231
  8
1
 62
     7
 10
266.18375534189153
 20
304.92307849421383
 30
0.0
 11
268.81624465810887
 21
306.44294690957088
 31
0.0
  0
LINE
  5
232
  8
1
 62
     7
 10
274.50000000000023
 20
306.49999999999989
 30
0.0
 11
274.50000000000023
 21
291.5
 31
0.0
  0
LINE
  5
233
  8
1
 62
     7
 10
272.50000000000023
 20
291.5
 30
0.0
 11
272.50000000000023
 21
306.49999999999989
 31
0.0
  0
LINE
  5
234
  8
1
 62
     7
 10
280.31624465810887
 20
304.05705309042941
 30
0.0
 11
277.68375534189158
 21
305.57692150578657
 31
0.0
  0
LINE
  5
235
  8
1
 62
     7
 10
278.18375534189153
 20
306.44294690957088
 30
0.0
 11
280.81624465810887
 21
304.92307849421383
 31
0.0
  0
LINE
  5
236
  8
1
 62
     7
 10
285.00000000000023
 20
309.5
 30
0.0
 11
285.00000000000023
 21
288.5
 31
0.0
  0
LINE
  5
237
  8
1
 62
     7
 10
283.00000000000023
 20
286.5
 30
0.0
 11
241.00000000000031
 21
286.5
 31
0.0
  0
LINE
  5
238
  8
1
 62
     7
 10
229.8275862068968
 20
296.93103448275861
 30
0.0
 11
239.00000000000031
 21
288.5
 31
0.0
  0
LINE
  5
239
  8
1
 62
     7
 10
229.8275862068968
 20
301.06896551724128
 30
0.0
 11
239.00000000000031
 21
309.5
 31
0.0
  0
LINE
  5
23A
  8
1
 62
     7
 10
243.6837553418915
 20
293.94294690957082
 30
0.0
 11
246.31624465810901
 21
292.42307849421388
 31
0.0
  0
LINE
  5
23B
  8
1
 62
     7
 10
245.81624465810901
 20
291.55705309042929
 30
0.0
 11
243.1837553418915
 21
293.07692150578657
 31
0.0
  0
LINE
  5
23C
  8
1
 62
     7
 10
254.68375534189161
 20
292.42307849421388
 30
0.0
 11
257.31624465810887
 21
293.94294690957082
 31
0.0
  0
LINE
  5
23D
  8
1
 62
     7
 10
257.81624465810887
 20
293.07692150578657
 30
0.0
 11
255.1837553418915
 21
291.55705309042929
 31
0.0
  0
LINE
  5
23E
  8
1
 62
     7
 10
257.31624465810887
 20
304.05705309042941
 30
0.0
 11
254.68375534189161
 21
305.57692150578657
 31
0.0
  0
LINE
  5
23F
  8
1
 62
     7
 10
255.1837553418915
 20
306.44294690957088
 30
0.0
 11
257.81624465810887
 21
304.92307849421383
 31
0.0
  0
LINE
  5
240
  8
1
 62
     7
 10
249.50000000000031
 20
291.5
 30
0.0
 11
249.50000000000031
 21
306.49999999999989
 31
0.0
  0
LINE
  5
241
  8
1
 62
     7
 10
251.50000000000031
 20
306.49999999999989
 30
0.0
 11
251.50000000000031
 21
291.5
 31
0.0
  0
LINE
  5
242
  8
1
 62
     7
 10
246.31624465810901
 20
305.57692150578657
 30
0.0
 11
243.6837553418915
 21
304.05705309042941
 31
0.0
  0
LINE
  5
243
  8
1
 62
     7
 10
243.1837553418915
 20
304.92307849421383
 30
0.0
 11
245.81624465810901
 21
306.44294690957088
 31
0.0
  0
LINE
  5
244
  8
1
 62
     7
 10
239.00000000000031
 20
288.5
 30
0.0
 11
239.00000000000031
 21
309.5
 31
0.0
  0
LINE
  5
245
  8
1
 62
     7
 10
241.00000000000031
 20
311.5
 30
0.0
 11
283.00000000000023
 21
311.5
 31
0.0
  0
LINE
  5
246
  8
1
 62
     7
 10
280.25000019830497
 20
286.5
 30
0.0
 11
280.25000019830497
 21
284.0
 31
0.0
  0
LINE
  5
247
  8
1
 62
     7
 10
278.25000019830497
 20
286.49999978112908
 30
0.0
 11
278.25000019830497
 21
283.99999999999977
 31
0.0
  0
LINE
  5
248
  8
1
 62
     7
 10
268.74999956714902
 20
286.5
 30
0.0
 11
268.74999956714902
 21
282.0
 31
0.0
  0
LINE
  5
249
  8
1
 62
     7
 10
266.74999956714902
 20
286.49999978112908
 30
0.0
 11
266.74999956714902
 21
282.0
 31
0.0
  0
LINE
  5
24A
  8
1
 62
     7
 10
291.00000000000023
 20
282.0
 30
0.0
 11
282.25000019830497
 21
282.00000000000011
 31
0.0
  0
LINE
  5
24B
  8
1
 62
     7
 10
291.00000000000023
 20
280.0
 30
0.0
 11
270.74999956714902
 21
280.0
 31
0.0
  0
LINE
  5
24C
  8
1
 62
     7
 10
291.00000000000023
 20
278.0
 30
0.0
 11
270.74999956714902
 21
278.0
 31
0.0
  0
LINE
  5
24D
  8
1
 62
     7
 10
243.74999980169559
 20
284.0
 30
0.0
 11
243.74999980169559
 21
286.5
 31
0.0
  0
LINE
  5
24E
  8
1
 62
     7
 10
245.74999980169559
 20
283.99999999999977
 30
0.0
 11
245.74999980169559
 21
286.49999978112908
 31
0.0
  0
LINE
  5
24F
  8
1
 62
     7
 10
255.25000043285149
 20
282.0
 30
0.0
 11
255.25000043285149
 21
286.5
 31
0.0
  0
LINE
  5
250
  8
1
 62
     7
 10
257.25000043285161
 20
282.0
 30
0.0
 11
257.25000043285138
 21
286.49999978112908
 31
0.0
  0
LINE
  5
251
  8
1
 62
     7
 10
241.74999980169559
 20
282.0
 30
0.0
 11
233.0000000000004
 21
282.0
 31
0.0
  0
LINE
  5
252
  8
1
 62
     7
 10
253.25000043285149
 20
280.0
 30
0.0
 11
233.0000000000004
 21
280.0
 31
0.0
  0
LINE
  5
253
  8
1
 62
     7
 10
253.25000043285149
 20
278.0
 30
0.0
 11
233.0000000000004
 21
278.0
 31
0.0
  0
LINE
  5
254
  8
1
  6
DASHED
 62
     7
 10
502.0
 20
293.99351532518392
 30
0.0
 11
496.0
 21
293.99351532518369
 31
0.0
  0
LINE
  5
255
  8
1
  6
DASHED
 62
     7
 10
509.0
 20
286.5
 30
0.0
 11
496.0
 21
286.5
 31
0.0
  0
LINE
  5
256
  8
1
 62
     7
 10
490.0
 20
311.5
 30
0.0
 11
496.0
 21
311.5
 31
0.0
  0
LINE
  5
257
  8
1
  6
DASHED
 62
     7
 10
504.0
 20
302.00648467481608
 30
0.0
 11
504.0
 21
295.99351532518392
 31
0.0
  0
LINE
  5
258
  8
1
  6
DASHED
 62
     7
 10
495.28903397914911
 20
304.00648467481608
 30
0.0
 11
496.0
 21
304.00648467481608
 31
0.0
  0
LINE
  5
259
  8
1
  6
DASHED
 62
     7
 10
503.3000000000003
 20
296.25
 30
0.0
 11
504.0
 21
296.25
 31
0.0
  0
LINE
  5
25A
  8
1
  6
DASHED
 62
     7
 10
503.3000000000003
 20
301.75
 30
0.0
 11
503.3000000000003
 21
296.25
 31
0.0
  0
LINE
  5
25B
  8
1
  6
DASHED
 62
     7
 10
504.0
 20
301.75
 30
0.0
 11
503.3000000000003
 21
301.75
 31
0.0
  0
LINE
  5
25C
  8
1
  6
DASHED
 62
     7
 10
503.3000000000003
 20
298.30000000000013
 30
0.0
 11
504.0
 21
299.0
 31
0.0
  0
LINE
  5
25D
  8
1
  6
DASHED
 62
     7
 10
503.3000000000003
 20
299.0
 30
0.0
 11
504.0
 21
299.70000000000027
 31
0.0
  0
LINE
  5
25E
  8
1
  6
DASHED
 62
     7
 10
503.0
 20
296.25
 30
0.0
 11
502.56087985837542
 21
296.25
 31
0.0
  0
LINE
  5
25F
  8
1
  6
DASHED
 62
     7
 10
502.5608798583753
 20
301.75
 30
0.0
 11
503.0
 21
301.75
 31
0.0
  0
LINE
  5
260
  8
1
 62
     7
 10
489.0
 20
287.5
 30
0.0
 11
489.0
 21
310.49999999999989
 31
0.0
  0
LINE
  5
261
  8
1
 62
     7
 10
493.0
 20
311.5
 30
0.0
 11
493.0
 21
286.5
 31
0.0
  0
LINE
  5
262
  8
1
 62
     7
 10
496.0
 20
286.5
 30
0.0
 11
490.0
 21
286.5
 31
0.0
  0
LINE
  5
263
  8
1
  6
DASHED
 62
     7
 10
496.0
 20
311.5
 30
0.0
 11
509.0
 21
311.5
 31
0.0
  0
LINE
  5
264
  8
1
 62
     7
 10
267.00000000000028
 20
311.5
 30
0.0
 11
267.00000000000028
 21
316.03126017915429
 31
0.0
  0
ARC
  5
265
  8
1
 62
     7
 10
591.0
 20
367.0
 30
0.0
 40
93.999999999999957
 50
137.40052546366621
 51
138.6021072366386
  0
ARC
  5
266
  8
1
 62
     7
 10
591.0
 20
367.0
 30
0.0
 40
94.000000000000156
 50
131.3978927633614
 51
132.5994745363337
  0
ARC
  5
267
  8
1
 62
     7
 10
591.0
 20
367.0
 30
0.0
 40
93.999999999999631
 50
149.55497969308729
 51
150.79827687047199
  0
ARC
  5
268
  8
1
 62
     7
 10
591.0
 20
367.0
 30
0.0
 40
94.0
 50
143.4297606879374
 51
144.6447775467779
  0
ARC
  5
269
  8
1
 62
     7
 10
591.0
 20
367.0
 30
0.0
 40
93.999999999999872
 50
125.3552224532221
 51
126.5702393120627
  0
ARC
  5
26A
  8
1
 62
     7
 10
591.0
 20
367.0
 30
0.0
 40
94.0
 50
119.2017231295283
 51
120.4450203069127
  0
ARC
  5
26B
  8
1
 62
     7
 10
591.0
 20
367.0
 30
0.0
 40
93.999999999999517
 50
112.4699575366997
 51
114.143971443784
  0
ARC
  5
26C
  8
1
 62
     7
 10
591.0
 20
367.0
 30
0.0
 40
94.000000000000213
 50
155.85602855621551
 51
157.53004246329999
  0
ARC
  5
26D
  8
1
 62
     7
 10
591.0
 20
367.0
 30
0.0
 40
94.000000000000057
 50
41.397892763361327
 51
42.599474536333886
  0
ARC
  5
26E
  8
1
 62
     7
 10
591.0
 20
367.0
 30
0.0
 40
93.999999999999716
 50
47.400525463666312
 51
48.602107236638538
  0
ARC
  5
26F
  8
1
 62
     7
 10
591.0
 20
367.0
 30
0.0
 40
94.0
 50
53.429760687937282
 51
54.644777546777902
  0
ARC
  5
270
  8
1
 62
     7
 10
591.0
 20
367.0
 30
0.0
 40
93.999999999999702
 50
59.554979693087411
 51
60.798276870471817
  0
ARC
  5
271
  8
1
 62
     7
 10
591.0
 20
367.0
 30
0.0
 40
93.999999999999545
 50
65.856028556216003
 51
67.530042463299708
  0
ARC
  5
272
  8
1
 62
     7
 10
591.0
 20
367.0
 30
0.0
 40
94.0
 50
29.20172312952797
 51
30.445020306912731
  0
ARC
  5
273
  8
1
 62
     7
 10
591.0
 20
367.0
 30
0.0
 40
93.999999999999886
 50
22.46995753669998
 51
24.14397144378453
  0
ARC
  5
274
  8
1
 62
     7
 10
591.0
 20
367.0
 30
0.0
 40
93.999999999999815
 50
35.355222453222027
 51
36.57023931206259
  0
ARC
  5
275
  8
1
 62
     7
 10
591.0
 20
367.0
 30
0.0
 40
93.999999999999886
 50
317.40052546366587
 51
318.60210723663857
  0
ARC
  5
276
  8
1
 62
     7
 10
591.0
 20
367.0
 30
0.0
 40
94.000000000000114
 50
311.39789276336131
 51
312.59947453633362
  0
ARC
  5
277
  8
1
 62
     7
 10
591.0
 20
367.0
 30
0.0
 40
93.999999999999872
 50
305.35522245322193
 51
306.57023931206271
  0
ARC
  5
278
  8
1
 62
     7
 10
591.0
 20
367.0
 30
0.0
 40
93.999999999999957
 50
299.2017231295282
 51
300.44502030691262
  0
ARC
  5
279
  8
1
 62
     7
 10
591.0
 20
367.0
 30
0.0
 40
93.999999999999957
 50
292.46995753670029
 51
294.14397144378393
  0
ARC
  5
27A
  8
1
 62
     7
 10
591.0
 20
367.0
 30
0.0
 40
93.999999999999702
 50
329.55497969308732
 51
330.79827687047191
  0
ARC
  5
27B
  8
1
 62
     7
 10
591.0
 20
367.0
 30
0.0
 40
93.999999999999886
 50
335.85602855621528
 51
337.53004246329982
  0
ARC
  5
27C
  8
1
 62
     7
 10
591.0
 20
367.0
 30
0.0
 40
94.000000000000156
 50
323.4297606879374
 51
324.6447775467779
  0
ARC
  5
27D
  8
1
 62
     7
 10
591.0
 20
367.0
 30
0.0
 40
94.000000000000227
 50
221.3978927633614
 51
222.5994745363339
  0
ARC
  5
27E
  8
1
 62
     7
 10
591.0
 20
367.0
 30
0.0
 40
93.999999999999872
 50
227.40052546366621
 51
228.6021072366384
  0
ARC
  5
27F
  8
1
 62
     7
 10
591.0
 20
367.0
 30
0.0
 40
94.000000000000114
 50
209.20172312952801
 51
210.4450203069126
  0
ARC
  5
280
  8
1
 62
     7
 10
591.0
 20
367.0
 30
0.0
 40
94.0
 50
215.3552224532219
 51
216.5702393120626
  0
ARC
  5
281
  8
1
 62
     7
 10
591.0
 20
367.0
 30
0.0
 40
94.000000000000227
 50
233.42976068793709
 51
234.6447775467779
  0
ARC
  5
282
  8
1
 62
     7
 10
591.0
 20
367.0
 30
0.0
 40
93.999999999999929
 50
239.55497969308729
 51
240.79827687047171
  0
ARC
  5
283
  8
1
 62
     7
 10
591.0
 20
367.0
 30
0.0
 40
93.999999999999702
 50
245.8560285562159
 51
247.5300424633003
  0
ARC
  5
284
  8
1
 62
     7
 10
591.0
 20
367.0
 30
0.0
 40
94.0
 50
202.46995753670001
 51
204.14397144378441
  0
ARC
  5
285
  8
1
 62
     7
 10
591.0
 20
367.0
 30
0.0
 40
15.00000000000006
 50
105.4660099534205
 51
74.533990046579518
  0
ARC
  5
286
  8
1
 62
     7
 10
591.0
 20
367.96249999999992
 30
0.0
 40
16.837499999999899
 50
301.61841388032991
 51
238.38158611966989
  0
ARC
  5
287
  8
1
 62
     7
 10
329.61640603833661
 20
316.0564575050762
 30
0.0
 40
2.8835939616635509
 50
319.44103660467829
 51
40.558963395321641
  0
ARC
  5
288
  8
1
 62
     7
 10
322.00485463788732
 20
310.4314575050762
 30
0.0
 40
10.49514536211278
 50
339.06503364814722
 51
20.93496635185279
  0
ARC
  5
289
  8
1
 62
     7
 10
329.61640603833661
 20
304.8064575050762
 30
0.0
 40
2.8835939616635509
 50
319.44103660467829
 51
40.558963395321641
  0
ARC
  5
28A
  8
1
 62
     7
 10
191.29654036638709
 20
304.8064575050762
 30
0.0
 40
2.796540366387235
 50
137.89655112925391
 51
222.10344887074609
  0
ARC
  5
28B
  8
1
 62
     7
 10
198.60362971081841
 20
310.4314575050762
 30
0.0
 40
10.10362971081844
 50
158.21321070173809
 51
201.78678929826191
  0
ARC
  5
28C
  8
1
 62
     7
 10
191.29654036638709
 20
316.0564575050762
 30
0.0
 40
2.796540366387235
 50
137.89655112925391
 51
222.10344887074609
  0
ARC
  5
28D
  8
1
 62
     7
 10
192.20345963361279
 20
304.8064575050762
 30
0.0
 40
2.796540366387235
 50
317.89655112925391
 51
42.103448870746099
  0
ARC
  5
28E
  8
1
 62
     7
 10
184.89637028918159
 20
310.4314575050762
 30
0.0
 40
10.10362971081844
 50
338.21321070173809
 51
21.78678929826183
  0
ARC
  5
28F
  8
1
 62
     7
 10
192.20345963361279
 20
316.0564575050762
 30
0.0
 40
2.796540366387235
 50
317.89655112925391
 51
42.103448870746099
  0
ARC
  5
290
  8
1
 62
     7
 10
329.61640603833661
 20
417.94354249492369
 30
0.0
 40
2.8835939616635509
 50
319.44103660467829
 51
40.558963395321641
  0
ARC
  5
291
  8
1
 62
     7
 10
322.00485463788732
 20
423.56854249492358
 30
0.0
 40
10.49514536211278
 50
339.06503364814722
 51
20.93496635185279
  0
ARC
  5
292
  8
1
 62
     7
 10
329.61640603833661
 20
429.19354249492369
 30
0.0
 40
2.8835939616635509
 50
319.44103660467829
 51
40.558963395321641
  0
ARC
  5
293
  8
1
 62
     7
 10
191.29654036638709
 20
429.19354249492369
 30
0.0
 40
2.796540366387235
 50
137.89655112925391
 51
222.10344887074609
  0
ARC
  5
294
  8
1
 62
     7
 10
198.60362971081841
 20
423.56854249492358
 30
0.0
 40
10.10362971081844
 50
158.21321070173809
 51
201.78678929826191
  0
ARC
  5
295
  8
1
 62
     7
 10
191.29654036638709
 20
417.94354249492369
 30
0.0
 40
2.796540366387235
 50
137.89655112925391
 51
222.10344887074771
  0
ARC
  5
296
  8
1
 62
     7
 10
192.20345963361279
 20
429.19354249492369
 30
0.0
 40
2.796540366387235
 50
317.89655112925391
 51
42.103448870746099
  0
ARC
  5
297
  8
1
 62
     7
 10
184.89637028918159
 20
423.56854249492369
 30
0.0
 40
10.103629710818479
 50
338.21321070173752
 51
21.786789298261251
  0
ARC
  5
298
  8
1
 62
     7
 10
192.20345963361279
 20
417.94354249492369
 30
0.0
 40
2.796540366387235
 50
317.89655112925391
 51
42.103448870746099
  0
ARC
  5
299
  8
1
 62
     7
 10
357.00000000000011
 20
559.84343249131416
 30
0.0
 40
12.0
 50
270.0
 51
90.0
  0
ARC
  5
29A
  8
1
 62
     7
 10
357.00000000000011
 20
719.84343249131427
 30
0.0
 40
12.0
 50
270.0
 51
90.0
  0
ARC
  5
29B
  8
1
 62
     7
 10
167.0
 20
559.84343249131416
 30
0.0
 40
12.0
 50
90.0
 51
270.0
  0
ARC
  5
29C
  8
1
 62
     7
 10
167.0
 20
719.84343249131427
 30
0.0
 40
12.0
 50
90.0
 51
270.0
  0
ARC
  5
29D
  8
1
 62
     7
 10
386.00000000000011
 20
639.84343249131416
 30
0.0
 40
4.0
 50
90.0
 51
270.0
  0
ARC
  5
29E
  8
1
 62
     7
 10
138.0
 20
639.84343249131416
 30
0.0
 40
4.0
 50
270.0
 51
90.0
  0
ARC
  5
29F
  8
1
 62
     7
 10
329.61640603833661
 20
690.78697498623796
 30
0.0
 40
2.8835939616635509
 50
319.44103660467829
 51
40.558963395321641
  0
ARC
  5
2A0
  8
1
 62
     7
 10
322.00485463788732
 20
696.41197498623785
 30
0.0
 40
10.49514536211278
 50
339.06503364814722
 51
20.93496635185279
  0
ARC
  5
2A1
  8
1
 62
     7
 10
329.61640603833661
 20
702.03697498623785
 30
0.0
 40
2.8835939616635509
 50
319.44103660467829
 51
40.558963395321641
  0
ARC
  5
2A2
  8
1
 62
     7
 10
329.61640603833661
 20
588.89988999639058
 30
0.0
 40
2.8835939616635509
 50
319.44103660467829
 51
40.558963395321641
  0
ARC
  5
2A3
  8
1
 62
     7
 10
322.00485463788732
 20
583.27488999639047
 30
0.0
 40
10.49514536211278
 50
339.06503364814722
 51
20.93496635185279
  0
ARC
  5
2A4
  8
1
 62
     7
 10
329.61640603833661
 20
577.64988999639058
 30
0.0
 40
2.8835939616635509
 50
319.44103660467829
 51
40.558963395321641
  0
ARC
  5
2A5
  8
1
 62
     7
 10
191.29654036638709
 20
702.03697498623785
 30
0.0
 40
2.796540366387235
 50
137.89655112925391
 51
222.10344887074609
  0
ARC
  5
2A6
  8
1
 62
     7
 10
198.60362971081841
 20
696.41197498623785
 30
0.0
 40
10.10362971081844
 50
158.21321070173809
 51
201.78678929826191
  0
ARC
  5
2A7
  8
1
 62
     7
 10
191.29654036638709
 20
690.78697498623796
 30
0.0
 40
2.796540366387235
 50
137.89655112925391
 51
222.10344887074609
  0
ARC
  5
2A8
  8
1
 62
     7
 10
192.20345963361279
 20
702.03697498623785
 30
0.0
 40
2.796540366387235
 50
317.89655112925391
 51
42.103448870746099
  0
ARC
  5
2A9
  8
1
 62
     7
 10
184.89637028918159
 20
696.41197498623785
 30
0.0
 40
10.10362971081844
 50
338.21321070173809
 51
21.78678929826183
  0
ARC
  5
2AA
  8
1
 62
     7
 10
192.20345963361279
 20
690.78697498623796
 30
0.0
 40
2.796540366387235
 50
317.89655112925391
 51
42.103448870746099
  0
ARC
  5
2AB
  8
1
 62
     7
 10
191.29654036638709
 20
577.64988999639058
 30
0.0
 40
2.796540366387235
 50
137.89655112925391
 51
222.10344887074609
  0
ARC
  5
2AC
  8
1
 62
     7
 10
198.60362971081841
 20
583.27488999639047
 30
0.0
 40
10.10362971081844
 50
158.21321070173809
 51
201.78678929826191
  0
ARC
  5
2AD
  8
1
 62
     7
 10
191.29654036638709
 20
588.89988999639058
 30
0.0
 40
2.796540366387235
 50
137.89655112925391
 51
222.10344887074609
  0
ARC
  5
2AE
  8
1
 62
     7
 10
192.20345963361279
 20
577.64988999639058
 30
0.0
 40
2.796540366387235
 50
317.89655112925391
 51
42.103448870746099
  0
ARC
  5
2AF
  8
1
 62
     7
 10
184.89637028918159
 20
583.27488999639047
 30
0.0
 40
10.10362971081844
 50
338.21321070173809
 51
21.78678929826183
  0
ARC
  5
2B0
  8
1
 62
     7
 10
192.20345963361279
 20
588.89988999639058
 30
0.0
 40
2.796540366387235
 50
317.89655112925391
 51
42.103448870746099
  0
ARC
  5
2B1
  8
1
 62
     7
 10
591.0
 20
367.0
 30
0.0
 40
12.49999999999997
 50
108.6629248849424
 51
71.337075115057488
  0
ARC
  5
2B2
  8
1
 62
     7
 10
262.00000000000023
 20
299.0
 30
0.0
 40
3.621406041125645
 50
106.0297142583958
 51
253.97028574160359
  0
ARC
  5
2B3
  8
1
 62
     7
 10
262.00000000000023
 20
299.0
 30
0.0
 40
3.6214060411255349
 50
286.02971425839633
 51
73.970285741604215
  0
ARC
  5
2B4
  8
1
 62
     7
 10
232.25000000000031
 20
297.25
 30
0.0
 40
1.4874999999999821
 50
0.0
 51
90.0
  0
ARC
  5
2B5
  8
1
 62
     7
 10
232.25000000000031
 20
300.75
 30
0.0
 40
1.4874999999998979
 50
270.0
 51
0.0
  0
ARC
  5
2B6
  8
1
 62
     7
 10
235.75000000000031
 20
300.75
 30
0.0
 40
1.4875000000001239
 50
180.0
 51
270.0
  0
ARC
  5
2B7
  8
1
 62
     7
 10
235.75000000000031
 20
297.25
 30
0.0
 40
1.487500000000181
 50
90.0
 51
180.0
  0
ARC
  5
2B8
  8
1
 62
     7
 10
288.25000000000023
 20
297.25
 30
0.0
 40
1.4874999999998979
 50
0.0
 51
90.0
  0
ARC
  5
2B9
  8
1
 62
     7
 10
288.25000000000023
 20
300.75
 30
0.0
 40
1.4874999999998979
 50
270.0
 51
0.0
  0
ARC
  5
2BA
  8
1
 62
     7
 10
291.75000000000028
 20
300.75
 30
0.0
 40
1.487500000000181
 50
180.0
 51
270.0
  0
ARC
  5
2BB
  8
1
 62
     7
 10
291.75000000000028
 20
297.25
 30
0.0
 40
1.487500000000181
 50
90.0
 51
180.0
  0
ARC
  5
2BC
  8
1
 62
     7
 10
291.00000000000023
 20
279.0
 30
0.0
 40
1.0
 50
270.0
 51
90.0
  0
ARC
  5
2BD
  8
1
 62
     7
 10
291.00000000000011
 20
281.0
 30
0.0
 40
1.0
 50
270.0
 51
90.0
  0
ARC
  5
2BE
  8
1
 62
     7
 10
291.00000000000023
 20
280.0
 30
0.0
 40
3.9999999999997868
 50
210.00000000000179
 51
149.9999999999981
  0
ARC
  5
2BF
  8
1
 62
     7
 10
233.0000000000004
 20
279.0
 30
0.0
 40
1.0
 50
90.0
 51
270.0
  0
ARC
  5
2C0
  8
1
 62
     7
 10
233.0000000000004
 20
281.0
 30
0.0
 40
1.0
 50
90.0
 51
270.0
  0
ARC
  5
2C1
  8
1
 62
     7
 10
233.0000000000004
 20
280.0
 30
0.0
 40
3.999999999999861
 50
30.000000000001162
 51
329.99999999999892
  0
ARC
  5
2C2
  8
1
  6
DASHED
 62
     7
 10
508.30000000000018
 20
299.0
 30
0.0
 40
7.0000000000001874
 50
163.0422366999932
 51
196.9577633000028
  0
CIRCLE
  5
2C3
  8
1
 62
     3
 10
591.0
 20
367.0
 30
0.0
 40
4.0
  0
CIRCLE
  5
2C4
  8
1
 62
     7
 10
591.0
 20
367.0
 30
0.0
 40
3.2000000000000459
  0
CIRCLE
  5
2C5
  8
1
 62
     7
 10
585.79999999999995
 20
350.25306154330082
 30
0.0
 40
1.0
  0
CIRCLE
  5
2C6
  8
1
 62
     7
 10
596.20000000000005
 20
350.25306154330082
 30
0.0
 40
1.0
  0
CIRCLE
  5
2C7
  8
1
 62
     7
 10
591.0
 20
367.0
 30
0.0
 40
31.0
  0
CIRCLE
  5
2C8
  8
1
 62
     7
 10
591.0
 20
367.0
 30
0.0
 40
39.0
  0
CIRCLE
  5
2C9
  8
1
 62
     7
 10
591.0
 20
367.0
 30
0.0
 40
68.000000000000213
  0
CIRCLE
  5
2CA
  8
1
 62
     7
 10
591.0
 20
367.0
 30
0.0
 40
58.00000000000022
  0
CIRCLE
  5
2CB
  8
1
 62
     7
 10
647.56854249492369
 20
423.56854249492369
 30
0.0
 40
8.0
  0
CIRCLE
  5
2CC
  8
1
 62
     7
 10
647.56854249492369
 20
423.56854249492369
 30
0.0
 40
6.5
  0
CIRCLE
  5
2CD
  8
1
 62
     7
 10
534.4314575050762
 20
423.56854249492397
 30
0.0
 40
8.0
  0
CIRCLE
  5
2CE
  8
1
 62
     7
 10
534.4314575050762
 20
423.56854249492397
 30
0.0
 40
6.5
  0
CIRCLE
  5
2CF
  8
1
 62
     7
 10
534.43145750507585
 20
310.4314575050762
 30
0.0
 40
8.0
  0
CIRCLE
  5
2D0
  8
1
 62
     7
 10
534.43145750507585
 20
310.4314575050762
 30
0.0
 40
6.5
  0
CIRCLE
  5
2D1
  8
1
 62
     7
 10
647.56854249492335
 20
310.43145750507608
 30
0.0
 40
8.0
  0
CIRCLE
  5
2D2
  8
1
 62
     7
 10
647.56854249492335
 20
310.43145750507608
 30
0.0
 40
6.5
  0
CIRCLE
  5
2D3
  8
1
 62
     7
 10
357.00000000000011
 20
559.84343249131416
 30
0.0
 40
5.5
  0
CIRCLE
  5
2D4
  8
1
 62
     7
 10
357.00000000000011
 20
719.84343249131427
 30
0.0
 40
5.5
  0
CIRCLE
  5
2D5
  8
1
 62
     7
 10
167.0
 20
559.84343249131416
 30
0.0
 40
5.5
  0
CIRCLE
  5
2D6
  8
1
 62
     7
 10
167.0
 20
719.84343249131427
 30
0.0
 40
5.5
  0
CIRCLE
  5
2D7
  8
1
 62
     7
 10
234.0000000000002
 20
299.0
 30
0.0
 40
2.75
  0
CIRCLE
  5
2D8
  8
1
 62
     7
 10
290.00000000000028
 20
299.0
 30
0.0
 40
2.75
  0
CIRCLE
  5
2D9
  8
1
 62
     7
 10
279.25000000000028
 20
292.75
 30
0.0
 40
2.4421347818822592
  0
CIRCLE
  5
2DA
  8
1
 62
     7
 10
279.25000000000028
 20
292.75
 30
0.0
 40
1.599999999999965
  0
CIRCLE
  5
2DB
  8
1
 62
     7
 10
267.75000000000023
 20
292.75
 30
0.0
 40
2.4421347818824302
  0
CIRCLE
  5
2DC
  8
1
 62
     7
 10
267.75000000000023
 20
292.75
 30
0.0
 40
1.600000000000023
  0
CIRCLE
  5
2DD
  8
1
 62
     7
 10
267.75000000000023
 20
305.25
 30
0.0
 40
2.4421347818824302
  0
CIRCLE
  5
2DE
  8
1
 62
     7
 10
267.75000000000023
 20
305.25
 30
0.0
 40
1.600000000000023
  0
CIRCLE
  5
2DF
  8
1
 62
     7
 10
279.25000000000028
 20
305.25
 30
0.0
 40
2.4421347818822592
  0
CIRCLE
  5
2E0
  8
1
 62
     7
 10
279.25000000000028
 20
305.25
 30
0.0
 40
1.599999999999965
  0
CIRCLE
  5
2E1
  8
1
 62
     7
 10
244.75000000000031
 20
292.75
 30
0.0
 40
2.442134781882372
  0
CIRCLE
  5
2E2
  8
1
 62
     7
 10
244.75000000000031
 20
292.75
 30
0.0
 40
1.5999999999999941
  0
CIRCLE
  5
2E3
  8
1
 62
     7
 10
256.25000000000028
 20
292.75
 30
0.0
 40
2.4421347818822881
  0
CIRCLE
  5
2E4
  8
1
 62
     7
 10
256.25000000000028
 20
292.75
 30
0.0
 40
1.5999999999999941
  0
CIRCLE
  5
2E5
  8
1
 62
     7
 10
256.25000000000028
 20
305.25
 30
0.0
 40
2.4421347818822881
  0
CIRCLE
  5
2E6
  8
1
 62
     7
 10
256.25000000000028
 20
305.25
 30
0.0
 40
1.5999999999999941
  0
CIRCLE
  5
2E7
  8
1
 62
     7
 10
244.75000000000031
 20
305.25
 30
0.0
 40
2.442134781882372
  0
CIRCLE
  5
2E8
  8
1
 62
     7
 10
244.75000000000031
 20
305.25
 30
0.0
 40
1.5999999999999941
  0
ARC
  5
2E9
  8
1
 62
     7
 10
546.61499461858693
 20
453.81141225260592
 30
0.0
 40
2.4999999999998179
 50
45.000000000008292
 51
225.0000000000046
  0
ARC
  5
2EA
  8
1
 62
     7
 10
537.66528774240192
 20
448.61898350505982
 30
0.0
 40
2.5000000000005831
 50
44.999999999988937
 51
225.0000000000083
  0
ARC
  5
2EB
  8
1
 62
     7
 10
529.49173419013982
 20
442.65040143359158
 30
0.0
 40
2.4999999999998601
 50
45.00000000000184
 51
224.99999999999531
  0
ARC
  5
2EC
  8
1
 62
     7
 10
522.05708883431157
 20
435.94291116568837
 30
0.0
 40
2.4999999999998601
 50
44.999999999998167
 51
224.99999999999159
  0
ARC
  5
2ED
  8
1
 62
     7
 10
499.0
 20
398.99999999999977
 30
0.0
 40
3.0
 50
90.0
 51
180.0
  0
ARC
  5
2EE
  8
1
 62
     7
 10
504.1885877473938
 20
411.3850053814129
 30
0.0
 40
2.5000000000000999
 50
45.00000000000184
 51
224.99999999999909
  0
ARC
  5
2EF
  8
1
 62
     7
 10
509.38101649494013
 20
420.33471225759769
 30
0.0
 40
2.4999999999998588
 50
45.000000000003681
 51
224.9999999999981
  0
ARC
  5
2F0
  8
1
 62
     7
 10
515.34959856640899
 20
428.50826580986052
 30
0.0
 40
2.4999999999996581
 50
45.000000000008292
 51
224.99999999999079
  0
ARC
  5
2F1
  8
1
 62
     7
 10
520.70213534980883
 20
431.64101040069932
 30
0.0
 40
1.499999999999553
 50
317.40052546365501
 51
45.000000000023029
  0
ARC
  5
2F2
  8
1
 62
     7
 10
526.3589895993008
 20
437.29786465019163
 30
0.0
 40
1.5000000000002129
 50
224.99999999999849
 51
312.59947453632873
  0
ARC
  5
2F3
  8
1
 62
     7
 10
519.36207016000287
 20
430.15264846575849
 30
0.0
 40
1.499999999999529
 50
225.00000000002149
 51
318.60210723663079
  0
ARC
  5
2F4
  8
1
 62
     7
 10
514.30136584737681
 20
423.89964427939901
 30
0.0
 40
1.500000000000316
 50
323.42976068794809
 51
44.999999999993861
  0
ARC
  5
2F5
  8
1
 62
     7
 10
534.10035572060087
 20
443.6986341526225
 30
0.0
 40
1.500000000000133
 50
224.99999999999531
 51
306.57023931205521
  0
ARC
  5
2F6
  8
1
 62
     7
 10
527.84735153424185
 20
438.63792983999701
 30
0.0
 40
1.499999999999621
 50
311.39789276334528
 51
45.000000000024571
  0
ARC
  5
2F7
  8
1
 62
     7
 10
508.66794247057402
 20
415.39093203247131
 30
0.0
 40
1.5000000000002549
 50
329.55497969309278
 51
44.99999999999693
  0
ARC
  5
2F8
  8
1
 62
     7
 10
503.85428874751881
 20
406.06245013179631
 30
0.0
 40
1.4999999999992411
 50
335.85602855620181
 51
44.99999999999693
  0
ARC
  5
2F9
  8
1
 62
     7
 10
542.60906796752886
 20
449.33205752942592
 30
0.0
 40
1.5000000000000511
 50
224.9999999999923
 51
300.44502030689671
  0
ARC
  5
2FA
  8
1
 62
     7
 10
551.93754986820375
 20
454.14571125248159
 30
0.0
 40
1.5000000000000511
 50
224.9999999999923
 51
294.14397144379939
  0
ARC
  5
2FB
  8
1
 62
     7
 10
544.40689545897885
 20
450.3626571627214
 30
0.0
 40
1.4999999999998579
 50
299.20172312951428
 51
44.999999999989257
  0
ARC
  5
2FC
  8
1
 62
     7
 10
535.73950178196901
 20
444.88791521600069
 30
0.0
 40
1.499999999999774
 50
305.35522245320391
 51
44.999999999993861
  0
ARC
  5
2FD
  8
1
 62
     7
 10
513.11208478399885
 20
422.26049821803127
 30
0.0
 40
1.5000000000002529
 50
225.0
 51
324.64477754678092
  0
ARC
  5
2FE
  8
1
 62
     7
 10
507.63734283727888
 20
413.59310454102098
 30
0.0
 40
1.500000000000173
 50
224.99999999999679
 51
330.79827687045548
  0
ARC
  5
2FF
  8
1
 62
     7
 10
559.0
 20
459.0
 30
0.0
 40
3.0
 50
90.0
 51
180.0
  0
ARC
  5
300
  8
1
 62
     7
 10
554.49999999999989
 20
455.24964589164063
 30
0.0
 40
1.500000000000284
 50
292.46995753671928
 51
0.0
  0
ARC
  5
301
  8
1
 62
     7
 10
502.75035410835977
 20
403.49999999999977
 30
0.0
 40
1.5
 50
270.0
 51
337.53004246328908
  0
ARC
  5
302
  8
1
 62
     7
 10
635.38500538141295
 20
453.81141225260609
 30
0.0
 40
2.500000000000381
 50
315.00000000000819
 51
134.99999999999719
  0
ARC
  5
303
  8
1
 62
     7
 10
644.33471225759774
 20
448.61898350505982
 30
0.0
 40
2.4999999999998179
 50
314.99999999999159
 51
134.99999999999261
  0
ARC
  5
304
  8
1
 62
     7
 10
652.50826580986052
 20
442.65040143359158
 30
0.0
 40
2.50000000000006
 50
314.99999999999352
 51
134.9999999999888
  0
ARC
  5
305
  8
1
 62
     7
 10
659.94291116568843
 20
435.94291116568837
 30
0.0
 40
2.4999999999999001
 50
315.0000000000008
 51
135.00000000000179
  0
ARC
  5
306
  8
1
 62
     7
 10
661.29786465019072
 20
431.64101040069932
 30
0.0
 40
1.4999999999992479
 50
134.9999999999647
 51
222.5994745363509
  0
ARC
  5
307
  8
1
 62
     7
 10
655.6410104007
 20
437.29786465019163
 30
0.0
 40
1.5000000000007021
 50
227.4005254636393
 51
314.99999999996459
  0
ARC
  5
308
  8
1
 62
     7
 10
662.63792983999713
 20
430.15264846575849
 30
0.0
 40
1.5000000000000351
 50
221.39789276336339
 51
315.00000000000313
  0
ARC
  5
309
  8
1
 62
     7
 10
647.8996442793989
 20
443.6986341526225
 30
0.0
 40
1.499999999999815
 50
233.42976068794479
 51
315.0000000000046
  0
ARC
  5
30A
  8
1
 62
     7
 10
654.15264846575803
 20
438.63792983999701
 30
0.0
 40
1.4999999999996101
 50
134.99999999997539
 51
228.60210723665449
  0
ARC
  5
30B
  8
1
 62
     7
 10
639.39093203247182
 20
449.33205752942592
 30
0.0
 40
1.500000000000405
 50
239.55497969306589
 51
315.00000000000767
  0
ARC
  5
30C
  8
1
 62
     7
 10
630.06245013179591
 20
454.14571125248159
 30
0.0
 40
1.5000000000001299
 50
245.8560285562005
 51
315.00000000000767
  0
ARC
  5
30D
  8
1
 62
     7
 10
637.59310454102092
 20
450.3626571627214
 30
0.0
 40
1.499999999999972
 50
135.0000000000106
 51
240.79827687048581
  0
ARC
  5
30E
  8
1
 62
     7
 10
646.2604982180319
 20
444.88791521600069
 30
0.0
 40
1.500000000000093
 50
135.000000000006
 51
234.64477754676059
  0
ARC
  5
30F
  8
1
 62
     7
 10
623.0
 20
459.0
 30
0.0
 40
3.0
 50
0.0
 51
90.0
  0
ARC
  5
310
  8
1
 62
     7
 10
627.5
 20
455.24964589164063
 30
0.0
 40
1.5
 50
180.0
 51
247.53004246331281
  0
ARC
  5
311
  8
1
 62
     7
 10
683.0
 20
398.99999999999977
 30
0.0
 40
3.0
 50
0.0
 51
90.0
  0
ARC
  5
312
  8
1
 62
     7
 10
677.81141225260592
 20
411.3850053814129
 30
0.0
 40
2.5000000000000999
 50
315.00000000000369
 51
134.99999999999531
  0
ARC
  5
313
  8
1
 62
     7
 10
673.33205752942615
 20
415.39093203247131
 30
0.0
 40
1.500000000000173
 50
135.00000000000301
 51
210.44502030690489
  0
ARC
  5
314
  8
1
 62
     7
 10
678.14571125248085
 20
406.06245013179631
 30
0.0
 40
1.499999999999529
 50
134.99999999997851
 51
204.1439714437945
  0
ARC
  5
315
  8
1
 62
     7
 10
674.36265716272203
 20
413.59310454102098
 30
0.0
 40
1.50000000000025
 50
209.2017231295232
 51
315.00000000000313
  0
ARC
  5
316
  8
1
 62
     7
 10
679.24964589164085
 20
403.49999999999977
 30
0.0
 40
1.5000000000000679
 50
202.4699575366993
 51
270.0
  0
ARC
  5
317
  8
1
 62
     7
 10
672.61898350505999
 20
420.33471225759752
 30
0.0
 40
2.4999999999997788
 50
315.0
 51
135.00000000000091
  0
ARC
  5
318
  8
1
 62
     7
 10
666.65040143359158
 20
428.50826580986052
 30
0.0
 40
2.4999999999999392
 50
315.0
 51
134.9999999999917
  0
ARC
  5
319
  8
1
 62
     7
 10
667.69863415262182
 20
423.89964427939901
 30
0.0
 40
1.500000000000093
 50
135.000000000006
 51
216.570239312083
  0
ARC
  5
31A
  8
1
 62
     7
 10
668.88791521600069
 20
422.26049821803127
 30
0.0
 40
1.50000000000001
 50
215.35522245322409
 51
315.0
  0
ARC
  5
31B
  8
1
 62
     7
 10
635.38500538141273
 20
280.18858774739391
 30
0.0
 40
2.4999999999998179
 50
225.0000000000083
 51
45.000000000004597
  0
ARC
  5
31C
  8
1
 62
     7
 10
644.33471225759774
 20
285.38101649494001
 30
0.0
 40
2.500000000000421
 50
224.9999999999925
 51
45.000000000008292
  0
ARC
  5
31D
  8
1
 62
     7
 10
652.50826580986086
 20
291.34959856640808
 30
0.0
 40
2.5000000000003011
 50
224.9999999999861
 51
45.000000000017486
  0
ARC
  5
31E
  8
1
 62
     7
 10
659.94291116568866
 20
298.05708883431112
 30
0.0
 40
2.4999999999998588
 50
224.9999999999871
 51
45.000000000006459
  0
ARC
  5
31F
  8
1
 62
     7
 10
661.29786465019072
 20
302.35898959930051
 30
0.0
 40
1.4999999999994249
 50
137.40052546364751
 51
225.00000000003371
  0
ARC
  5
320
  8
1
 62
     7
 10
655.6410104007
 20
296.70213534980832
 30
0.0
 40
1.499999999999208
 50
45.000000000033772
 51
132.59947453636221
  0
ARC
  5
321
  8
1
 62
     7
 10
662.63792983999713
 20
303.84735153424128
 30
0.0
 40
1.500000000000173
 50
44.99999999999693
 51
138.60210723663661
  0
ARC
  5
322
  8
1
 62
     7
 10
647.8996442793989
 20
290.30136584737733
 30
0.0
 40
1.500000000000133
 50
44.999999999995389
 51
126.57023931205531
  0
ARC
  5
323
  8
1
 62
     7
 10
654.15264846575803
 20
295.36207016000282
 30
0.0
 40
1.499999999999664
 50
131.397892763344
 51
225.00000000002461
  0
ARC
  5
324
  8
1
 62
     7
 10
639.39093203247182
 20
284.66794247057402
 30
0.0
 40
1.500000000000093
 50
44.999999999993861
 51
120.44502030693521
  0
ARC
  5
325
  8
1
 62
     7
 10
630.06245013179591
 20
279.85428874751818
 30
0.0
 40
1.5000000000000511
 50
44.999999999992319
 51
114.14397144379851
  0
ARC
  5
326
  8
1
 62
     7
 10
637.59310454102092
 20
283.63734283727842
 30
0.0
 40
1.499999999999809
 50
119.2017231295153
 51
224.99999999998931
  0
ARC
  5
327
  8
1
 62
     7
 10
646.2604982180319
 20
289.11208478399908
 30
0.0
 40
1.5000000000004301
 50
125.35522245323919
 51
224.99999999999389
  0
ARC
  5
328
  8
1
 62
     7
 10
623.0
 20
274.99999999999989
 30
0.0
 40
3.0
 50
270.0
 51
0.0
  0
ARC
  5
329
  8
1
 62
     7
 10
627.5
 20
278.75035410835932
 30
0.0
 40
1.4999999999998841
 50
112.469957536688
 51
180.0
  0
ARC
  5
32A
  8
1
 62
     7
 10
683.0
 20
335.0
 30
0.0
 40
3.0
 50
270.0
 51
0.0
  0
ARC
  5
32B
  8
1
 62
     7
 10
677.81141225260592
 20
322.61499461858682
 30
0.0
 40
2.5000000000000191
 50
225.00000000000551
 51
44.999999999988937
  0
ARC
  5
32C
  8
1
 62
     7
 10
673.33205752942615
 20
318.60906796752852
 30
0.0
 40
1.5000000000003819
 50
149.554979693093
 51
224.99999999999849
  0
ARC
  5
32D
  8
1
 62
     7
 10
678.14571125248085
 20
327.93754986820352
 30
0.0
 40
1.499999999999426
 50
155.85602855620749
 51
225.00000000002299
  0
ARC
  5
32E
  8
1
 62
     7
 10
674.36265716272203
 20
320.40689545897879
 30
0.0
 40
1.5000000000002529
 50
45.0
 51
150.79827687047489
  0
ARC
  5
32F
  8
1
 62
     7
 10
679.24964589164085
 20
330.5
 30
0.0
 40
1.5
 50
90.0
 51
157.53004246330059
  0
ARC
  5
330
  8
1
 62
     7
 10
672.61898350505999
 20
313.6652877424022
 30
0.0
 40
2.49999999999998
 50
225.0000000000046
 51
45.000000000009209
  0
ARC
  5
331
  8
1
 62
     7
 10
666.65040143359204
 20
305.49173419013931
 30
0.0
 40
2.5000000000005032
 50
224.9999999999871
 51
45.000000000008292
  0
ARC
  5
332
  8
1
 62
     7
 10
667.69863415262182
 20
310.10035572060082
 30
0.0
 40
1.49999999999922
 50
143.42976068791711
 51
224.99999999999389
  0
ARC
  5
333
  8
1
 62
     7
 10
668.88791521600069
 20
311.73950178196861
 30
0.0
 40
1.5000000000002529
 50
45.0
 51
144.64477754677591
  0
ARC
  5
334
  8
1
 62
     7
 10
546.61499461858693
 20
280.18858774739391
 30
0.0
 40
2.4999999999996581
 50
134.99999999999531
 51
314.99999999999159
  0
ARC
  5
335
  8
1
 62
     7
 10
537.66528774240192
 20
285.38101649494001
 30
0.0
 40
2.4999999999998179
 50
134.9999999999917
 51
315.00000000001091
  0
ARC
  5
336
  8
1
 62
     7
 10
529.49173419013982
 20
291.34959856640819
 30
0.0
 40
2.5000000000005431
 50
135.0000000000046
 51
314.99999999999812
  0
ARC
  5
337
  8
1
 62
     7
 10
522.05708883431203
 20
298.05708883431163
 30
0.0
 40
2.500000000000381
 50
135.00000000001549
 51
314.99999999999432
  0
ARC
  5
338
  8
1
 62
     7
 10
499.0
 20
335.0
 30
0.0
 40
3.0
 50
180.0
 51
270.0
  0
ARC
  5
339
  8
1
 62
     7
 10
504.18858774739402
 20
322.61499461858682
 30
0.0
 40
2.4999999999998179
 50
134.99999999999361
 51
314.99999999999159
  0
ARC
  5
33A
  8
1
 62
     7
 10
509.38101649494001
 20
313.6652877424022
 30
0.0
 40
2.4999999999996989
 50
134.99999999999449
 51
314.99999999999159
  0
ARC
  5
33B
  8
1
 62
     7
 10
515.34959856640899
 20
305.49173419013931
 30
0.0
 40
2.500000000000461
 50
135.0000000000137
 51
314.99999999999432
  0
ARC
  5
33C
  8
1
 62
     7
 10
520.70213534980883
 20
302.35898959930051
 30
0.0
 40
1.499999999999529
 50
314.99999999997851
 51
42.599474536346641
  0
ARC
  5
33D
  8
1
 62
     7
 10
526.3589895993008
 20
296.70213534980832
 30
0.0
 40
1.499999999999891
 50
47.400525463669787
 51
135.00000000000301
  0
ARC
  5
33E
  8
1
 62
     7
 10
519.36207016000287
 20
303.84735153424128
 30
0.0
 40
1.4999999999998641
 50
41.397892763369107
 51
134.99999999997851
  0
ARC
  5
33F
  8
1
 62
     7
 10
514.30136584737681
 20
310.10035572060082
 30
0.0
 40
1.500000000000093
 50
315.0000000000062
 51
36.570239312051882
  0
ARC
  5
340
  8
1
 62
     7
 10
534.10035572060087
 20
290.30136584737733
 30
0.0
 40
1.499999999999815
 50
53.42976068794475
 51
135.0000000000046
  0
ARC
  5
341
  8
1
 62
     7
 10
527.84735153424185
 20
295.36207016000282
 30
0.0
 40
1.4999999999996101
 50
314.99999999997527
 51
48.602107236655989
  0
ARC
  5
342
  8
1
 62
     7
 10
508.66794247057402
 20
318.60906796752852
 30
0.0
 40
1.5000000000002129
 50
315.00000000000148
 51
30.4450203069091
  0
ARC
  5
343
  8
1
 62
     7
 10
503.85428874751881
 20
327.93754986820352
 30
0.0
 40
1.5000000000002129
 50
315.00000000000148
 51
24.14397144379603
  0
ARC
  5
344
  8
1
 62
     7
 10
542.60906796752886
 20
284.66794247057402
 30
0.0
 40
1.49999999999978
 50
59.55497969310224
 51
135.000000000006
  0
ARC
  5
345
  8
1
 62
     7
 10
551.93754986820375
 20
279.85428874751818
 30
0.0
 40
1.5000000000001821
 50
65.856028556201437
 51
135.0000000000077
  0
ARC
  5
346
  8
1
 62
     7
 10
544.40689545897885
 20
283.63734283727842
 30
0.0
 40
1.499999999999972
 50
315.00000000001057
 51
60.798276870484713
  0
ARC
  5
347
  8
1
 62
     7
 10
535.73950178196901
 20
289.11208478399908
 30
0.0
 40
1.500000000000093
 50
315.0000000000062
 51
54.644777546796099
  0
ARC
  5
348
  8
1
 62
     7
 10
513.11208478399885
 20
311.73950178196861
 30
0.0
 40
1.500000000000195
 50
35.355222453219092
 51
135.0
  0
ARC
  5
349
  8
1
 62
     7
 10
507.63734283727888
 20
320.40689545897879
 30
0.0
 40
1.499999999999285
 50
29.201723129546341
 51
135.0
  0
ARC
  5
34A
  8
1
 62
     7
 10
559.0
 20
274.99999999999989
 30
0.0
 40
3.0
 50
180.0
 51
270.0
  0
ARC
  5
34B
  8
1
 62
     7
 10
554.49999999999989
 20
278.75035410835932
 30
0.0
 40
1.5
 50
0.0
 51
67.530042463279813
  0
ARC
  5
34C
  8
1
 62
     7
 10
502.75035410835977
 20
330.5
 30
0.0
 40
1.499999999999331
 50
22.469957536710918
 51
90.0
  0
ARC
  5
34D
  8
1
  6
DASHED
 62
     7
 10
676.0
 20
320.23968735509709
 30
0.0
 40
3.0000000000000151
 50
151.55707137563601
 51
180.0
  0
ARC
  5
34E
  8
1
  6
DASHED
 62
     7
 10
683.0
 20
345.7603126449028
 30
0.0
 40
3.0000000000000151
 50
331.5570713756361
 51
0.0
  0
ARC
  5
34F
  8
1
  6
DASHED
 62
     7
 10
506.0
 20
320.23968735509709
 30
0.0
 40
3.0
 50
0.0
 51
28.442928624363908
  0
ARC
  5
350
  8
1
  6
DASHED
 62
     7
 10
499.0
 20
345.7603126449028
 30
0.0
 40
3.0
 50
180.0
 51
208.4429286243639
  0
ARC
  5
351
  8
1
 62
     7
 10
344.00000000000011
 20
408.0
 30
0.0
 40
2.0
 50
180.0
 51
270.0
  0
ARC
  5
352
  8
1
 62
     7
 10
580.60000000000002
 20
351.06970845301169
 30
0.0
 40
3.0
 50
0.0
 51
58.38158611967004
  0
ARC
  5
353
  8
1
 62
     7
 10
601.39999999999998
 20
351.06970845301169
 30
0.0
 40
3.0000000000000631
 50
121.61841388033
 51
180.0
  0
ARC
  5
354
  8
1
 62
     7
 10
585.60000000000002
 20
350.20306154330081
 30
0.0
 40
2.0
 50
180.0
 51
270.0
  0
ARC
  5
355
  8
1
 62
     7
 10
596.39999999999986
 20
350.20306154330081
 30
0.0
 40
2.0
 50
270.0
 51
0.0
  0
ARC
  5
356
  8
1
 62
     7
 10
328.00000000000011
 20
436.7158381629381
 30
0.0
 40
3.0
 50
180.0
 51
239.5344550805396
  0
ARC
  5
357
  8
1
 62
     7
 10
339.00000000000011
 20
423.28416183706179
 30
0.0
 40
3.0
 50
0.0
 51
59.53445508053958
  0
ARC
  5
358
  8
1
 62
     7
 10
322.00000000000011
 20
459.0
 30
0.0
 40
3.0
 50
0.0
 51
90.0
  0
ARC
  5
359
  8
1
 62
     7
 10
339.00000000000011
 20
310.7158381629381
 30
0.0
 40
2.9999999999999818
 50
300.4655449194604
 51
0.0
  0
ARC
  5
35A
  8
1
 62
     7
 10
345.00000000000011
 20
325.0
 30
0.0
 40
3.0
 50
90.0
 51
180.0
  0
ARC
  5
35B
  8
1
 62
     7
 10
328.00000000000011
 20
297.2841618370619
 30
0.0
 40
2.9999999999999329
 50
120.465544919461
 51
180.0
  0
ARC
  5
35C
  8
1
 62
     7
 10
298.50000000000011
 20
341.99999999999977
 30
0.0
 40
3.0
 50
0.0
 51
90.0
  0
ARC
  5
35D
  8
1
 62
     7
 10
225.5000000000002
 20
341.99999999999977
 30
0.0
 40
3.0
 50
90.0
 51
180.0
  0
ARC
  5
35E
  8
1
 62
     7
 10
298.50000000000011
 20
318.00000000000011
 30
0.0
 40
3.0
 50
0.0
 51
90.0
  0
ARC
  5
35F
  8
1
 62
     7
 10
225.5000000000002
 20
318.0
 30
0.0
 40
3.0
 50
90.0
 51
180.0
  0
ARC
  5
360
  8
1
 62
     7
 10
298.50000000000011
 20
269.0
 30
0.0
 40
3.0
 50
0.0
 51
90.0
  0
ARC
  5
361
  8
1
 62
     7
 10
225.5
 20
268.99999999999989
 30
0.0
 40
3.0
 50
90.0
 51
180.0
  0
ARC
  5
362
  8
1
 62
     7
 10
654.1243556529821
 20
277.0
 30
0.0
 40
3.0
 50
90.0
 51
120.00000000000141
  0
ARC
  5
363
  8
1
 62
     7
 10
639.0
 20
268.2679491924311
 30
0.0
 40
2.999999999999901
 50
120.00000000000099
 51
180.0
  0
ARC
  5
364
  8
1
 62
     7
 10
633.0
 20
269.0
 30
0.0
 40
3.0
 50
0.0
 51
90.0
  0
ARC
  5
365
  8
1
 62
     7
 10
527.87564434701756
 20
277.0
 30
0.0
 40
3.0000000000001061
 50
59.99999999999865
 51
90.0
  0
ARC
  5
366
  8
1
 62
     7
 10
543.0
 20
268.2679491924311
 30
0.0
 40
3.0
 50
0.0
 51
59.999999999998892
  0
ARC
  5
367
  8
1
 62
     7
 10
549.0
 20
269.0
 30
0.0
 40
3.0
 50
90.0
 51
180.0
  0
ARC
  5
368
  8
1
 62
     7
 10
498.0
 20
278.0
 30
0.0
 40
2.0
 50
90.0
 51
180.0
  0
ARC
  5
369
  8
1
 62
     7
 10
684.0
 20
278.0
 30
0.0
 40
2.0
 50
0.0
 51
90.0
  0
ARC
  5
36A
  8
1
 62
     7
 10
507.0
 20
304.0
 30
0.0
 40
3.0
 50
90.0
 51
180.0
  0
ARC
  5
36B
  8
1
 62
     7
 10
507.0
 20
283.0
 30
0.0
 40
3.0
 50
180.0
 51
270.0
  0
ARC
  5
36C
  8
1
 62
     7
 10
675.00000000000023
 20
283.0
 30
0.0
 40
3.0
 50
270.0
 51
0.0
  0
ARC
  5
36D
  8
1
 62
     7
 10
675.00000000000023
 20
304.0
 30
0.0
 40
3.0
 50
0.0
 51
90.0
  0
ARC
  5
36E
  8
1
 62
     7
 10
370.00000000000011
 20
278.0
 30
0.0
 40
2.0
 50
0.0
 51
90.0
  0
ARC
  5
36F
  8
1
 62
     7
 10
326.00000000000011
 20
301.43145750507608
 30
0.0
 40
1.0
 50
90.0
 51
180.0
  0
ARC
  5
370
  8
1
 62
     7
 10
326.00000000000011
 20
319.43145750507608
 30
0.0
 40
1.0
 50
180.0
 51
270.0
  0
ARC
  5
371
  8
1
 62
     7
 10
185.0
 20
310.7158381629381
 30
0.0
 40
3.0
 50
180.0
 51
239.5344550805396
  0
ARC
  5
372
  8
1
 62
     7
 10
179.0
 20
325.0
 30
0.0
 40
3.0
 50
0.0
 51
90.0
  0
ARC
  5
373
  8
1
 62
     7
 10
196.0
 20
297.2841618370619
 30
0.0
 40
3.0
 50
0.0
 51
59.534455080539033
  0
ARC
  5
374
  8
1
 62
     7
 10
154.0
 20
278.0
 30
0.0
 40
2.0
 50
90.0
 51
180.0
  0
ARC
  5
375
  8
1
 62
     7
 10
180.0
 20
408.0
 30
0.0
 40
2.0
 50
270.0
 51
0.0
  0
ARC
  5
376
  8
1
 62
     7
 10
196.0
 20
436.7158381629381
 30
0.0
 40
2.9999999999999818
 50
300.4655449194604
 51
0.0
  0
ARC
  5
377
  8
1
 62
     7
 10
185.0
 20
423.28416183706179
 30
0.0
 40
2.9999999999999818
 50
120.4655449194604
 51
180.0
  0
ARC
  5
378
  8
1
 62
     7
 10
202.0
 20
459.0
 30
0.0
 40
3.0
 50
90.0
 51
180.0
  0
ARC
  5
379
  8
1
 62
     7
 10
201.0
 20
322.11499461858682
 30
0.0
 40
2.0
 50
180.0
 51
270.0
  0
ARC
  5
37A
  8
1
 62
     7
 10
210.0
 20
318.11499461858682
 30
0.0
 40
2.0
 50
0.0
 51
90.0
  0
ARC
  5
37B
  8
1
 62
     7
 10
198.0
 20
301.43145750507608
 30
0.0
 40
1.0
 50
0.0
 51
90.0
  0
ARC
  5
37C
  8
1
 62
     7
 10
198.0
 20
319.43145750507608
 30
0.0
 40
1.0
 50
270.0
 51
0.0
  0
ARC
  5
37D
  8
1
 62
     7
 10
209.0
 20
308.39395401539832
 30
0.0
 40
2.9999999999999569
 50
310.15599962492081
 51
0.0
  0
ARC
  5
37E
  8
1
 62
     7
 10
178.90346190767599
 20
283.0
 30
0.0
 40
3.0
 50
270.0
 51
310.15599962491962
  0
ARC
  5
37F
  8
1
 62
     7
 10
201.0
 20
297.55708883431129
 30
0.0
 40
2.0
 50
180.0
 51
216.61411834015729
  0
ARC
  5
380
  8
1
 62
     7
 10
323.00000000000011
 20
322.11499461858682
 30
0.0
 40
2.0
 50
270.0
 51
0.0
  0
ARC
  5
381
  8
1
 62
     7
 10
314.00000000000011
 20
318.11499461858682
 30
0.0
 40
2.0
 50
90.0
 51
180.0
  0
ARC
  5
382
  8
1
 62
     7
 10
315.00000000000011
 20
308.39395401539832
 30
0.0
 40
3.0
 50
180.0
 51
229.84400037507811
  0
ARC
  5
383
  8
1
 62
     7
 10
323.00000000000011
 20
297.55708883431129
 30
0.0
 40
1.9999999999999609
 50
323.38588165984271
 51
0.0
  0
ARC
  5
384
  8
1
 62
     7
 10
345.09653809232418
 20
283.0
 30
0.0
 40
2.9999999999999569
 50
229.84400037507899
 51
270.0
  0
ARC
  5
385
  8
1
 62
     7
 10
370.00000000000011
 20
404.0
 30
0.0
 40
2.0
 50
0.0
 51
90.0
  0
ARC
  5
386
  8
1
 62
     7
 10
370.00000000000011
 20
330.0
 30
0.0
 40
2.0
 50
270.0
 51
0.0
  0
ARC
  5
387
  8
1
 62
     7
 10
154.0
 20
330.0
 30
0.0
 40
2.0
 50
180.0
 51
270.0
  0
ARC
  5
388
  8
1
 62
     7
 10
154.0
 20
404.0
 30
0.0
 40
2.0
 50
90.0
 51
180.0
  0
ARC
  5
389
  8
1
 62
     7
 10
326.00000000000011
 20
432.56854249492358
 30
0.0
 40
1.0
 50
180.0
 51
270.0
  0
ARC
  5
38A
  8
1
 62
     7
 10
326.00000000000011
 20
414.56854249492358
 30
0.0
 40
1.0
 50
90.0
 51
180.0
  0
ARC
  5
38B
  8
1
 62
     7
 10
198.0
 20
432.56854249492358
 30
0.0
 40
1.0
 50
270.0
 51
0.0
  0
ARC
  5
38C
  8
1
 62
     7
 10
198.0
 20
414.56854249492358
 30
0.0
 40
1.0
 50
0.0
 51
90.0
  0
ARC
  5
38D
  8
1
 62
     7
 10
370.00000000000011
 20
602.84343249131416
 30
0.0
 40
2.0
 50
270.0
 51
0.0
  0
ARC
  5
38E
  8
1
 62
     7
 10
323.00000000000011
 20
594.95842710990166
 30
0.0
 40
2.0
 50
270.0
 51
0.0
  0
ARC
  5
38F
  8
1
 62
     7
 10
323.00000000000011
 20
586.00872023371664
 30
0.0
 40
2.0
 50
270.0
 51
0.0
  0
ARC
  5
390
  8
1
 62
     7
 10
323.00000000000011
 20
577.83516668145376
 30
0.0
 40
2.0
 50
270.0
 51
0.0
  0
ARC
  5
391
  8
1
 62
     7
 10
323.00000000000011
 20
570.40052132562505
 30
0.0
 40
2.0
 50
270.0
 51
0.0
  0
ARC
  5
392
  8
1
 62
     7
 10
323.00000000000011
 20
563.69303105772281
 30
0.0
 40
2.0
 50
270.0
 51
0.0
  0
ARC
  5
393
  8
1
 62
     7
 10
323.00000000000011
 20
557.72444898625486
 30
0.0
 40
2.0
 50
270.0
 51
0.0
  0
ARC
  5
394
  8
1
 62
     7
 10
323.00000000000011
 20
552.53202023870892
 30
0.0
 40
2.0
 50
270.0
 51
0.0
  0
ARC
  5
395
  8
1
 62
     7
 10
345.50000000000011
 20
546.34343249131416
 30
0.0
 40
1.5
 50
90.0
 51
180.0
  0
ARC
  5
396
  8
1
 62
     7
 10
366.00000000000011
 20
550.84343249131405
 30
0.0
 40
6.0
 50
270.0
 51
0.0
  0
ARC
  5
397
  8
1
 62
     7
 10
366.00000000000011
 20
588.84343249131416
 30
0.0
 40
6.0
 50
0.0
 51
90.0
  0
ARC
  5
398
  8
1
 62
     7
 10
323.00000000000011
 20
546.84343249131405
 30
0.0
 40
2.0
 50
270.0
 51
0.0
  0
ARC
  5
399
  8
1
 62
     7
 10
339.00000000000011
 20
583.55927065425215
 30
0.0
 40
3.0000000000008158
 50
300.46554491947251
 51
0.0
  0
ARC
  5
39A
  8
1
 62
     7
 10
328.00000000000011
 20
570.12759432837618
 30
0.0
 40
3.0000000000000311
 50
120.4655449194599
 51
180.0
  0
ARC
  5
39B
  8
1
 62
     7
 10
344.00000000000011
 20
598.84343249131427
 30
0.0
 40
2.0
 50
90.0
 51
180.0
  0
ARC
  5
39C
  8
1
 62
     7
 10
341.00000000000011
 20
555.84343249131405
 30
0.0
 40
3.0
 50
270.0
 51
0.0
  0
ARC
  5
39D
  8
1
 62
     7
 10
370.00000000000011
 20
676.84343249131439
 30
0.0
 40
2.0
 50
0.0
 51
90.0
  0
ARC
  5
39E
  8
1
 62
     7
 10
323.00000000000011
 20
684.72843787272666
 30
0.0
 40
2.0
 50
0.0
 51
90.0
  0
ARC
  5
39F
  8
1
 62
     7
 10
345.50000000000011
 20
733.34343249131427
 30
0.0
 40
1.5
 50
180.0
 51
270.0
  0
ARC
  5
3A0
  8
1
 62
     7
 10
366.00000000000011
 20
728.84343249131439
 30
0.0
 40
6.0
 50
0.0
 51
90.0
  0
ARC
  5
3A1
  8
1
 62
     7
 10
366.00000000000011
 20
690.84343249131439
 30
0.0
 40
6.0
 50
270.0
 51
0.0
  0
ARC
  5
3A2
  8
1
 62
     7
 10
323.00000000000011
 20
732.84343249131439
 30
0.0
 40
2.0
 50
0.0
 51
90.0
  0
ARC
  5
3A3
  8
1
 62
     7
 10
339.00000000000011
 20
696.12759432837618
 30
0.0
 40
3.0
 50
0.0
 51
59.534455080539033
  0
ARC
  5
3A4
  8
1
 62
     7
 10
328.00000000000011
 20
709.55927065425237
 30
0.0
 40
3.0
 50
180.0
 51
239.53445508054
  0
ARC
  5
3A5
  8
1
 62
     7
 10
344.00000000000011
 20
680.84343249131427
 30
0.0
 40
2.0
 50
180.0
 51
270.0
  0
ARC
  5
3A6
  8
1
 62
     7
 10
341.00000000000011
 20
723.84343249131439
 30
0.0
 40
3.0
 50
0.0
 51
90.0
  0
ARC
  5
3A7
  8
1
 62
     7
 10
183.0
 20
555.84343249131405
 30
0.0
 40
3.0
 50
180.0
 51
270.0
  0
ARC
  5
3A8
  8
1
 62
     7
 10
180.0
 20
598.84343249131427
 30
0.0
 40
2.0
 50
0.0
 51
90.0
  0
ARC
  5
3A9
  8
1
 62
     7
 10
196.0
 20
570.12759432837618
 30
0.0
 40
3.0
 50
0.0
 51
59.534455080540127
  0
ARC
  5
3AA
  8
1
 62
     7
 10
185.00000000000011
 20
583.55927065425215
 30
0.0
 40
3.0
 50
180.0
 51
239.53445508053741
  0
ARC
  5
3AB
  8
1
 62
     7
 10
201.0
 20
546.84343249131405
 30
0.0
 40
2.0
 50
180.0
 51
270.0
  0
ARC
  5
3AC
  8
1
 62
     7
 10
158.0
 20
588.84343249131416
 30
0.0
 40
6.0
 50
90.0
 51
180.0
  0
ARC
  5
3AD
  8
1
 62
     7
 10
158.0
 20
550.84343249131405
 30
0.0
 40
6.0
 50
180.0
 51
270.0
  0
ARC
  5
3AE
  8
1
 62
     7
 10
178.5
 20
546.34343249131416
 30
0.0
 40
1.5
 50
0.0
 51
90.0
  0
ARC
  5
3AF
  8
1
 62
     7
 10
201.0
 20
552.53202023870892
 30
0.0
 40
2.0
 50
180.0
 51
270.0
  0
ARC
  5
3B0
  8
1
 62
     7
 10
201.0
 20
557.72444898625486
 30
0.0
 40
2.0
 50
180.0
 51
270.0
  0
ARC
  5
3B1
  8
1
 62
     7
 10
201.0
 20
563.69303105772281
 30
0.0
 40
2.0
 50
180.0
 51
270.0
  0
ARC
  5
3B2
  8
1
 62
     7
 10
201.0
 20
570.40052132562505
 30
0.0
 40
2.0
 50
180.0
 51
270.0
  0
ARC
  5
3B3
  8
1
 62
     7
 10
201.0
 20
577.83516668145376
 30
0.0
 40
2.0
 50
180.0
 51
270.0
  0
ARC
  5
3B4
  8
1
 62
     7
 10
201.0
 20
586.00872023371664
 30
0.0
 40
2.0
 50
180.0
 51
270.0
  0
ARC
  5
3B5
  8
1
 62
     7
 10
201.0
 20
594.95842710990166
 30
0.0
 40
2.0
 50
180.0
 51
270.0
  0
ARC
  5
3B6
  8
1
 62
     7
 10
183.0
 20
723.84343249131439
 30
0.0
 40
3.0
 50
90.0
 51
180.0
  0
ARC
  5
3B7
  8
1
 62
     7
 10
180.0
 20
680.84343249131427
 30
0.0
 40
2.0
 50
270.0
 51
0.0
  0
ARC
  5
3B8
  8
1
 62
     7
 10
196.0
 20
709.55927065425237
 30
0.0
 40
3.0000000000000311
 50
300.46554491945977
 51
0.0
  0
ARC
  5
3B9
  8
1
 62
     7
 10
185.00000000000011
 20
696.12759432837618
 30
0.0
 40
2.9999999999998499
 50
120.4655449194625
 51
180.0
  0
ARC
  5
3BA
  8
1
 62
     7
 10
201.0
 20
732.84343249131439
 30
0.0
 40
2.0
 50
90.0
 51
180.0
  0
ARC
  5
3BB
  8
1
 62
     7
 10
158.0
 20
690.84343249131439
 30
0.0
 40
6.0
 50
180.0
 51
270.0
  0
ARC
  5
3BC
  8
1
 62
     7
 10
158.0
 20
728.84343249131439
 30
0.0
 40
6.0
 50
90.0
 51
180.0
  0
ARC
  5
3BD
  8
1
 62
     7
 10
178.5
 20
733.34343249131427
 30
0.0
 40
1.5
 50
270.0
 51
0.0
  0
ARC
  5
3BE
  8
1
 62
     7
 10
201.0
 20
684.72843787272666
 30
0.0
 40
2.0
 50
90.0
 51
180.0
  0
ARC
  5
3BF
  8
1
 62
     7
 10
326.00000000000011
 20
705.41197498623796
 30
0.0
 40
1.0
 50
180.0
 51
270.0
  0
ARC
  5
3C0
  8
1
 62
     7
 10
326.00000000000011
 20
687.41197498623785
 30
0.0
 40
1.0
 50
90.0
 51
180.0
  0
ARC
  5
3C1
  8
1
 62
     7
 10
326.00000000000011
 20
574.27488999639047
 30
0.0
 40
1.0
 50
90.0
 51
180.0
  0
ARC
  5
3C2
  8
1
 62
     7
 10
326.00000000000011
 20
592.27488999639047
 30
0.0
 40
1.0
 50
180.0
 51
270.0
  0
ARC
  5
3C3
  8
1
 62
     7
 10
198.0
 20
705.41197498623796
 30
0.0
 40
1.0
 50
270.0
 51
0.0
  0
ARC
  5
3C4
  8
1
 62
     7
 10
198.0
 20
687.41197498623785
 30
0.0
 40
1.0
 50
0.0
 51
90.0
  0
ARC
  5
3C5
  8
1
 62
     7
 10
198.0
 20
574.27488999639047
 30
0.0
 40
1.0
 50
0.0
 51
90.0
  0
ARC
  5
3C6
  8
1
 62
     7
 10
198.0
 20
592.27488999639047
 30
0.0
 40
1.0
 50
270.0
 51
0.0
  0
ARC
  5
3C7
  8
1
 62
     7
 10
260.00000000000023
 20
316.03126017915429
 30
0.0
 40
3.0
 50
90.0
 51
180.0
  0
ARC
  5
3C8
  8
1
 62
     7
 10
264.00000000000023
 20
316.03126017915429
 30
0.0
 40
3.0
 50
0.0
 51
90.0
  0
ARC
  5
3C9
  8
1
 62
     7
 10
262.00000000000023
 20
291.5
 30
0.0
 40
1.0
 50
180.0
 51
0.0
  0
ARC
  5
3CA
  8
1
 62
     7
 10
262.00000000000023
 20
306.49999999999989
 30
0.0
 40
1.0
 50
0.0
 51
180.0
  0
ARC
  5
3CB
  8
1
 62
     7
 10
292.00000000000028
 20
299.0
 30
0.0
 40
3.0000000000000759
 50
316.39718102729432
 51
43.602818972704057
  0
ARC
  5
3CC
  8
1
 62
     7
 10
283.00000000000023
 20
288.5
 30
0.0
 40
2.0
 50
270.0
 51
0.0
  0
ARC
  5
3CD
  8
1
 62
     7
 10
283.00000000000023
 20
309.5
 30
0.0
 40
2.0
 50
0.0
 51
90.0
  0
ARC
  5
3CE
  8
1
 62
     7
 10
273.50000000000023
 20
291.5
 30
0.0
 40
1.0
 50
180.0
 51
0.0
  0
ARC
  5
3CF
  8
1
 62
     7
 10
273.50000000000023
 20
306.49999999999989
 30
0.0
 40
1.0
 50
0.0
 51
180.0
  0
ARC
  5
3D0
  8
1
 62
     7
 10
232.00000000000031
 20
299.0
 30
0.0
 40
3.00000000000006
 50
136.39718102729711
 51
223.60281897270301
  0
ARC
  5
3D1
  8
1
 62
     7
 10
241.00000000000031
 20
288.5
 30
0.0
 40
2.0
 50
180.0
 51
270.0
  0
ARC
  5
3D2
  8
1
 62
     7
 10
241.00000000000031
 20
309.5
 30
0.0
 40
2.0
 50
90.0
 51
180.0
  0
ARC
  5
3D3
  8
1
 62
     7
 10
250.50000000000031
 20
291.5
 30
0.0
 40
1.0
 50
180.0
 51
0.0
  0
ARC
  5
3D4
  8
1
 62
     7
 10
250.50000000000031
 20
306.49999999999989
 30
0.0
 40
1.0
 50
0.0
 51
180.0
  0
ARC
  5
3D5
  8
1
 62
     7
 10
282.25000019830497
 20
284.0
 30
0.0
 40
2.0
 50
180.0
 51
270.0
  0
ARC
  5
3D6
  8
1
 62
     7
 10
270.74999956714902
 20
282.0
 30
0.0
 40
2.0
 50
180.0
 51
270.0
  0
ARC
  5
3D7
  8
1
 62
     7
 10
282.25000019830497
 20
284.0
 30
0.0
 40
4.0
 50
180.0
 51
270.0
  0
ARC
  5
3D8
  8
1
 62
     7
 10
270.74999956714902
 20
282.0
 30
0.0
 40
4.0
 50
180.0
 51
270.0
  0
ARC
  5
3D9
  8
1
 62
     7
 10
241.74999980169559
 20
284.0
 30
0.0
 40
2.0
 50
270.0
 51
0.0
  0
ARC
  5
3DA
  8
1
 62
     7
 10
253.25000043285149
 20
282.0
 30
0.0
 40
2.0
 50
270.0
 51
0.0
  0
ARC
  5
3DB
  8
1
 62
     7
 10
241.74999980169559
 20
284.0
 30
0.0
 40
4.0
 50
270.0
 51
0.0
  0
ARC
  5
3DC
  8
1
 62
     7
 10
253.25000043285149
 20
282.0
 30
0.0
 40
4.0
 50
270.0
 51
0.0
  0
ARC
  5
3DD
  8
1
  6
DASHED
 62
     7
 10
502.0
 20
295.99351532518392
 30
0.0
 40
2.0
 50
270.0
 51
0.0
  0
ARC
  5
3DE
  8
1
  6
DASHED
 62
     7
 10
502.0
 20
302.00648467481608
 30
0.0
 40
2.0
 50
0.0
 51
90.0
  0
ARC
  5
3DF
  8
1
  6
DASHED
 62
     7
 10
503.0
 20
296.55000000000013
 30
0.0
 40
0.3000000000001819
 50
270.0
 51
0.0
  0
ARC
  5
3E0
  8
1
  6
DASHED
 62
     7
 10
503.0
 20
301.45000000000027
 30
0.0
 40
0.3000000000002956
 50
0.0
 51
90.0
  0
ARC
  5
3E1
  8
1
  6
DASHED
 62
     7
 10
502.56087985837542
 20
297.25
 30
0.0
 40
0.9999999999997267
 50
196.95776329999981
 51
270.0
  0
ARC
  5
3E2
  8
1
  6
DASHED
 62
     7
 10
502.5608798583753
 20
300.75
 30
0.0
 40
1.0
 50
90.0
 51
163.04223669997111
  0
ARC
  5
3E3
  8
1
 62
     7
 10
490.0
 20
310.49999999999989
 30
0.0
 40
1.0
 50
90.0
 51
180.0
  0
ARC
  5
3E4
  8
1
 62
     7
 10
490.0
 20
287.5
 30
0.0
 40
1.0
 50
180.0
 51
270.0
  0
ARC
  5
3E5
  8
1
 62
     7
 10
284.00000000000028
 20
538.84343249131416
 30
0.0
 40
1.0
 50
270.0
 51
0.0
  0
ARC
  5
3E6
  8
1
 62
     7
 10
240.00000000000031
 20
538.84343249131416
 30
0.0
 40
1.0
 50
180.0
 51
270.0
  0
TEXT
  5
3E7
  8
1
 62
     7
 10
414.18323470377811
 20
392.5
 30
0.0
 40
5.0
  1
INPUT
 41
0.9
  7
SIMPLEX
  0
TEXT
  5
3E8
  8
1
 62
     7
 10
87.333399712515913
 20
392.5
 30
0.0
 40
5.0
  1
OUTPUT
 41
0.9
  7
SIMPLEX
  0
TEXT
  5
3E9
  8
1
 62
     7
 10
565.68826635057508
 20
651.89909054012389
 30
0.0
 40
10.0
  1
VSAU 5
 41
0.9
  7
SIMPLEX
  0
ENDSEC
  0
EOF
