  0
SECTION
  2
HEADER
  9
$ACADVER
  1
AC1009
  9
$INSBASE
 10
0.0
 20
0.0
 30
0.0
  9
$EXTMIN
 10
-296.8379676359807
 20
-55.000000000000099
 30
0.0
  9
$EXTMAX
 10
239.03241242655849
 20
144.81888715974819
 30
0.0
  9
$LIMMIN
 10
-296.83796763598082
 20
-55.000000000000099
  9
$LIMMAX
 10
239.03241242655849
 20
144.81888715974819
  9
$ORTHOMODE
 70
     0
  9
$REGENMODE
 70
     1
  9
$FILLMODE
 70
     1
  9
$QTEXTMODE
 70
     0
  9
$MIRRTEXT
 70
     1
  9
$DRAGMODE
 70
     2
  9
$LTSCALE
 40
1.0
  9
$OSMODE
 70
    37
  9
$ATTMODE
 70
     1
  9
$TEXTSIZE
 40
3.5
  9
$TRACEWID
 40
0.5
  9
$TEXTSTYLE
  7
STANDARD
  9
$CLAYER
  8
0
  9
$CELTYPE
  6
BYLAYER
  9
$CECOLOR
 62
   256
  9
$DIMSCALE
 40
1.0
  9
$DIMASZ
 40
0.18
  9
$DIMEXO
 40
0.0625
  9
$DIMDLI
 40
0.38
  9
$DIMRND
 40
0.0
  9
$DIMDLE
 40
0.0
  9
$DIMEXE
 40
0.18
  9
$DIMTP
 40
0.0
  9
$DIMTM
 40
0.0
  9
$DIMTXT
 40
0.18
  9
$DIMCEN
 40
0.09
  9
$DIMTSZ
 40
0.0
  9
$DIMTOL
 70
     0
  9
$DIMLIM
 70
     0
  9
$DIMTIH
 70
     1
  9
$DIMTOH
 70
     1
  9
$DIMSE1
 70
     0
  9
$DIMSE2
 70
     0
  9
$DIMTAD
 70
     0
  9
$DIMZIN
 70
     0
  9
$DIMBLK
  1

  9
$DIMASO
 70
     1
  9
$DIMSHO
 70
     1
  9
$DIMPOST
  1

  9
$DIMAPOST
  1

  9
$DIMALT
 70
     0
  9
$DIMALTD
 70
     2
  9
$DIMALTF
 40
25.399999999999999
  9
$DIMLFAC
 40
1.0
  9
$DIMTOFL
 70
     0
  9
$DIMTVP
 40
0.0
  9
$DIMTIX
 70
     0
  9
$DIMSOXD
 70
     0
  9
$DIMSAH
 70
     0
  9
$DIMBLK1
  1

  9
$DIMBLK2
  1

  9
$DIMSTYLE
  2
STANDARD
  9
$DIMCLRD
 70
     0
  9
$DIMCLRE
 70
     0
  9
$DIMCLRT
 70
     0
  9
$DIMTFAC
 40
1.0
  9
$DIMGAP
 40
0.09
  9
$LUNITS
 70
     2
  9
$LUPREC
 70
     4
  9
$SKETCHINC
 40
0.1
  9
$FILLETRAD
 40
2.0
  9
$AUNITS
 70
     0
  9
$AUPREC
 70
     0
  9
$MENU
  1
ACAD
  9
$ELEVATION
 40
0.0
  9
$PELEVATION
 40
0.0
  9
$THICKNESS
 40
0.0
  9
$LIMCHECK
 70
     0
  9
$BLIPMODE
 70
     0
  9
$CHAMFERA
 40
0.0
  9
$CHAMFERB
 40
0.0
  9
$SKPOLY
 70
     0
  9
$TDCREATE
 40
2452095.0804041661
  9
$TDUPDATE
 40
2452095.081214698
  9
$TDINDWG
 40
0.0008282407
  9
$TDUSRTIMER
 40
0.0008282407
  9
$USRTIMER
 70
     1
  9
$ANGBASE
 50
0.0
  9
$ANGDIR
 70
     0
  9
$PDMODE
 70
     0
  9
$PDSIZE
 40
0.0
  9
$PLINEWID
 40
0.0
  9
$COORDS
 70
     1
  9
$SPLFRAME
 70
     0
  9
$SPLINETYPE
 70
     6
  9
$SPLINESEGS
 70
     8
  9
$ATTDIA
 70
     0
  9
$ATTREQ
 70
     1
  9
$HANDLING
 70
 10241
  9
$HANDSEED
  5
166
  9
$SURFTAB1
 70
     6
  9
$SURFTAB2
 70
     6
  9
$SURFTYPE
 70
     6
  9
$SURFU
 70
     6
  9
$SURFV
 70
     6
  9
$UCSNAME
  2

  9
$UCSORG
 10
0.0
 20
0.0
 30
0.0
  9
$UCSXDIR
 10
1.0
 20
0.0
 30
0.0
  9
$UCSYDIR
 10
0.0
 20
1.0
 30
0.0
  9
$PUCSNAME
  2

  9
$PUCSORG
 10
0.0
 20
0.0
 30
0.0
  9
$PUCSXDIR
 10
1.0
 20
0.0
 30
0.0
  9
$PUCSYDIR
 10
0.0
 20
1.0
 30
0.0
  9
$USERI1
 70
     0
  9
$USERI2
 70
     0
  9
$USERI3
 70
     0
  9
$USERI4
 70
     0
  9
$USERI5
 70
     0
  9
$USERR1
 40
0.0
  9
$USERR2
 40
0.0
  9
$USERR3
 40
0.0
  9
$USERR4
 40
0.0
  9
$USERR5
 40
0.0
  9
$WORLDVIEW
 70
     1
  9
$SHADEDGE
 70
     3
  9
$SHADEDIF
 70
    70
  9
$TILEMODE
 70
     1
  9
$MAXACTVP
 70
    64
  9
$PLIMCHECK
 70
     0
  9
$PEXTMIN
 10
1.0000000000000000E+020
 20
1.0000000000000000E+020
 30
1.0000000000000000E+020
  9
$PEXTMAX
 10
-1.0000000000000000E+020
 20
-1.0000000000000000E+020
 30
-1.0000000000000000E+020
  9
$PLIMMIN
 10
0.0
 20
0.0
  9
$PLIMMAX
 10
12.0
 20
9.0
  9
$UNITMODE
 70
     0
  9
$VISRETAIN
 70
     1
  9
$PLINEGEN
 70
     0
  9
$PSLTSCALE
 70
     1
  0
ENDSEC
  0
SECTION
  2
TABLES
  0
TABLE
  2
VPORT
 70
     2
  0
VPORT
  2
*ACTIVE
 70
     0
 10
0.0
 20
0.0
 11
1.0
 21
1.0
 12
-229.92693183621219
 22
127.4424055228984
 13
0.0
 23
0.0
 14
1.0
 24
1.0
 15
0.0
 25
0.0
 16
0.0
 26
0.0
 36
1.0
 17
0.0
 27
0.0
 37
0.0
 40
9.0000003611266948
 41
2.4144144144144142
 42
50.0
 43
0.0
 44
0.0
 50
0.0
 51
0.0
 71
     0
 72
   100
 73
     1
 74
     1
 75
     0
 76
     0
 77
     0
 78
     0
  0
ENDTAB
  0
TABLE
  2
LTYPE
 70
     9
  0
LTYPE
  2
CONTINUOUS
 70
     0
  3
Solid line
 72
    65
 73
     0
 40
0.0
  0
LTYPE
  2
BORDER
 70
     0
  3
__ __ . __ __ .
 72
    65
 73
     6
 40
24.678241187090631
 49
7.0509260534544627
 49
-3.5254630267272309
 49
7.0509260534544627
 49
-3.5254630267272309
 49
0.0
 49
-3.5254630267272309
  0
LTYPE
  2
CENTER
 70
     0
  3
____ _ ____ _
 72
    65
 73
     4
 40
28.203704213817851
 49
17.627315133636159
 49
-3.5254630267272309
 49
3.5254630267272309
 49
-3.5254630267272309
  0
LTYPE
  2
DASHDOT
 70
     0
  3
__ . __ . __ .
 72
    65
 73
     4
 40
14.10185210690892
 49
7.0509260534544627
 49
-3.5254630267272309
 49
0.0
 49
-3.5254630267272309
  0
LTYPE
  2
DASHED
 70
     0
  3
__ __ __ __ __
 72
    65
 73
     2
 40
10.57638908018169
 49
7.0509260534544627
 49
-3.5254630267272309
  0
LTYPE
  2
DIVIDE
 70
     0
  3
__ . . __ . . 
 72
    65
 73
     6
 40
17.627315133636159
 49
7.0509260534544627
 49
-3.5254630267272309
 49
0.0
 49
-3.5254630267272309
 49
0.0
 49
-3.5254630267272309
  0
LTYPE
  2
DOT
 70
     0
  3
..............
 72
    65
 73
     4
 40
7.0509260534544627
 49
0.0
 49
-3.5254630267272309
 49
0.0
 49
-3.5254630267272309
  0
LTYPE
  2
HIDDEN
 70
     0
  3
_ _ _ _ _ _ _
 72
    65
 73
     2
 40
5.2881945400908474
 49
3.5254630267272309
 49
-1.762731513363615
  0
LTYPE
  2
PHANTOM
 70
     0
  3
_____ _ _ _____ _ _ 
 72
    65
 73
     6
 40
35.254630267272319
 49
17.627315133636159
 49
-3.5254630267272309
 49
3.5254630267272309
 49
-3.5254630267272309
 49
3.5254630267272309
 49
-3.5254630267272309
  0
ENDTAB
  0
TABLE
  2
LAYER
 70
     2
  0
LAYER
  2
0
 70
     0
 62
     7
  6
CONTINUOUS
  0
LAYER
  2
1
 70
     0
 62
     7
  6
CONTINUOUS
  0
ENDTAB
  0
TABLE
  2
STYLE
 70
     4
  0
STYLE
  2
STANDARD
 70
     0
 40
0.0
 41
1.0
 50
0.0
 71
     0
 42
3.5
  3
txt
  4

  0
STYLE
  2
SIMPLEX
 70
     0
 40
0.0
 41
1.0
 50
0.0
 71
     0
 42
3.5
  3
simplex
  4

  0
STYLE
  2
COMPLEX
 70
     0
 40
0.0
 41
1.0
 50
0.0
 71
     0
 42
3.5
  3
complex
  4

  0
STYLE
  2
ITALIC
 70
     0
 40
0.0
 41
1.0
 50
0.0
 71
     0
 42
3.5
  3
italic
  4

  0
ENDTAB
  0
TABLE
  2
VIEW
 70
     0
  0
ENDTAB
  0
TABLE
  2
UCS
 70
     0
  0
ENDTAB
  0
TABLE
  2
APPID
 70
     1
  0
APPID
  2
ACAD
 70
     0
  0
ENDTAB
  0
TABLE
  2
DIMSTYLE
 70
     1
  0
DIMSTYLE
  2
STANDARD
 70
     0
  3

  4

  5

  6

  7

 40
1.0
 41
0.18
 42
0.0625
 43
0.38
 44
0.18
 45
0.0
 46
0.0
 47
0.0
 48
0.0
140
0.18
141
0.09
142
0.0
143
25.399999999999999
144
1.0
145
0.0
146
1.0
147
0.09
 71
     0
 72
     0
 73
     1
 74
     1
 75
     0
 76
     0
 77
     0
 78
     0
170
     0
171
     2
172
     0
173
     0
174
     0
175
     0
176
     0
177
     0
178
     0
  0
ENDTAB
  0
ENDSEC
  0
SECTION
  2
BLOCKS
  0
BLOCK
  8
0
  2
$MODEL_SPACE
 70
     0
 10
0.0
 20
0.0
 30
0.0
  3
$MODEL_SPACE
  1

  0
ENDBLK
  5
20
  8
0
  0
BLOCK
 67
     1
  8
0
  2
$PAPER_SPACE
 70
     0
 10
0.0
 20
0.0
 30
0.0
  3
$PAPER_SPACE
  1

  0
ENDBLK
  5
1C
 67
     1
  8
0
  0
ENDSEC
  0
SECTION
  2
ENTITIES
  0
LINE
  5
33
  8
1
 62
     7
 10
3.0
 20
28.5
 30
0.0
 11
3.0
 21
23.5
 31
0.0
  0
LINE
  5
34
  8
1
 62
     7
 10
5.0
 20
23.5
 30
0.0
 11
5.0
 21
41.749999999999993
 31
0.0
  0
LINE
  5
35
  8
1
 62
     7
 10
21.0
 20
40.0
 30
0.0
 11
21.0
 21
25.0
 31
0.0
  0
LINE
  5
36
  8
1
 62
     7
 10
21.0
 20
25.0
 30
0.0
 11
5.0
 21
25.0
 31
0.0
  0
LINE
  5
37
  8
1
 62
     7
 10
21.0
 20
40.0
 30
0.0
 11
5.0
 21
40.0
 31
0.0
  0
LINE
  5
38
  8
1
 62
     7
 10
5.0
 20
-23.50000000000011
 30
0.0
 11
5.0
 21
-41.750000000000099
 31
0.0
  0
LINE
  5
39
  8
1
 62
     7
 10
21.0
 20
-25.00000000000011
 30
0.0
 11
21.0
 21
-40.000000000000099
 31
0.0
  0
LINE
  5
3A
  8
1
 62
     7
 10
21.0
 20
-25.00000000000011
 30
0.0
 11
5.0
 21
-25.00000000000011
 31
0.0
  0
LINE
  5
3B
  8
1
 62
     7
 10
5.0
 20
-40.000000000000099
 30
0.0
 11
21.0
 21
-40.000000000000099
 31
0.0
  0
LINE
  5
3C
  8
1
  6
DASHDOT
 62
     3
 10
-132.11142968422621
 20
68.0
 30
0.0
 11
-128.09928023326179
 21
68.0
 31
0.0
  0
LINE
  5
3D
  8
1
 62
     7
 10
-249.84641801585229
 20
54.971042947831499
 30
0.0
 11
-258.7624056276573
 21
70.413986491132846
 31
0.0
  0
LINE
  5
3E
  8
1
 62
     7
 10
-249.83796763598079
 20
58.356406460550929
 30
0.0
 11
-257.29016244122391
 21
71.263986491132883
 31
0.0
  0
LINE
  5
3F
  8
1
 62
     7
 10
-258.54589927671128
 20
70.538986491132732
 30
0.0
 11
-259.90097318116761
 21
72.886043341661889
 31
0.0
  0
LINE
  5
40
  8
1
 62
     7
 10
-258.28609165557589
 20
70.688986491132709
 30
0.0
 11
-259.64116556003239
 21
73.036043341661866
 31
0.0
  0
LINE
  5
41
  8
1
 62
     7
 10
-257.50666879216999
 20
71.138986491132883
 30
0.0
 11
-258.86174269662649
 21
73.486043341662025
 31
0.0
  0
LINE
  5
42
  8
1
 62
     7
 10
-257.76647641330533
 20
70.988986491132763
 30
0.0
 11
-259.12155031776177
 21
73.336043341661934
 31
0.0
  0
LINE
  5
43
  8
1
 62
     7
 10
-258.42872999473411
 20
73.73604334166204
 30
0.0
 11
-257.07365609027778
 21
71.388986491132982
 31
0.0
  0
LINE
  5
44
  8
1
 62
     7
 10
-258.16892237359878
 20
73.886043341662003
 30
0.0
 11
-256.81384846914239
 21
71.53898649113296
 31
0.0
  0
LINE
  5
45
  8
1
 62
     7
 10
-257.38949951019282
 20
74.336043341662162
 30
0.0
 11
-256.03442560573637
 21
71.988986491133133
 31
0.0
  0
LINE
  5
46
  8
1
 62
     7
 10
-257.6493071313281
 20
74.186043341662057
 30
0.0
 11
-256.29423322687171
 21
71.838986491133014
 31
0.0
  0
LINE
  5
47
  8
1
 62
     7
 10
-258.02628403444061
 20
70.8389864911328
 30
0.0
 11
-259.381357938897
 21
73.186043341661943
 31
0.0
  0
LINE
  5
48
  8
1
 62
     7
 10
-257.90911475246349
 20
74.036043341661994
 30
0.0
 11
-256.55404084800711
 21
71.688986491132937
 31
0.0
  0
LINE
  5
49
  8
1
 62
     7
 10
-258.7624056276573
 20
70.413986491132846
 30
0.0
 11
-255.81791925479041
 21
72.113986491132891
 31
0.0
  0
LINE
  5
4A
  8
1
 62
     7
 10
-255.81791925479041
 20
72.113986491132891
 30
0.0
 11
-249.83796763598079
 21
61.756406460551041
 31
0.0
  0
LINE
  5
4B
  8
1
 62
     7
 10
192.03241242655849
 20
61.756406460551041
 30
0.0
 11
192.03241242655849
 21
72.0
 31
0.0
  0
LINE
  5
4C
  8
1
 62
     7
 10
202.09541797174529
 20
72.886043341661889
 30
0.0
 11
200.74034406728879
 21
70.538986491132732
 31
0.0
  0
LINE
  5
4D
  8
1
 62
     7
 10
201.83561035061001
 20
73.036043341661866
 30
0.0
 11
200.48053644615351
 21
70.688986491132709
 31
0.0
  0
LINE
  5
4E
  8
1
 62
     7
 10
201.05618748720411
 20
73.486043341662025
 30
0.0
 11
199.70111358274761
 21
71.138986491132883
 31
0.0
  0
LINE
  5
4F
  8
1
 62
     7
 10
201.31599510833939
 20
73.336043341661934
 30
0.0
 11
199.960921203883
 21
70.988986491132763
 31
0.0
  0
LINE
  5
50
  8
1
 62
     7
 10
199.2681008808554
 20
71.388986491132982
 30
0.0
 11
200.62317478531179
 21
73.73604334166204
 31
0.0
  0
LINE
  5
51
  8
1
 62
     7
 10
199.00829325972001
 20
71.53898649113296
 30
0.0
 11
200.3633671641764
 21
73.886043341662003
 31
0.0
  0
LINE
  5
52
  8
1
 62
     7
 10
198.22887039631419
 20
71.988986491133133
 30
0.0
 11
199.5839443007705
 21
74.336043341662162
 31
0.0
  0
LINE
  5
53
  8
1
 62
     7
 10
198.48867801744939
 20
71.838986491133014
 30
0.0
 11
199.84375192190581
 21
74.186043341662057
 31
0.0
  0
LINE
  5
54
  8
1
 62
     7
 10
201.57580272947479
 20
73.186043341661943
 30
0.0
 11
200.22072882501831
 21
70.8389864911328
 31
0.0
  0
LINE
  5
55
  8
1
 62
     7
 10
198.7484856385847
 20
71.688986491132937
 30
0.0
 11
200.10355954304109
 21
74.036043341661994
 31
0.0
  0
LINE
  5
56
  8
1
 62
     7
 10
199.48460723180159
 20
71.263986491132883
 30
0.0
 11
189.91258922864679
 21
54.684764978704827
 31
0.0
  0
LINE
  5
57
  8
1
 62
     7
 10
200.95685041823501
 20
70.413986491132846
 30
0.0
 11
191.74391010000861
 21
54.456705772864893
 31
0.0
  0
LINE
  5
58
  8
1
 62
     7
 10
198.012364045368
 20
72.113986491132891
 30
0.0
 11
200.95685041823501
 21
70.413986491132846
 31
0.0
  0
LINE
  5
59
  8
1
 62
     7
 10
188.0468987820943
 20
54.853294334080019
 30
0.0
 11
198.012364045368
 21
72.113986491132891
 31
0.0
  0
LINE
  5
5A
  8
1
 62
     7
 10
4.0
 20
70.667398913243446
 30
0.0
 11
4.0
 21
68.570138972966447
 31
0.0
  0
LINE
  5
5B
  8
1
 62
     7
 10
3.1500000000000061
 20
49.700000000000053
 30
0.0
 11
3.1500000000000061
 21
68.570138972966447
 31
0.0
  0
LINE
  5
5C
  8
1
 62
     7
 10
4.8500000000000227
 20
68.570138972966447
 30
0.0
 11
4.8500000000000227
 21
49.700000000000053
 31
0.0
  0
LINE
  5
5D
  8
1
 62
     7
 10
3.1500000000000061
 20
68.570138972966447
 30
0.0
 11
4.8500000000000227
 21
68.570138972966447
 31
0.0
  0
LINE
  5
5E
  8
1
 62
     7
 10
3.4500000000000171
 20
70.667398913243446
 30
0.0
 11
3.4500000000000171
 21
68.570138972966447
 31
0.0
  0
LINE
  5
5F
  8
1
 62
     7
 10
3.75
 20
70.667398913243446
 30
0.0
 11
3.75
 21
68.570138972966447
 31
0.0
  0
LINE
  5
60
  8
1
 62
     7
 10
4.25
 20
70.667398913243446
 30
0.0
 11
4.25
 21
68.570138972966447
 31
0.0
  0
LINE
  5
61
  8
1
 62
     7
 10
4.5500000000000123
 20
70.667398913243446
 30
0.0
 11
4.5500000000000123
 21
68.570138972966447
 31
0.0
  0
LINE
  5
62
  8
1
 62
     7
 10
-127.61516463480019
 20
70.667398913243446
 30
0.0
 11
-127.61516463480019
 21
68.570138972966447
 31
0.0
  0
LINE
  5
63
  8
1
 62
     7
 10
52.0
 20
28.799999999999951
 30
0.0
 11
52.0
 21
49.700000000000053
 31
0.0
  0
LINE
  5
64
  8
1
 62
     7
 10
52.0
 20
28.799999999999951
 30
0.0
 11
22.0
 21
28.799999999999951
 31
0.0
  0
LINE
  5
65
  8
1
 62
     7
 10
22.0
 20
28.799999999999951
 30
0.0
 11
22.0
 21
35.0
 31
0.0
  0
LINE
  5
66
  8
1
 62
     7
 10
22.0
 20
35.0
 30
0.0
 11
21.0
 21
35.0
 31
0.0
  0
LINE
  5
67
  8
1
 62
     7
 10
15.25
 20
36.397114317029953
 30
0.0
 11
21.0
 21
36.397114317029953
 31
0.0
  0
LINE
  5
68
  8
1
 62
     7
 10
10.749999999999989
 20
36.397114317029953
 30
0.0
 11
5.0
 21
36.397114317029953
 31
0.0
  0
LINE
  5
69
  8
1
 62
     7
 10
10.749999999999989
 20
28.602885682970051
 30
0.0
 11
5.0
 21
28.602885682970051
 31
0.0
  0
LINE
  5
6A
  8
1
 62
     7
 10
15.25
 20
28.602885682970051
 30
0.0
 11
21.0
 21
28.602885682970051
 31
0.0
  0
LINE
  5
6B
  8
1
 62
     7
 10
19.400000000000009
 20
28.0
 30
0.0
 11
19.400000000000009
 21
37.0
 31
0.0
  0
LINE
  5
6C
  8
1
 62
     7
 10
6.6000000000000218
 20
28.0
 30
0.0
 11
6.6000000000000218
 21
37.0
 31
0.0
  0
LINE
  5
6D
  8
1
 62
     7
 10
5.0
 20
41.749999999999993
 30
0.0
 11
2.5
 21
41.749999999999993
 31
0.0
  0
LINE
  5
6E
  8
1
 62
     7
 10
2.5
 20
34.75
 30
0.0
 11
5.0
 21
34.75
 31
0.0
  0
LINE
  5
6F
  8
1
 62
     7
 10
2.5
 20
40.0
 30
0.0
 11
0.0
 21
40.0
 31
0.0
  0
LINE
  5
70
  8
1
 62
     7
 10
5.0
 20
28.5
 30
0.0
 11
3.0
 21
28.5
 31
0.0
  0
LINE
  5
71
  8
1
 62
     7
 10
3.0
 20
23.5
 30
0.0
 11
5.0
 21
23.5
 31
0.0
  0
LINE
  5
72
  8
1
 62
     7
 10
3.0
 20
25.0
 30
0.0
 11
0.0
 21
25.0
 31
0.0
  0
LINE
  5
73
  8
1
 62
     3
 10
-2.593589928057582
 20
0.0
 30
0.0
 11
0.0
 21
0.0
 31
0.0
  0
LINE
  5
74
  8
1
 62
     7
 10
61.70000000000001
 20
55.0
 30
0.0
 11
26.0
 21
55.0
 31
0.0
  0
LINE
  5
75
  8
1
 62
     7
 10
61.70000000000001
 20
55.0
 30
0.0
 11
61.70000000000001
 21
50.0
 31
0.0
  0
LINE
  5
76
  8
1
 62
     7
 10
61.70000000000001
 20
50.0
 30
0.0
 11
58.5
 21
50.0
 31
0.0
  0
LINE
  5
77
  8
1
 62
     7
 10
58.5
 20
50.0
 30
0.0
 11
58.5
 21
41.0
 31
0.0
  0
LINE
  5
78
  8
1
 62
     7
 10
58.5
 20
41.0
 30
0.0
 11
62.0
 21
41.0
 31
0.0
  0
LINE
  5
79
  8
1
 62
     3
 10
60.149999999999999
 20
55.0
 30
0.0
 11
60.149999999999999
 21
50.0
 31
0.0
  0
LINE
  5
7A
  8
1
 62
     7
 10
24.0
 20
50.5
 30
0.0
 11
24.0
 21
53.0
 31
0.0
  0
LINE
  5
7B
  8
1
 62
     7
 10
24.0
 20
50.5
 30
0.0
 11
53.5
 21
50.5
 31
0.0
  0
LINE
  5
7C
  8
1
 62
     7
 10
53.5
 20
50.5
 30
0.0
 11
53.5
 21
28.0
 31
0.0
  0
LINE
  5
7D
  8
1
 62
     7
 10
53.5
 20
28.0
 30
0.0
 11
21.0
 21
28.0
 31
0.0
  0
LINE
  5
7E
  8
1
 62
     7
 10
24.0
 20
53.0
 30
0.0
 11
26.0
 21
55.0
 31
0.0
  0
LINE
  5
7F
  8
1
 62
     7
 10
70.0
 20
49.600000000000009
 30
0.0
 11
79.0
 21
49.600000000000009
 31
0.0
  0
LINE
  5
80
  8
1
 62
     7
 10
79.0
 20
49.600000000000009
 30
0.0
 11
79.0
 21
45.0
 31
0.0
  0
LINE
  5
81
  8
1
 62
     7
 10
79.0
 20
45.0
 30
0.0
 11
82.0
 21
45.0
 31
0.0
  0
LINE
  5
82
  8
1
 62
     7
 10
70.0
 20
32.5
 30
0.0
 11
82.0
 21
32.5
 31
0.0
  0
LINE
  5
83
  8
1
 62
     7
 10
70.0
 20
46.0
 30
0.0
 11
79.0
 21
46.0
 31
0.0
  0
LINE
  5
84
  8
1
  6
DASHDOT
 62
     3
 10
62.699916549735597
 20
39.0
 30
0.0
 11
84.400000000000034
 21
39.0
 31
0.0
  0
LINE
  5
85
  8
1
 62
     7
 10
70.0
 20
51.0
 30
0.0
 11
73.5
 21
51.0
 31
0.0
  0
LINE
  5
86
  8
1
 62
     7
 10
73.5
 20
51.0
 30
0.0
 11
73.5
 21
46.0
 31
0.0
  0
LINE
  5
87
  8
1
 62
     7
 10
78.450000000000017
 20
46.0
 30
0.0
 11
78.450000000000017
 21
55.0
 31
0.0
  0
LINE
  5
88
  8
1
 62
     7
 10
62.0
 20
55.0
 30
0.0
 11
78.450000000000017
 21
55.0
 31
0.0
  0
LINE
  5
89
  8
1
 62
     7
 10
62.0
 20
55.0
 30
0.0
 11
62.0
 21
50.0
 31
0.0
  0
LINE
  5
8A
  8
1
 62
     3
 10
63.5
 20
55.0
 30
0.0
 11
63.5
 21
50.0
 31
0.0
  0
LINE
  5
8B
  8
1
 62
     7
 10
62.0
 20
50.0
 30
0.0
 11
63.5
 21
50.0
 31
0.0
  0
LINE
  5
8C
  8
1
 62
     7
 10
63.5
 20
23.0
 30
0.0
 11
70.0
 21
23.0
 31
0.0
  0
LINE
  5
8D
  8
1
 62
     7
 10
70.0
 20
-23.000000000000099
 30
0.0
 11
63.5
 21
-23.000000000000099
 31
0.0
  0
LINE
  5
8E
  8
1
 62
     7
 10
63.5
 20
50.0
 30
0.0
 11
63.5
 21
-50.000000000000099
 31
0.0
  0
LINE
  5
8F
  8
1
 62
     7
 10
63.5
 20
-50.000000000000099
 30
0.0
 11
62.0
 21
-50.000000000000099
 31
0.0
  0
LINE
  5
90
  8
1
 62
     3
 10
63.5
 20
-50.000000000000099
 30
0.0
 11
63.5
 21
-55.000000000000099
 31
0.0
  0
LINE
  5
91
  8
1
 62
     7
 10
62.0
 20
-50.000000000000099
 30
0.0
 11
62.0
 21
-55.000000000000099
 31
0.0
  0
LINE
  5
92
  8
1
 62
     7
 10
78.450000000000017
 20
-55.000000000000099
 30
0.0
 11
62.0
 21
-55.000000000000099
 31
0.0
  0
LINE
  5
93
  8
1
 62
     7
 10
78.450000000000017
 20
-55.000000000000099
 30
0.0
 11
78.450000000000017
 21
-46.000000000000107
 31
0.0
  0
LINE
  5
94
  8
1
 62
     7
 10
73.5
 20
-46.000000000000107
 30
0.0
 11
73.5
 21
-51.000000000000107
 31
0.0
  0
LINE
  5
95
  8
1
 62
     7
 10
73.5
 20
-51.000000000000107
 30
0.0
 11
70.0
 21
-51.000000000000107
 31
0.0
  0
LINE
  5
96
  8
1
 62
     7
 10
79.0
 20
-46.000000000000107
 30
0.0
 11
70.0
 21
-46.000000000000107
 31
0.0
  0
LINE
  5
97
  8
1
 62
     7
 10
82.0
 20
-32.500000000000099
 30
0.0
 11
70.0
 21
-32.500000000000099
 31
0.0
  0
LINE
  5
98
  8
1
 62
     7
 10
82.0
 20
45.0
 30
0.0
 11
82.0
 21
-45.000000000000099
 31
0.0
  0
LINE
  5
99
  8
1
 62
     7
 10
82.0
 20
-45.000000000000099
 30
0.0
 11
79.0
 21
-45.000000000000099
 31
0.0
  0
LINE
  5
9A
  8
1
 62
     7
 10
79.0
 20
-45.000000000000099
 30
0.0
 11
79.0
 21
-49.600000000000151
 31
0.0
  0
LINE
  5
9B
  8
1
 62
     7
 10
79.0
 20
-49.600000000000151
 30
0.0
 11
70.0
 21
-49.600000000000151
 31
0.0
  0
LINE
  5
9C
  8
1
 62
     7
 10
26.0
 20
-55.000000000000099
 30
0.0
 11
24.0
 21
-53.000000000000107
 31
0.0
  0
LINE
  5
9D
  8
1
 62
     7
 10
21.0
 20
-28.00000000000011
 30
0.0
 11
53.5
 21
-28.00000000000011
 31
0.0
  0
LINE
  5
9E
  8
1
 62
     7
 10
53.5
 20
-28.00000000000011
 30
0.0
 11
53.5
 21
-50.500000000000107
 31
0.0
  0
LINE
  5
9F
  8
1
 62
     7
 10
53.5
 20
-50.500000000000107
 30
0.0
 11
24.0
 21
-50.500000000000107
 31
0.0
  0
LINE
  5
A0
  8
1
 62
     7
 10
24.0
 20
-53.000000000000107
 30
0.0
 11
24.0
 21
-50.500000000000107
 31
0.0
  0
LINE
  5
A1
  8
1
 62
     3
 10
60.149999999999999
 20
-50.000000000000099
 30
0.0
 11
60.149999999999999
 21
-55.000000000000099
 31
0.0
  0
LINE
  5
A2
  8
1
 62
     7
 10
62.0
 20
-41.000000000000107
 30
0.0
 11
58.5
 21
-41.000000000000107
 31
0.0
  0
LINE
  5
A3
  8
1
 62
     7
 10
58.5
 20
-41.000000000000107
 30
0.0
 11
58.5
 21
-50.000000000000099
 31
0.0
  0
LINE
  5
A4
  8
1
 62
     7
 10
58.5
 20
-50.000000000000099
 30
0.0
 11
61.70000000000001
 21
-50.000000000000099
 31
0.0
  0
LINE
  5
A5
  8
1
 62
     7
 10
61.70000000000001
 20
-50.000000000000099
 30
0.0
 11
61.70000000000001
 21
-55.000000000000099
 31
0.0
  0
LINE
  5
A6
  8
1
 62
     7
 10
26.0
 20
-55.000000000000099
 30
0.0
 11
61.70000000000001
 21
-55.000000000000099
 31
0.0
  0
LINE
  5
A7
  8
1
 62
     7
 10
0.0
 20
-25.00000000000011
 30
0.0
 11
3.0
 21
-25.00000000000011
 31
0.0
  0
LINE
  5
A8
  8
1
 62
     7
 10
5.0
 20
-23.50000000000011
 30
0.0
 11
3.0
 21
-23.50000000000011
 31
0.0
  0
LINE
  5
A9
  8
1
 62
     7
 10
3.0
 20
-23.50000000000011
 30
0.0
 11
3.0
 21
-28.50000000000011
 31
0.0
  0
LINE
  5
AA
  8
1
 62
     7
 10
3.0
 20
-28.50000000000011
 30
0.0
 11
5.0
 21
-28.50000000000011
 31
0.0
  0
LINE
  5
AB
  8
1
 62
     7
 10
0.0
 20
-40.000000000000099
 30
0.0
 11
2.5
 21
-40.000000000000099
 31
0.0
  0
LINE
  5
AC
  8
1
 62
     7
 10
5.0
 20
-34.750000000000099
 30
0.0
 11
2.5
 21
-34.750000000000099
 31
0.0
  0
LINE
  5
AD
  8
1
 62
     7
 10
2.5
 20
-41.750000000000099
 30
0.0
 11
5.0
 21
-41.750000000000099
 31
0.0
  0
LINE
  5
AE
  8
1
 62
     7
 10
6.6000000000000218
 20
-37.000000000000099
 30
0.0
 11
6.6000000000000218
 21
-28.00000000000011
 31
0.0
  0
LINE
  5
AF
  8
1
 62
     7
 10
19.400000000000009
 20
-37.000000000000099
 30
0.0
 11
19.400000000000009
 21
-28.00000000000011
 31
0.0
  0
LINE
  5
B0
  8
1
 62
     7
 10
21.0
 20
-28.602885682970172
 30
0.0
 11
15.25
 21
-28.602885682970172
 31
0.0
  0
LINE
  5
B1
  8
1
 62
     7
 10
5.0
 20
-28.602885682970172
 30
0.0
 11
10.749999999999989
 21
-28.602885682970172
 31
0.0
  0
LINE
  5
B2
  8
1
 62
     7
 10
5.0
 20
-36.397114317030052
 30
0.0
 11
10.749999999999989
 21
-36.397114317030052
 31
0.0
  0
LINE
  5
B3
  8
1
 62
     7
 10
21.0
 20
-36.397114317030052
 30
0.0
 11
15.25
 21
-36.397114317030052
 31
0.0
  0
LINE
  5
B4
  8
1
 62
     7
 10
21.0
 20
-35.000000000000099
 30
0.0
 11
22.0
 21
-35.000000000000099
 31
0.0
  0
LINE
  5
B5
  8
1
 62
     7
 10
22.0
 20
-35.000000000000099
 30
0.0
 11
22.0
 21
-28.800000000000072
 31
0.0
  0
LINE
  5
B6
  8
1
 62
     7
 10
22.0
 20
-28.800000000000072
 30
0.0
 11
52.0
 21
-28.800000000000072
 31
0.0
  0
LINE
  5
B7
  8
1
 62
     7
 10
52.0
 20
-28.800000000000072
 30
0.0
 11
52.0
 21
-49.700000000000152
 31
0.0
  0
LINE
  5
B8
  8
1
 62
     7
 10
52.0
 20
-49.700000000000152
 30
0.0
 11
0.0
 21
-49.700000000000152
 31
0.0
  0
LINE
  5
B9
  8
1
 62
     7
 10
179.03241242655841
 20
16.770509831248429
 30
0.0
 11
179.03241242655841
 21
21.0
 31
0.0
  0
LINE
  5
BA
  8
1
 62
     7
 10
179.03241242655841
 20
21.0
 30
0.0
 11
189.03241242655849
 21
21.0
 31
0.0
  0
LINE
  5
BB
  8
1
 62
     7
 10
189.03241242655849
 20
21.0
 30
0.0
 11
189.03241242655849
 21
16.770509831248429
 31
0.0
  0
LINE
  5
BC
  8
1
 62
     7
 10
0.0
 20
21.0
 30
0.0
 11
62.0
 21
21.0
 31
0.0
  0
LINE
  5
BD
  8
1
 62
     7
 10
0.0
 20
17.5
 30
0.0
 11
62.0
 21
17.5
 31
0.0
  0
LINE
  5
BE
  8
1
 62
     7
 10
0.0
 20
-17.5
 30
0.0
 11
62.0
 21
-17.5
 31
0.0
  0
LINE
  5
BF
  8
1
 62
     7
 10
70.0
 20
-51.000000000000107
 30
0.0
 11
70.0
 21
51.0
 31
0.0
  0
LINE
  5
C0
  8
1
 62
     7
 10
176.03241242655841
 20
54.415071441651207
 30
0.0
 11
176.03241242655841
 21
72.0
 31
0.0
  0
LINE
  5
C1
  8
1
 62
     7
 10
190.03241242655849
 20
74.0
 30
0.0
 11
178.03241242655841
 21
74.0
 31
0.0
  0
LINE
  5
C2
  8
1
 62
     7
 10
192.03241242655849
 20
54.415071441651207
 30
0.0
 11
192.03241242655849
 21
54.956406460550973
 31
0.0
  0
LINE
  5
C3
  8
1
 62
     7
 10
2.5
 20
34.75
 30
0.0
 11
2.5
 21
74.0
 31
0.0
  0
LINE
  5
C4
  8
1
 62
     7
 10
0.5
 20
74.0
 30
0.0
 11
2.5
 21
74.0
 31
0.0
  0
LINE
  5
C5
  8
1
 62
     7
 10
0.5
 20
70.75
 30
0.0
 11
2.5
 21
70.75
 31
0.0
  0
LINE
  5
C6
  8
1
  6
DASHDOT
 62
     3
 10
-0.4962650494260005
 20
68.0
 30
0.0
 11
3.5158844015385
 21
68.0
 31
0.0
  0
LINE
  5
C7
  8
1
 62
     7
 10
0.5
 20
65.25
 30
0.0
 11
2.5
 21
65.25
 31
0.0
  0
LINE
  5
C8
  8
1
 62
     7
 10
62.0
 20
-41.000000000000107
 30
0.0
 11
62.0
 21
41.0
 31
0.0
  0
LINE
  5
C9
  8
1
  6
DASHDOT
 62
     3
 10
184.03241242655849
 20
33.156733627861172
 30
0.0
 11
184.03241242655849
 21
45.539621989837208
 31
0.0
  0
LINE
  5
CA
  8
1
  6
DASHDOT
 62
     3
 10
187.12790809562739
 20
0.0
 30
0.0
 11
180.9369167574896
 21
0.0
 31
0.0
  0
LINE
  5
CB
  8
1
  6
DASHDOT
 62
     3
 10
184.03241242655849
 20
3.0954956690688959
 30
0.0
 11
184.03241242655849
 21
-3.0954956690688959
 31
0.0
  0
LINE
  5
CC
  8
1
  6
DASHDOT
 62
     3
 10
188.09954314950741
 20
68.0
 30
0.0
 11
179.96528170360949
 21
68.0
 31
0.0
  0
LINE
  5
CD
  8
1
  6
DASHDOT
 62
     3
 10
184.03241242655849
 20
72.067130722948832
 30
0.0
 11
184.03241242655849
 21
63.932869277051168
 31
0.0
  0
LINE
  5
CE
  8
1
 62
     3
 10
82.0
 20
0.0
 30
0.0
 11
84.939942612064414
 21
0.0
 31
0.0
  0
LINE
  5
CF
  8
1
 62
     3
 10
-134.20875456285771
 20
0.0
 30
0.0
 11
-131.61516463480021
 21
0.0
 31
0.0
  0
LINE
  5
D0
  8
1
 62
     7
 10
-69.915164634800277
 20
55.0
 30
0.0
 11
-105.61516463480019
 21
55.0
 31
0.0
  0
LINE
  5
D1
  8
1
 62
     7
 10
-107.61516463480019
 20
53.0
 30
0.0
 11
-105.61516463480019
 21
55.0
 31
0.0
  0
LINE
  5
D2
  8
1
 62
     7
 10
-52.615164634800287
 20
49.600000000000009
 30
0.0
 11
-52.615164634800287
 21
-49.600000000000151
 31
0.0
  0
LINE
  5
D3
  8
1
 62
     7
 10
-52.615164634800287
 20
45.0
 30
0.0
 11
-49.615164634800287
 21
45.0
 31
0.0
  0
LINE
  5
D4
  8
1
 62
     7
 10
-53.165164634800291
 20
55.0
 30
0.0
 11
-53.165164634800291
 21
-55.000000000000099
 31
0.0
  0
LINE
  5
D5
  8
1
 62
     7
 10
-69.615164634800252
 20
55.0
 30
0.0
 11
-53.165164634800291
 21
55.0
 31
0.0
  0
LINE
  5
D6
  8
1
 62
     3
 10
-68.065164634800269
 20
55.0
 30
0.0
 11
-68.065164634800269
 21
-55.000000000000099
 31
0.0
  0
LINE
  5
D7
  8
1
 62
     7
 10
-69.615164634800252
 20
55.0
 30
0.0
 11
-69.615164634800252
 21
-55.000000000000099
 31
0.0
  0
LINE
  5
D8
  8
1
 62
     7
 10
-53.165164634800291
 20
-55.000000000000099
 30
0.0
 11
-69.615164634800252
 21
-55.000000000000099
 31
0.0
  0
LINE
  5
D9
  8
1
 62
     7
 10
-49.615164634800287
 20
45.0
 30
0.0
 11
-49.615164634800287
 21
-45.000000000000099
 31
0.0
  0
LINE
  5
DA
  8
1
 62
     7
 10
-49.615164634800287
 20
-45.000000000000099
 30
0.0
 11
-52.615164634800287
 21
-45.000000000000099
 31
0.0
  0
LINE
  5
DB
  8
1
 62
     7
 10
-105.61516463480019
 20
-55.000000000000099
 30
0.0
 11
-107.61516463480019
 21
-53.000000000000107
 31
0.0
  0
LINE
  5
DC
  8
1
 62
     7
 10
-107.61516463480019
 20
-53.000000000000107
 30
0.0
 11
-107.61516463480019
 21
53.0
 31
0.0
  0
LINE
  5
DD
  8
1
 62
     3
 10
-71.46516463480026
 20
-55.000000000000099
 30
0.0
 11
-71.46516463480026
 21
55.0
 31
0.0
  0
LINE
  5
DE
  8
1
 62
     7
 10
-105.61516463480019
 20
-55.000000000000099
 30
0.0
 11
-69.915164634800277
 21
-55.000000000000099
 31
0.0
  0
LINE
  5
DF
  8
1
 62
     7
 10
-131.11516463480029
 20
49.700000000000053
 30
0.0
 11
-131.11516463480029
 21
74.0
 31
0.0
  0
LINE
  5
E0
  8
1
 62
     7
 10
-131.11516463480029
 20
74.0
 30
0.0
 11
-129.11516463480029
 21
74.0
 31
0.0
  0
LINE
  5
E1
  8
1
 62
     7
 10
-128.4651646348002
 20
49.700000000000053
 30
0.0
 11
-128.4651646348002
 21
68.570138972966447
 31
0.0
  0
LINE
  5
E2
  8
1
 62
     7
 10
-126.7651646348002
 20
68.570138972966447
 30
0.0
 11
-126.7651646348002
 21
49.700000000000053
 31
0.0
  0
LINE
  5
E3
  8
1
 62
     7
 10
-128.4651646348002
 20
68.570138972966447
 30
0.0
 11
-126.7651646348002
 21
68.570138972966447
 31
0.0
  0
LINE
  5
E4
  8
1
 62
     7
 10
-128.16516463480011
 20
70.667398913243446
 30
0.0
 11
-128.16516463480011
 21
68.570138972966447
 31
0.0
  0
LINE
  5
E5
  8
1
 62
     7
 10
-127.86516463480019
 20
70.667398913243446
 30
0.0
 11
-127.86516463480019
 21
68.570138972966447
 31
0.0
  0
LINE
  5
E6
  8
1
 62
     7
 10
-127.36516463480019
 20
70.667398913243446
 30
0.0
 11
-127.36516463480019
 21
68.570138972966447
 31
0.0
  0
LINE
  5
E7
  8
1
 62
     7
 10
-127.0651646348003
 20
70.667398913243446
 30
0.0
 11
-127.0651646348003
 21
68.570138972966447
 31
0.0
  0
LINE
  5
E8
  8
1
 62
     7
 10
-131.61516463480021
 20
-49.700000000000152
 30
0.0
 11
-131.61516463480021
 21
49.700000000000053
 31
0.0
  0
LINE
  5
E9
  8
1
 62
     3
 10
-49.615164634800287
 20
0.0
 30
0.0
 11
-46.675222022735881
 21
0.0
 31
0.0
  0
LINE
  5
EA
  8
1
 62
     7
 10
-52.615164634800287
 20
-49.600000000000151
 30
0.0
 11
-53.165164634800291
 21
-49.600000000000151
 31
0.0
  0
LINE
  5
EB
  8
1
 62
     7
 10
-52.615164634800287
 20
49.600000000000009
 30
0.0
 11
-53.165164634800291
 21
49.600000000000009
 31
0.0
  0
LINE
  5
EC
  8
1
 62
     7
 10
-69.915164634800277
 20
55.0
 30
0.0
 11
-69.915164634800277
 21
-55.000000000000099
 31
0.0
  0
LINE
  5
ED
  8
1
 62
     7
 10
-105.61516463480019
 20
55.0
 30
0.0
 11
-105.61516463480019
 21
-55.000000000000099
 31
0.0
  0
LINE
  5
EE
  8
1
 62
     7
 10
-107.61516463480019
 20
-49.700000000000152
 30
0.0
 11
-131.61516463480021
 21
-49.700000000000152
 31
0.0
  0
LINE
  5
EF
  8
1
 62
     7
 10
-107.61516463480019
 20
49.700000000000053
 30
0.0
 11
-131.61516463480021
 21
49.700000000000053
 31
0.0
  0
LINE
  5
F0
  8
1
 62
     7
 10
-129.11516463480029
 20
49.700000000000053
 30
0.0
 11
-129.11516463480029
 21
74.0
 31
0.0
  0
LINE
  5
F1
  8
1
 62
     7
 10
-246.8379676359807
 20
16.770509831248429
 30
0.0
 11
-246.8379676359807
 21
21.0
 31
0.0
  0
LINE
  5
F2
  8
1
 62
     7
 10
-246.8379676359807
 20
21.0
 30
0.0
 11
-236.8379676359807
 21
21.0
 31
0.0
  0
LINE
  5
F3
  8
1
 62
     7
 10
-236.8379676359807
 20
21.0
 30
0.0
 11
-236.8379676359807
 21
16.770509831248429
 31
0.0
  0
LINE
  5
F4
  8
1
 62
     7
 10
-249.5079676359808
 20
47.200000000000053
 30
0.0
 11
-250.16796763598069
 21
47.200000000000053
 31
0.0
  0
LINE
  5
F5
  8
1
 62
     7
 10
-247.6379676359808
 20
44.670000000000059
 30
0.0
 11
-247.6379676359808
 21
45.329999999999927
 31
0.0
  0
LINE
  5
F6
  8
1
 62
     7
 10
-250.16796763598069
 20
42.799999999999947
 30
0.0
 11
-249.5079676359808
 21
42.799999999999947
 31
0.0
  0
LINE
  5
F7
  8
1
 62
     7
 10
-252.03796763598081
 20
45.329999999999927
 30
0.0
 11
-252.03796763598081
 21
44.670000000000059
 31
0.0
  0
LINE
  5
F8
  8
1
 62
     7
 10
-233.5079676359808
 20
47.200000000000053
 30
0.0
 11
-234.1679676359808
 21
47.200000000000053
 31
0.0
  0
LINE
  5
F9
  8
1
 62
     7
 10
-231.6379676359808
 20
44.670000000000059
 30
0.0
 11
-231.6379676359808
 21
45.329999999999927
 31
0.0
  0
LINE
  5
FA
  8
1
 62
     7
 10
-234.1679676359808
 20
42.799999999999947
 30
0.0
 11
-233.5079676359808
 21
42.799999999999947
 31
0.0
  0
LINE
  5
FB
  8
1
 62
     7
 10
-236.03796763598081
 20
45.329999999999927
 30
0.0
 11
-236.03796763598081
 21
44.670000000000059
 31
0.0
  0
LINE
  5
FC
  8
1
 62
     7
 10
-255.83796763598079
 20
42.0
 30
0.0
 11
-255.83796763598079
 21
49.381197846483019
 31
0.0
  0
LINE
  5
FD
  8
1
 62
     7
 10
-229.8379676359807
 20
40.0
 30
0.0
 11
-253.83796763598079
 21
40.0
 31
0.0
  0
LINE
  5
FE
  8
1
 62
     7
 10
-227.8379676359807
 20
49.381197846483019
 30
0.0
 11
-227.8379676359807
 21
42.0
 31
0.0
  0
LINE
  5
FF
  8
1
 62
     7
 10
-250.8379676359807
 20
53.422649730810463
 30
0.0
 11
-254.8379676359807
 21
51.113248654051858
 31
0.0
  0
LINE
  5
100
  8
1
 62
     7
 10
-232.83796763598079
 20
53.422649730810463
 30
0.0
 11
-228.83796763598079
 21
51.113248654051858
 31
0.0
  0
LINE
  5
101
  8
1
 62
     7
 10
-249.83796763598079
 20
72.0
 30
0.0
 11
-249.83796763598079
 21
55.154700538379302
 31
0.0
  0
LINE
  5
102
  8
1
 62
     7
 10
-233.8379676359807
 20
72.0
 30
0.0
 11
-233.8379676359807
 21
55.154700538379181
 31
0.0
  0
LINE
  5
103
  8
1
 62
     7
 10
-247.83796763598079
 20
74.0
 30
0.0
 11
-235.8379676359807
 21
74.0
 31
0.0
  0
LINE
  5
104
  8
1
  6
DASHDOT
 62
     3
 10
-237.87619027745379
 20
0.0
 30
0.0
 11
-245.7997449945079
 21
0.0
 31
0.0
  0
LINE
  5
105
  8
1
  6
DASHDOT
 62
     3
 10
-241.8379676359807
 20
3.9617773585271139
 30
0.0
 11
-241.8379676359807
 21
-3.9617773585271139
 31
0.0
  0
LINE
  5
106
  8
1
 62
     7
 10
-256.83796763598082
 20
47.382380691560897
 30
0.0
 11
-256.83796763598082
 21
37.080992435478272
 31
0.0
  0
LINE
  5
107
  8
1
 62
     7
 10
-226.83796763598079
 20
37.080992435478272
 30
0.0
 11
-226.83796763598079
 21
47.382380691560897
 31
0.0
  0
LINE
  5
108
  8
1
  6
DASHDOT
 62
     3
 10
-237.62503287439179
 20
68.0
 30
0.0
 11
-246.0509023975697
 21
68.0
 31
0.0
  0
LINE
  5
109
  8
1
  6
DASHDOT
 62
     3
 10
-241.8379676359807
 20
72.212934761588826
 30
0.0
 11
-241.8379676359807
 21
63.787065238411166
 31
0.0
  0
LINE
  5
10A
  8
1
 62
     7
 10
63.5
 20
44.0
 30
0.0
 11
75.0
 21
44.0
 31
0.0
  0
LINE
  5
10B
  8
1
 62
     7
 10
75.0
 20
44.0
 30
0.0
 11
75.0
 21
34.0
 31
0.0
  0
LINE
  5
10C
  8
1
 62
     7
 10
75.0
 20
41.749999999999993
 30
0.0
 11
82.0
 21
41.749999999999993
 31
0.0
  0
LINE
  5
10D
  8
1
 62
     7
 10
82.0
 20
36.25
 30
0.0
 11
75.0
 21
36.25
 31
0.0
  0
LINE
  5
10E
  8
1
 62
     7
 10
75.0
 20
34.0
 30
0.0
 11
63.5
 21
34.0
 31
0.0
  0
LINE
  5
10F
  8
1
  6
DASHDOT
 62
     3
 10
155.3178387983169
 20
16.578366813930639
 30
0.0
 11
144.5939429046191
 21
22.769810994918661
 31
0.0
  0
LINE
  5
110
  8
1
  6
DASHDOT
 62
     3
 10
155.3178387983169
 20
-16.578366813930419
 30
0.0
 11
144.5939429046191
 21
-22.769810994918419
 31
0.0
  0
LINE
  5
111
  8
1
  6
DASHDOT
 62
     3
 10
184.03241242655849
 20
-33.156733627861051
 30
0.0
 11
184.03241242655849
 21
-45.539621989837087
 31
0.0
  0
LINE
  5
112
  8
1
  6
DASHDOT
 62
     3
 10
212.7469860548
 20
-16.578366813930518
 30
0.0
 11
223.470881948498
 21
-22.769810994918529
 31
0.0
  0
LINE
  5
113
  8
1
  6
DASHDOT
 62
     3
 10
212.7469860548
 20
16.578366813930639
 30
0.0
 11
223.470881948498
 21
22.769810994918661
 31
0.0
  0
LINE
  5
114
  8
1
  6
DASHDOT
 62
     3
 10
140.02529431583449
 20
0.0
 30
0.0
 11
150.49974706626151
 21
0.0
 31
0.0
  0
LINE
  5
115
  8
1
  6
DASHDOT
 62
     3
 10
217.5650777868554
 20
0.0
 30
0.0
 11
228.03953053728219
 21
0.0
 31
0.0
  0
LINE
  5
116
  8
1
 62
     7
 10
2.5
 20
-34.750000000000099
 30
0.0
 11
2.5
 21
-41.750000000000099
 31
0.0
  0
LINE
  5
117
  8
1
 62
     7
 10
0.0
 20
-49.700000000000152
 30
0.0
 11
0.0
 21
49.700000000000053
 31
0.0
  0
LINE
  5
118
  8
1
 62
     7
 10
0.0
 20
49.700000000000053
 30
0.0
 11
0.5
 21
49.700000000000053
 31
0.0
  0
LINE
  5
119
  8
1
 62
     7
 10
0.5
 20
74.0
 30
0.0
 11
0.5
 21
40.0
 31
0.0
  0
LINE
  5
11A
  8
1
 62
     7
 10
2.5
 20
49.700000000000053
 30
0.0
 11
52.0
 21
49.700000000000053
 31
0.0
  0
ARC
  5
11B
  8
1
 62
     7
 10
190.03241242655849
 20
72.0
 30
0.0
 40
2.0
 50
0.0
 51
90.0
  0
ARC
  5
11C
  8
1
 62
     7
 10
178.03241242655841
 20
72.0
 30
0.0
 40
2.0
 50
90.0
 51
180.0
  0
ARC
  5
11D
  8
1
 62
     7
 10
-229.8379676359807
 20
49.381197846483019
 30
0.0
 40
2.0
 50
0.0
 51
59.999999999999439
  0
ARC
  5
11E
  8
1
 62
     7
 10
-229.8379676359807
 20
42.0
 30
0.0
 40
2.0
 50
270.0
 51
0.0
  0
ARC
  5
11F
  8
1
 62
     7
 10
-253.83796763598079
 20
42.0
 30
0.0
 40
2.0
 50
180.0
 51
270.0
  0
ARC
  5
120
  8
1
 62
     7
 10
-253.83796763598079
 20
49.381197846483019
 30
0.0
 40
1.999999999999966
 50
120.0000000000005
 51
180.0
  0
ARC
  5
121
  8
1
 62
     7
 10
-251.83796763598079
 20
55.154700538379302
 30
0.0
 40
1.999999999999966
 50
300.00000000000051
 51
0.0
  0
ARC
  5
122
  8
1
 62
     7
 10
-231.8379676359807
 20
55.154700538379302
 30
0.0
 40
2.0
 50
180.0
 51
239.99999999999949
  0
ARC
  5
123
  8
1
 62
     7
 10
-235.8379676359807
 20
71.999999999999901
 30
0.0
 40
2.0
 50
0.0
 51
90.0
  0
ARC
  5
124
  8
1
 62
     7
 10
-247.83796763598079
 20
72.0
 30
0.0
 40
2.0
 50
90.0
 51
180.0
  0
ARC
  5
125
  8
1
 62
     7
 10
-241.8379676359807
 20
0.0
 30
0.0
 40
54.999999999999979
 50
98.522479690703435
 51
0.0
  0
ARC
  5
126
  8
1
 62
     7
 10
-241.8379676359807
 20
0.0
 30
0.0
 40
55.0
 50
0.0
 51
81.477520309296494
  0
ARC
  5
127
  8
1
 62
     7
 10
184.03241242655849
 20
0.0
 30
0.0
 40
17.500000000000011
 50
106.6015495990201
 51
73.398450400979755
  0
ARC
  5
128
  8
1
 62
     7
 10
-241.8379676359807
 20
0.0
 30
0.0
 40
17.500000000000011
 50
106.6015495990201
 51
73.398450400979755
  0
ARC
  5
129
  8
1
 62
     7
 10
-241.8379676359807
 20
0.0
 30
0.0
 40
49.700000000000017
 50
106.361103524032
 51
73.638896475967869
  0
ARC
  5
12A
  8
1
 62
     7
 10
-247.6379676359808
 20
47.200000000000053
 30
0.0
 40
1.8700000000000041
 50
180.0
 51
270.0
  0
ARC
  5
12B
  8
1
 62
     7
 10
-247.6379676359808
 20
42.799999999999947
 30
0.0
 40
1.870000000000124
 50
90.0
 51
180.0
  0
ARC
  5
12C
  8
1
 62
     7
 10
-252.03796763598081
 20
42.799999999999947
 30
0.0
 40
1.8700000000000041
 50
0.0
 51
90.0
  0
ARC
  5
12D
  8
1
 62
     7
 10
-252.03796763598081
 20
47.200000000000053
 30
0.0
 40
1.870000000000124
 50
270.0
 51
0.0
  0
ARC
  5
12E
  8
1
 62
     7
 10
-231.6379676359808
 20
47.200000000000053
 30
0.0
 40
1.8700000000000041
 50
180.0
 51
270.0
  0
ARC
  5
12F
  8
1
 62
     7
 10
-231.6379676359808
 20
42.799999999999947
 30
0.0
 40
1.870000000000124
 50
90.0
 51
180.0
  0
ARC
  5
130
  8
1
 62
     7
 10
-236.03796763598081
 20
42.799999999999947
 30
0.0
 40
1.8700000000000041
 50
0.0
 51
90.0
  0
ARC
  5
131
  8
1
 62
     7
 10
-236.03796763598081
 20
47.200000000000053
 30
0.0
 40
1.870000000000124
 50
270.0
 51
0.0
  0
ARC
  5
132
  8
1
  6
DASHDOT
 62
     3
 10
184.03241242655849
 20
0.0
 30
0.0
 40
38.99999999999995
 50
79.573231883875224
 51
99.748465899557644
  0
ARC
  5
133
  8
1
  6
DASHDOT
 62
     3
 10
184.03241242655849
 20
0.0
 30
0.0
 40
38.999999999999979
 50
139.57323188387511
 51
159.7484658995574
  0
ARC
  5
134
  8
1
  6
DASHDOT
 62
     3
 10
184.03241242655849
 20
0.0
 30
0.0
 40
38.999999999999787
 50
199.5732318838752
 51
219.74846589955749
  0
ARC
  5
135
  8
1
  6
DASHDOT
 62
     3
 10
184.03241242655849
 20
0.0
 30
0.0
 40
38.999999999999822
 50
259.57323188387522
 51
279.74846589955757
  0
ARC
  5
136
  8
1
  6
DASHDOT
 62
     3
 10
184.03241242655849
 20
0.0
 30
0.0
 40
38.999999999999808
 50
319.57323188387539
 51
339.7484658995578
  0
ARC
  5
137
  8
1
  6
DASHDOT
 62
     3
 10
184.03241242655849
 20
0.0
 30
0.0
 40
39.00000000000005
 50
19.573231883875248
 51
39.748465899557672
  0
ARC
  5
138
  8
1
  6
DASHDOT
 62
     3
 10
184.03241242655849
 20
0.0
 30
0.0
 40
39.0
 50
171.9552409240903
 51
188.18586368135439
  0
ARC
  5
139
  8
1
  6
DASHDOT
 62
     3
 10
184.03241242655849
 20
0.0
 30
0.0
 40
38.999999999999929
 50
351.81413631864541
 51
8.0447590759097451
  0
CIRCLE
  5
13A
  8
1
 62
     7
 10
-241.8379676359807
 20
0.0
 30
0.0
 40
40.0
  0
CIRCLE
  5
13B
  8
1
 62
     7
 10
217.80740317415169
 20
-19.5
 30
0.0
 40
2.749999999999686
  0
CIRCLE
  5
13C
  8
1
 62
     7
 10
217.8074031741516
 20
19.50000000000011
 30
0.0
 40
2.749999999999885
  0
CIRCLE
  5
13D
  8
1
 62
     7
 10
184.03241242655849
 20
39.0
 30
0.0
 40
2.75
  0
CIRCLE
  5
13E
  8
1
 62
     7
 10
150.2574216789653
 20
19.5
 30
0.0
 40
2.75
  0
CIRCLE
  5
13F
  8
1
 62
     7
 10
184.03241242655869
 20
-39.000000000000107
 30
0.0
 40
2.749999999999801
  0
CIRCLE
  5
140
  8
1
 62
     7
 10
13.0
 20
32.5
 30
0.0
 40
4.5
  0
CIRCLE
  5
141
  8
1
 62
     7
 10
13.0
 20
-32.500000000000099
 30
0.0
 40
4.5
  0
CIRCLE
  5
142
  8
1
 62
     7
 10
184.03241242655849
 20
0.0
 30
0.0
 40
23.0
  0
CIRCLE
  5
143
  8
1
 62
     7
 10
184.03241242655849
 20
0.0
 30
0.0
 40
32.5
  0
CIRCLE
  5
144
  8
1
 62
     7
 10
184.03241242655849
 20
0.0
 30
0.0
 40
45.0
  0
CIRCLE
  5
145
  8
1
 62
     7
 10
184.03241242655849
 20
0.0
 30
0.0
 40
55.0
  0
CIRCLE
  5
146
  8
1
 62
     7
 10
184.03241242655849
 20
0.0
 30
0.0
 40
49.600000000000108
  0
CIRCLE
  5
147
  8
1
 62
     7
 10
209.1011292043336
 20
29.87573328164012
 30
0.0
 40
5.0
  0
CIRCLE
  5
148
  8
1
 62
     7
 10
209.1011292043336
 20
29.87573328164012
 30
0.0
 40
4.5
  0
CIRCLE
  5
149
  8
1
 62
     7
 10
209.1011292043336
 20
-29.87573328164012
 30
0.0
 40
4.5
  0
CIRCLE
  5
14A
  8
1
 62
     7
 10
209.1011292043336
 20
-29.87573328164012
 30
0.0
 40
5.0
  0
CIRCLE
  5
14B
  8
1
 62
     7
 10
158.9636956487835
 20
29.87573328164012
 30
0.0
 40
4.5
  0
CIRCLE
  5
14C
  8
1
 62
     7
 10
158.9636956487835
 20
29.87573328164012
 30
0.0
 40
5.0
  0
CIRCLE
  5
14D
  8
1
 62
     7
 10
158.9636956487835
 20
-29.87573328164012
 30
0.0
 40
4.5
  0
CIRCLE
  5
14E
  8
1
 62
     7
 10
158.9636956487835
 20
-29.87573328164012
 30
0.0
 40
5.0
  0
CIRCLE
  5
14F
  8
1
 62
     7
 10
184.03241242655849
 20
68.0
 30
0.0
 40
2.75
  0
CIRCLE
  5
150
  8
1
 62
     7
 10
-249.83796763598079
 20
45.0
 30
0.0
 40
4.0
  0
CIRCLE
  5
151
  8
1
 62
     7
 10
-233.8379676359807
 20
45.0
 30
0.0
 40
4.0
  0
CIRCLE
  5
152
  8
1
 62
     7
 10
-241.8379676359807
 20
68.0
 30
0.0
 40
2.75
  0
CIRCLE
  5
153
  8
1
 62
     7
 10
-241.8379676359807
 20
0.0
 30
0.0
 40
25.0
  0
CIRCLE
  5
154
  8
1
  6
DASHED
 62
     7
 10
184.03241242655849
 20
39.0
 30
0.0
 40
5.0
  0
CIRCLE
  5
155
  8
1
  6
DASHED
 62
     7
 10
150.2574216789653
 20
19.5
 30
0.0
 40
5.0
  0
CIRCLE
  5
156
  8
1
  6
DASHED
 62
     7
 10
150.25742167896539
 20
-19.499999999999879
 30
0.0
 40
5.0
  0
CIRCLE
  5
157
  8
1
 62
     7
 10
150.25742167896539
 20
-19.499999999999879
 30
0.0
 40
2.75
  0
CIRCLE
  5
158
  8
1
  6
DASHED
 62
     7
 10
184.03241242655869
 20
-39.000000000000107
 30
0.0
 40
5.0000000000001981
  0
CIRCLE
  5
159
  8
1
  6
DASHED
 62
     7
 10
217.80740317415169
 20
-19.5
 30
0.0
 40
5.0
  0
CIRCLE
  5
15A
  8
1
  6
DASHED
 62
     7
 10
217.8074031741516
 20
19.50000000000011
 30
0.0
 40
5.0
  0
CIRCLE
  5
15B
  8
1
 62
     7
 10
145.03241242655841
 20
0.0
 30
0.0
 40
3.9000000000000061
  0
CIRCLE
  5
15C
  8
1
 62
     7
 10
223.03241242655841
 20
0.0
 30
0.0
 40
3.8999999999999759
  0
TEXT
  5
15E
  8
1
 62
     7
 10
-253.42155744590639
 20
137.81888715974819
 30
0.0
 40
7.0
  1
MZ 16
 41
0.9
  7
SIMPLEX
  0
ENDSEC
  0
EOF
