  0
SECTION
  2
HEADER
  9
$ACADVER
  1
AC1009
  9
$INSBASE
 10
0.0
 20
0.0
 30
0.0
  9
$EXTMIN
 10
-312.21638386193172
 20
-60.0
 30
0.0
  9
$EXTMAX
 10
258.51278344698721
 20
126.9557504800792
 30
0.0
  9
$LIMMIN
 10
-312.2163838619316
 20
-60.0
  9
$LIMMAX
 10
258.51278344698721
 20
126.9557504800792
  9
$ORTHOMODE
 70
     0
  9
$REGENMODE
 70
     1
  9
$FILLMODE
 70
     1
  9
$QTEXTMODE
 70
     0
  9
$MIRRTEXT
 70
     1
  9
$DRAGMODE
 70
     2
  9
$LTSCALE
 40
1.0
  9
$OSMODE
 70
    37
  9
$ATTMODE
 70
     1
  9
$TEXTSIZE
 40
3.5
  9
$TRACEWID
 40
0.5
  9
$TEXTSTYLE
  7
STANDARD
  9
$CLAYER
  8
0
  9
$CELTYPE
  6
BYLAYER
  9
$CECOLOR
 62
   256
  9
$DIMSCALE
 40
1.0
  9
$DIMASZ
 40
0.18
  9
$DIMEXO
 40
0.0625
  9
$DIMDLI
 40
0.38
  9
$DIMRND
 40
0.0
  9
$DIMDLE
 40
0.0
  9
$DIMEXE
 40
0.18
  9
$DIMTP
 40
0.0
  9
$DIMTM
 40
0.0
  9
$DIMTXT
 40
0.18
  9
$DIMCEN
 40
0.09
  9
$DIMTSZ
 40
0.0
  9
$DIMTOL
 70
     0
  9
$DIMLIM
 70
     0
  9
$DIMTIH
 70
     1
  9
$DIMTOH
 70
     1
  9
$DIMSE1
 70
     0
  9
$DIMSE2
 70
     0
  9
$DIMTAD
 70
     0
  9
$DIMZIN
 70
     0
  9
$DIMBLK
  1

  9
$DIMASO
 70
     1
  9
$DIMSHO
 70
     1
  9
$DIMPOST
  1

  9
$DIMAPOST
  1

  9
$DIMALT
 70
     0
  9
$DIMALTD
 70
     2
  9
$DIMALTF
 40
25.399999999999999
  9
$DIMLFAC
 40
1.0
  9
$DIMTOFL
 70
     0
  9
$DIMTVP
 40
0.0
  9
$DIMTIX
 70
     0
  9
$DIMSOXD
 70
     0
  9
$DIMSAH
 70
     0
  9
$DIMBLK1
  1

  9
$DIMBLK2
  1

  9
$DIMSTYLE
  2
STANDARD
  9
$DIMCLRD
 70
     0
  9
$DIMCLRE
 70
     0
  9
$DIMCLRT
 70
     0
  9
$DIMTFAC
 40
1.0
  9
$DIMGAP
 40
0.09
  9
$LUNITS
 70
     2
  9
$LUPREC
 70
     4
  9
$SKETCHINC
 40
0.1
  9
$FILLETRAD
 40
2.0
  9
$AUNITS
 70
     0
  9
$AUPREC
 70
     0
  9
$MENU
  1
ACAD
  9
$ELEVATION
 40
0.0
  9
$PELEVATION
 40
0.0
  9
$THICKNESS
 40
0.0
  9
$LIMCHECK
 70
     0
  9
$BLIPMODE
 70
     0
  9
$CHAMFERA
 40
0.0
  9
$CHAMFERB
 40
0.0
  9
$SKPOLY
 70
     0
  9
$TDCREATE
 40
2452095.081774768
  9
$TDUPDATE
 40
2452095.0824275459
  9
$TDINDWG
 40
0.0006674769
  9
$TDUSRTIMER
 40
0.0006674769
  9
$USRTIMER
 70
     1
  9
$ANGBASE
 50
0.0
  9
$ANGDIR
 70
     0
  9
$PDMODE
 70
     0
  9
$PDSIZE
 40
0.0
  9
$PLINEWID
 40
0.0
  9
$COORDS
 70
     1
  9
$SPLFRAME
 70
     0
  9
$SPLINETYPE
 70
     6
  9
$SPLINESEGS
 70
     8
  9
$ATTDIA
 70
     0
  9
$ATTREQ
 70
     1
  9
$HANDLING
 70
 10241
  9
$HANDSEED
  5
163
  9
$SURFTAB1
 70
     6
  9
$SURFTAB2
 70
     6
  9
$SURFTYPE
 70
     6
  9
$SURFU
 70
     6
  9
$SURFV
 70
     6
  9
$UCSNAME
  2

  9
$UCSORG
 10
0.0
 20
0.0
 30
0.0
  9
$UCSXDIR
 10
1.0
 20
0.0
 30
0.0
  9
$UCSYDIR
 10
0.0
 20
1.0
 30
0.0
  9
$PUCSNAME
  2

  9
$PUCSORG
 10
0.0
 20
0.0
 30
0.0
  9
$PUCSXDIR
 10
1.0
 20
0.0
 30
0.0
  9
$PUCSYDIR
 10
0.0
 20
1.0
 30
0.0
  9
$USERI1
 70
     0
  9
$USERI2
 70
     0
  9
$USERI3
 70
     0
  9
$USERI4
 70
     0
  9
$USERI5
 70
     0
  9
$USERR1
 40
0.0
  9
$USERR2
 40
0.0
  9
$USERR3
 40
0.0
  9
$USERR4
 40
0.0
  9
$USERR5
 40
0.0
  9
$WORLDVIEW
 70
     1
  9
$SHADEDGE
 70
     3
  9
$SHADEDIF
 70
    70
  9
$TILEMODE
 70
     1
  9
$MAXACTVP
 70
    64
  9
$PLIMCHECK
 70
     0
  9
$PEXTMIN
 10
1.0000000000000000E+020
 20
1.0000000000000000E+020
 30
1.0000000000000000E+020
  9
$PEXTMAX
 10
-1.0000000000000000E+020
 20
-1.0000000000000000E+020
 30
-1.0000000000000000E+020
  9
$PLIMMIN
 10
0.0
 20
0.0
  9
$PLIMMAX
 10
12.0
 20
9.0
  9
$UNITMODE
 70
     0
  9
$VISRETAIN
 70
     1
  9
$PLINEGEN
 70
     0
  9
$PSLTSCALE
 70
     1
  0
ENDSEC
  0
SECTION
  2
TABLES
  0
TABLE
  2
VPORT
 70
     2
  0
VPORT
  2
*ACTIVE
 70
     0
 10
0.0
 20
0.0
 11
1.0
 21
1.0
 12
-245.7855354942775
 22
113.5218575392975
 13
0.0
 23
0.0
 14
1.0
 24
1.0
 15
0.0
 25
0.0
 16
0.0
 26
0.0
 36
1.0
 17
0.0
 27
0.0
 37
0.0
 40
8.9999997315692326
 41
2.4144144144144142
 42
50.0
 43
0.0
 44
0.0
 50
0.0
 51
0.0
 71
     0
 72
   100
 73
     1
 74
     1
 75
     0
 76
     0
 77
     0
 78
     0
  0
ENDTAB
  0
TABLE
  2
LTYPE
 70
     9
  0
LTYPE
  2
CONTINUOUS
 70
     0
  3
Solid line
 72
    65
 73
     0
 40
0.0
  0
LTYPE
  2
BORDER
 70
     0
  3
__ __ . __ __ .
 72
    65
 73
     6
 40
26.283580073437061
 49
7.509594306696302
 49
-3.754797153348151
 49
7.509594306696302
 49
-3.754797153348151
 49
0.0
 49
-3.754797153348151
  0
LTYPE
  2
CENTER
 70
     0
  3
____ _ ____ _
 72
    65
 73
     4
 40
30.038377226785212
 49
18.773985766740751
 49
-3.754797153348151
 49
3.754797153348151
 49
-3.754797153348151
  0
LTYPE
  2
DASHDOT
 70
     0
  3
__ . __ . __ .
 72
    65
 73
     4
 40
15.0191886133926
 49
7.509594306696302
 49
-3.754797153348151
 49
0.0
 49
-3.754797153348151
  0
LTYPE
  2
DASHED
 70
     0
  3
__ __ __ __ __
 72
    65
 73
     2
 40
11.26439146004444
 49
7.509594306696302
 49
-3.754797153348151
  0
LTYPE
  2
DIVIDE
 70
     0
  3
__ . . __ . . 
 72
    65
 73
     6
 40
18.773985766740751
 49
7.509594306696302
 49
-3.754797153348151
 49
0.0
 49
-3.754797153348151
 49
0.0
 49
-3.754797153348151
  0
LTYPE
  2
DOT
 70
     0
  3
..............
 72
    65
 73
     4
 40
7.509594306696302
 49
0.0
 49
-3.754797153348151
 49
0.0
 49
-3.754797153348151
  0
LTYPE
  2
HIDDEN
 70
     0
  3
_ _ _ _ _ _ _
 72
    65
 73
     2
 40
5.632195730022227
 49
3.754797153348151
 49
-1.8773985766740751
  0
LTYPE
  2
PHANTOM
 70
     0
  3
_____ _ _ _____ _ _ 
 72
    65
 73
     6
 40
37.547971533481508
 49
18.773985766740751
 49
-3.754797153348151
 49
3.754797153348151
 49
-3.754797153348151
 49
3.754797153348151
 49
-3.754797153348151
  0
ENDTAB
  0
TABLE
  2
LAYER
 70
     2
  0
LAYER
  2
0
 70
     0
 62
     7
  6
CONTINUOUS
  0
LAYER
  2
1
 70
     0
 62
     7
  6
CONTINUOUS
  0
ENDTAB
  0
TABLE
  2
STYLE
 70
     4
  0
STYLE
  2
STANDARD
 70
     0
 40
0.0
 41
1.0
 50
0.0
 71
     0
 42
3.5
  3
txt
  4

  0
STYLE
  2
SIMPLEX
 70
     0
 40
0.0
 41
1.0
 50
0.0
 71
     0
 42
3.5
  3
simplex
  4

  0
STYLE
  2
COMPLEX
 70
     0
 40
0.0
 41
1.0
 50
0.0
 71
     0
 42
3.5
  3
complex
  4

  0
STYLE
  2
ITALIC
 70
     0
 40
0.0
 41
1.0
 50
0.0
 71
     0
 42
3.5
  3
italic
  4

  0
ENDTAB
  0
TABLE
  2
VIEW
 70
     0
  0
ENDTAB
  0
TABLE
  2
UCS
 70
     0
  0
ENDTAB
  0
TABLE
  2
APPID
 70
     1
  0
APPID
  2
ACAD
 70
     0
  0
ENDTAB
  0
TABLE
  2
DIMSTYLE
 70
     1
  0
DIMSTYLE
  2
STANDARD
 70
     0
  3

  4

  5

  6

  7

 40
1.0
 41
0.18
 42
0.0625
 43
0.38
 44
0.18
 45
0.0
 46
0.0
 47
0.0
 48
0.0
140
0.18
141
0.09
142
0.0
143
25.399999999999999
144
1.0
145
0.0
146
1.0
147
0.09
 71
     0
 72
     0
 73
     1
 74
     1
 75
     0
 76
     0
 77
     0
 78
     0
170
     0
171
     2
172
     0
173
     0
174
     0
175
     0
176
     0
177
     0
178
     0
  0
ENDTAB
  0
ENDSEC
  0
SECTION
  2
BLOCKS
  0
BLOCK
  8
0
  2
$MODEL_SPACE
 70
     0
 10
0.0
 20
0.0
 30
0.0
  3
$MODEL_SPACE
  1

  0
ENDBLK
  5
20
  8
0
  0
BLOCK
 67
     1
  8
0
  2
$PAPER_SPACE
 70
     0
 10
0.0
 20
0.0
 30
0.0
  3
$PAPER_SPACE
  1

  0
ENDBLK
  5
1C
 67
     1
  8
0
  0
ENDSEC
  0
SECTION
  2
ENTITIES
  0
LINE
  5
33
  8
1
 62
     7
 10
-115.2735399592387
 20
53.699999999999989
 30
0.0
 11
-142.27353995923889
 21
53.699999999999989
 31
0.0
  0
LINE
  5
34
  8
1
 62
     7
 10
24.000000000000011
 20
-27.5
 30
0.0
 11
24.000000000000011
 21
-45.0
 31
0.0
  0
LINE
  5
35
  8
1
 62
     7
 10
4.0000000000000133
 20
30.999999999999989
 30
0.0
 11
4.0000000000000133
 21
26.0
 31
0.0
  0
LINE
  5
36
  8
1
 62
     7
 10
6.0000000000000133
 20
46.749999999999993
 30
0.0
 11
6.0000000000000133
 21
26.0
 31
0.0
  0
LINE
  5
37
  8
1
 62
     7
 10
24.000000000000011
 20
44.999999999999993
 30
0.0
 11
24.000000000000011
 21
27.499999999999989
 31
0.0
  0
LINE
  5
38
  8
1
 62
     7
 10
24.000000000000011
 20
27.499999999999989
 30
0.0
 11
6.0000000000000133
 21
27.499999999999989
 31
0.0
  0
LINE
  5
39
  8
1
 62
     7
 10
24.000000000000011
 20
44.999999999999993
 30
0.0
 11
6.0000000000000133
 21
44.999999999999993
 31
0.0
  0
LINE
  5
3A
  8
1
  6
DASHDOT
 62
     3
 10
-142.66271589550951
 20
73.0
 30
0.0
 11
-137.98037116774151
 21
73.0
 31
0.0
  0
LINE
  5
3B
  8
1
 62
     7
 10
-272.58972171583332
 20
80.887656282723938
 30
0.0
 11
-270.92367844677051
 21
78.001984693099104
 31
0.0
  0
LINE
  5
3C
  8
1
 62
     7
 10
-272.32991409469793
 20
81.037656282723944
 30
0.0
 11
-270.66387082563512
 21
78.151984693099095
 31
0.0
  0
LINE
  5
3D
  8
1
 62
     7
 10
-271.55049123129191
 20
81.487656282723947
 30
0.0
 11
-269.88444796222922
 21
78.601984693099098
 31
0.0
  0
LINE
  5
3E
  8
1
 62
     7
 10
-271.81029885242731
 20
81.337656282723941
 30
0.0
 11
-270.14425558336461
 21
78.451984693099092
 31
0.0
  0
LINE
  5
3F
  8
1
 62
     7
 10
-269.45143526033689
 20
78.851984693099084
 30
0.0
 11
-271.11747852939982
 21
81.737656282723947
 31
0.0
  0
LINE
  5
40
  8
1
 62
     7
 10
-269.19162763920173
 20
79.001984693099104
 30
0.0
 11
-270.85767090826442
 21
81.887656282723938
 31
0.0
  0
LINE
  5
41
  8
1
 62
     7
 10
-268.4122047757956
 20
79.451984693099092
 30
0.0
 11
-270.07824804485853
 21
82.337656282723941
 31
0.0
  0
LINE
  5
42
  8
1
 62
     7
 10
-268.672012396931
 20
79.301984693099101
 30
0.0
 11
-270.33805566599381
 21
82.187656282723935
 31
0.0
  0
LINE
  5
43
  8
1
 62
     7
 10
-272.0701064735627
 20
81.18765628272395
 30
0.0
 11
-270.40406320449989
 21
78.301984693099101
 31
0.0
  0
LINE
  5
44
  8
1
 62
     7
 10
-268.93182001806628
 20
79.151984693099095
 30
0.0
 11
-270.5978632871292
 21
82.037656282723944
 31
0.0
  0
LINE
  5
45
  8
1
 62
     7
 10
-271.1401847977167
 20
77.876984693099104
 30
0.0
 11
-268.19569842484958
 21
79.576984693099092
 31
0.0
  0
LINE
  5
46
  8
1
 62
     7
 10
-271.1401847977167
 20
77.876984693099104
 30
0.0
 11
-260.40265562857201
 21
59.311854232393067
 31
0.0
  0
LINE
  5
47
  8
1
 62
     7
 10
-269.6679416112832
 20
78.726984693099084
 30
0.0
 11
-260.2163838619316
 21
62.356406460550957
 31
0.0
  0
LINE
  5
48
  8
1
 62
     7
 10
-268.19569842484958
 20
79.576984693099092
 30
0.0
 11
-260.2163838619316
 21
65.756406460550977
 31
0.0
  0
LINE
  5
49
  8
1
 62
     7
 10
206.5127834469871
 20
65.75640646055102
 30
0.0
 11
206.5127834469871
 21
77.0
 31
0.0
  0
LINE
  5
4A
  8
1
 62
     7
 10
217.22007803182601
 20
78.001984693099104
 30
0.0
 11
218.88612130088879
 21
80.887656282723938
 31
0.0
  0
LINE
  5
4B
  8
1
 62
     7
 10
216.96027041069081
 20
78.151984693099095
 30
0.0
 11
218.62631367975339
 21
81.037656282723944
 31
0.0
  0
LINE
  5
4C
  8
1
 62
     7
 10
216.18084754728471
 20
78.601984693099098
 30
0.0
 11
217.8468908163475
 21
81.487656282723947
 31
0.0
  0
LINE
  5
4D
  8
1
 62
     7
 10
216.44065516842011
 20
78.451984693099092
 30
0.0
 11
218.10669843748289
 21
81.337656282723941
 31
0.0
  0
LINE
  5
4E
  8
1
 62
     7
 10
217.4138781144552
 20
81.737656282723947
 30
0.0
 11
215.74783484539259
 21
78.851984693099084
 31
0.0
  0
LINE
  5
4F
  8
1
 62
     7
 10
217.15407049332001
 20
81.887656282723938
 30
0.0
 11
215.48802722425731
 21
79.001984693099104
 31
0.0
  0
LINE
  5
50
  8
1
 62
     7
 10
216.37464762991399
 20
82.337656282723941
 30
0.0
 11
214.7086043608513
 21
79.451984693099092
 31
0.0
  0
LINE
  5
51
  8
1
 62
     7
 10
216.63445525104919
 20
82.187656282723935
 30
0.0
 11
214.96841198198649
 21
79.301984693099101
 31
0.0
  0
LINE
  5
52
  8
1
 62
     7
 10
216.70046278955539
 20
78.301984693099101
 30
0.0
 11
218.3665060586182
 21
81.18765628272395
 31
0.0
  0
LINE
  5
53
  8
1
 62
     7
 10
216.89426287218461
 20
82.037656282723944
 30
0.0
 11
215.22821960312189
 21
79.151984693099095
 31
0.0
  0
LINE
  5
54
  8
1
 62
     7
 10
204.95222816843511
 20
59.653445430079017
 30
0.0
 11
215.96434119633861
 21
78.726984693099084
 31
0.0
  0
LINE
  5
55
  8
1
 62
     7
 10
206.78452884016909
 20
59.427083288264903
 30
0.0
 11
217.43658438277211
 21
77.876984693099104
 31
0.0
  0
LINE
  5
56
  8
1
 62
     7
 10
214.49209800990499
 20
79.576984693099092
 30
0.0
 11
217.43658438277211
 21
77.876984693099104
 31
0.0
  0
LINE
  5
57
  8
1
 62
     7
 10
203.08844222313749
 20
59.825273478390699
 30
0.0
 11
214.49209800990499
 21
79.576984693099092
 31
0.0
  0
LINE
  5
58
  8
1
 62
     7
 10
-137.27353995923889
 20
77.179357679222079
 30
0.0
 11
-137.27353995923889
 21
74.925730705376594
 31
0.0
  0
LINE
  5
59
  8
1
  6
DASHDOT
 62
     3
 10
94.600000000000023
 20
40.999999999999993
 30
0.0
 11
70.741269196903204
 21
40.999999999999993
 31
0.0
  0
LINE
  5
5A
  8
1
 62
     7
 10
0.0
 20
-20.0
 30
0.0
 11
69.999999999999986
 21
-20.0
 31
0.0
  0
LINE
  5
5B
  8
1
 62
     7
 10
0.0
 20
20.0
 30
0.0
 11
69.999999999999986
 21
20.0
 31
0.0
  0
LINE
  5
5C
  8
1
 62
     7
 10
0.0
 20
23.5
 30
0.0
 11
69.999999999999986
 21
23.5
 31
0.0
  0
LINE
  5
5D
  8
1
 62
     7
 10
1.0
 20
70.25
 30
0.0
 11
3.0000000000000129
 21
70.25
 31
0.0
  0
LINE
  5
5E
  8
1
  6
DASHDOT
 62
     3
 10
-0.389175936270675
 20
73.0
 30
0.0
 11
4.2931687914974068
 21
73.0
 31
0.0
  0
LINE
  5
5F
  8
1
 62
     7
 10
1.0
 20
75.75
 30
0.0
 11
3.0000000000000129
 21
75.75
 31
0.0
  0
LINE
  5
60
  8
1
 62
     7
 10
3.0000000000000129
 20
79.0
 30
0.0
 11
3.0000000000000129
 21
39.149999999999991
 31
0.0
  0
LINE
  5
61
  8
1
 62
     7
 10
1.0
 20
79.0
 30
0.0
 11
3.0000000000000129
 21
79.0
 31
0.0
  0
LINE
  5
62
  8
1
 62
     7
 10
1.0
 20
79.0
 30
0.0
 11
1.0
 21
44.999999999999993
 31
0.0
  0
LINE
  5
63
  8
1
 62
     7
 10
204.5127834469871
 20
79.0
 30
0.0
 11
192.5127834469871
 21
79.0
 31
0.0
  0
LINE
  5
64
  8
1
 62
     7
 10
190.5127834469871
 20
59.464274989273967
 30
0.0
 11
190.5127834469871
 21
77.0
 31
0.0
  0
LINE
  5
65
  8
1
 62
     7
 10
203.5127834469871
 20
23.5
 30
0.0
 11
203.5127834469871
 21
19.36491673103707
 31
0.0
  0
LINE
  5
66
  8
1
 62
     7
 10
193.5127834469871
 20
23.5
 30
0.0
 11
203.5127834469871
 21
23.5
 31
0.0
  0
LINE
  5
67
  8
1
 62
     7
 10
193.5127834469871
 20
19.36491673103707
 30
0.0
 11
193.5127834469871
 21
23.5
 31
0.0
  0
LINE
  5
68
  8
1
 62
     7
 10
58.5
 20
-32.79999999999999
 30
0.0
 11
58.5
 21
-53.699999999999989
 31
0.0
  0
LINE
  5
69
  8
1
 62
     7
 10
58.5
 20
-53.699999999999989
 30
0.0
 11
0.0
 21
-53.699999999999989
 31
0.0
  0
LINE
  5
6A
  8
1
 62
     7
 10
25.000000000000011
 20
-39.0
 30
0.0
 11
25.000000000000011
 21
-32.79999999999999
 31
0.0
  0
LINE
  5
6B
  8
1
 62
     7
 10
24.000000000000011
 20
-39.0
 30
0.0
 11
25.000000000000011
 21
-39.0
 31
0.0
  0
LINE
  5
6C
  8
1
 62
     7
 10
0.0
 20
-45.0
 30
0.0
 11
3.0000000000000129
 21
-45.0
 31
0.0
  0
LINE
  5
6D
  8
1
 62
     7
 10
60.0
 20
-32.0
 30
0.0
 11
24.000000000000011
 21
-32.0
 31
0.0
  0
LINE
  5
6E
  8
1
 62
     7
 10
58.5
 20
-32.79999999999999
 30
0.0
 11
25.000000000000011
 21
-32.79999999999999
 31
0.0
  0
LINE
  5
6F
  8
1
 62
     7
 10
60.0
 20
-54.5
 30
0.0
 11
60.0
 21
-32.0
 31
0.0
  0
LINE
  5
70
  8
1
 62
     7
 10
27.000000000000011
 20
-54.5
 30
0.0
 11
60.0
 21
-54.5
 31
0.0
  0
LINE
  5
71
  8
1
 62
     7
 10
27.000000000000011
 20
-57.5
 30
0.0
 11
27.000000000000011
 21
-54.5
 31
0.0
  0
LINE
  5
72
  8
1
 62
     7
 10
29.5
 20
-60.0
 30
0.0
 11
69.699999999999974
 21
-60.0
 31
0.0
  0
LINE
  5
73
  8
1
 62
     7
 10
69.699999999999974
 20
-54.0
 30
0.0
 11
69.699999999999974
 21
-60.0
 31
0.0
  0
LINE
  5
74
  8
1
 62
     7
 10
65.999999999999986
 20
-54.0
 30
0.0
 11
69.699999999999974
 21
-54.0
 31
0.0
  0
LINE
  5
75
  8
1
 62
     7
 10
65.999999999999986
 20
-45.0
 30
0.0
 11
65.999999999999986
 21
-54.0
 31
0.0
  0
LINE
  5
76
  8
1
 62
     7
 10
69.999999999999986
 20
-45.0
 30
0.0
 11
65.999999999999986
 21
-45.0
 31
0.0
  0
LINE
  5
77
  8
1
 62
     7
 10
0.0
 20
-27.5
 30
0.0
 11
4.0000000000000133
 21
-27.5
 31
0.0
  0
LINE
  5
78
  8
1
 62
     7
 10
27.000000000000011
 20
-57.5
 30
0.0
 11
29.5
 21
-60.0
 31
0.0
  0
LINE
  5
79
  8
1
 62
     7
 10
89.000000000000028
 20
-53.599999999999987
 30
0.0
 11
78.999999999999986
 21
-53.599999999999987
 31
0.0
  0
LINE
  5
7A
  8
1
 62
     7
 10
89.000000000000028
 20
-49.0
 30
0.0
 11
89.000000000000028
 21
-53.599999999999987
 31
0.0
  0
LINE
  5
7B
  8
1
 62
     7
 10
92.000000000000043
 20
-49.0
 30
0.0
 11
89.000000000000028
 21
-49.0
 31
0.0
  0
LINE
  5
7C
  8
1
 62
     7
 10
92.000000000000043
 20
-32.5
 30
0.0
 11
78.999999999999986
 21
-32.5
 31
0.0
  0
LINE
  5
7D
  8
1
 62
     7
 10
89.000000000000028
 20
-50.0
 30
0.0
 11
78.999999999999986
 21
-50.0
 31
0.0
  0
LINE
  5
7E
  8
1
 62
     7
 10
88.350000000000023
 20
-60.0
 30
0.0
 11
69.999999999999972
 21
-60.0
 31
0.0
  0
LINE
  5
7F
  8
1
 62
     7
 10
88.350000000000023
 20
-50.0
 30
0.0
 11
88.350000000000023
 21
-60.0
 31
0.0
  0
LINE
  5
80
  8
1
 62
     7
 10
82.499999999999986
 20
-55.0
 30
0.0
 11
78.999999999999986
 21
-55.0
 31
0.0
  0
LINE
  5
81
  8
1
 62
     7
 10
82.499999999999986
 20
-50.0
 30
0.0
 11
82.499999999999986
 21
-55.0
 31
0.0
  0
LINE
  5
82
  8
1
 62
     3
 10
68.149999999999991
 20
-54.0
 30
0.0
 11
68.149999999999991
 21
-60.0
 31
0.0
  0
LINE
  5
83
  8
1
 62
     7
 10
69.999999999999972
 20
-54.0
 30
0.0
 11
69.999999999999972
 21
-60.0
 31
0.0
  0
LINE
  5
84
  8
1
 62
     3
 10
71.499999999999986
 20
-54.0
 30
0.0
 11
71.499999999999986
 21
-60.0
 31
0.0
  0
LINE
  5
85
  8
1
 62
     7
 10
71.499999999999986
 20
-54.0
 30
0.0
 11
69.999999999999972
 21
-54.0
 31
0.0
  0
LINE
  5
86
  8
1
 62
     7
 10
78.999999999999986
 20
-25.5
 30
0.0
 11
71.499999999999986
 21
-25.5
 31
0.0
  0
LINE
  5
87
  8
1
 62
     7
 10
71.499999999999986
 20
25.5
 30
0.0
 11
78.999999999999986
 21
25.5
 31
0.0
  0
LINE
  5
88
  8
1
 62
     7
 10
69.999999999999972
 20
53.999999999999993
 30
0.0
 11
71.499999999999986
 21
53.999999999999993
 31
0.0
  0
LINE
  5
89
  8
1
 62
     3
 10
71.499999999999986
 20
60.0
 30
0.0
 11
71.499999999999986
 21
53.999999999999993
 31
0.0
  0
LINE
  5
8A
  8
1
 62
     7
 10
69.999999999999972
 20
60.0
 30
0.0
 11
69.999999999999972
 21
53.999999999999993
 31
0.0
  0
LINE
  5
8B
  8
1
 62
     3
 10
68.149999999999991
 20
60.0
 30
0.0
 11
68.149999999999991
 21
53.999999999999993
 31
0.0
  0
LINE
  5
8C
  8
1
 62
     7
 10
82.499999999999986
 20
55.0
 30
0.0
 11
82.499999999999986
 21
50.0
 31
0.0
  0
LINE
  5
8D
  8
1
 62
     7
 10
78.999999999999986
 20
55.0
 30
0.0
 11
82.499999999999986
 21
55.0
 31
0.0
  0
LINE
  5
8E
  8
1
 62
     7
 10
88.350000000000023
 20
60.0
 30
0.0
 11
88.350000000000023
 21
50.0
 31
0.0
  0
LINE
  5
8F
  8
1
 62
     7
 10
69.999999999999972
 20
60.0
 30
0.0
 11
88.350000000000023
 21
60.0
 31
0.0
  0
LINE
  5
90
  8
1
 62
     7
 10
78.999999999999986
 20
50.0
 30
0.0
 11
89.000000000000028
 21
50.0
 31
0.0
  0
LINE
  5
91
  8
1
 62
     7
 10
78.999999999999986
 20
32.499999999999993
 30
0.0
 11
92.000000000000043
 21
32.499999999999993
 31
0.0
  0
LINE
  5
92
  8
1
 62
     7
 10
92.000000000000043
 20
48.999999999999993
 30
0.0
 11
92.000000000000043
 21
-49.0
 31
0.0
  0
LINE
  5
93
  8
1
 62
     7
 10
89.000000000000028
 20
48.999999999999993
 30
0.0
 11
92.000000000000043
 21
48.999999999999993
 31
0.0
  0
LINE
  5
94
  8
1
 62
     7
 10
89.000000000000028
 20
53.59999999999998
 30
0.0
 11
89.000000000000028
 21
48.999999999999993
 31
0.0
  0
LINE
  5
95
  8
1
 62
     7
 10
78.999999999999986
 20
53.59999999999998
 30
0.0
 11
89.000000000000028
 21
53.59999999999998
 31
0.0
  0
LINE
  5
96
  8
1
 62
     7
 10
78.999999999999986
 20
-55.0
 30
0.0
 11
78.999999999999986
 21
55.0
 31
0.0
  0
LINE
  5
97
  8
1
 62
     3
 10
92.000000000000043
 20
0.0
 30
0.0
 11
96.265083616438403
 21
0.0
 31
0.0
  0
LINE
  5
98
  8
1
 62
     7
 10
29.5
 20
60.0
 30
0.0
 11
27.000000000000011
 21
57.5
 31
0.0
  0
LINE
  5
99
  8
1
 62
     7
 10
4.0000000000000133
 20
26.0
 30
0.0
 11
6.0000000000000133
 21
26.0
 31
0.0
  0
LINE
  5
9A
  8
1
 62
     7
 10
6.0000000000000133
 20
30.999999999999989
 30
0.0
 11
4.0000000000000133
 21
30.999999999999989
 31
0.0
  0
LINE
  5
9B
  8
1
 62
     7
 10
69.999999999999986
 20
44.999999999999993
 30
0.0
 11
69.999999999999986
 21
-45.0
 31
0.0
  0
LINE
  5
9C
  8
1
 62
     7
 10
65.999999999999986
 20
44.999999999999993
 30
0.0
 11
69.999999999999986
 21
44.999999999999993
 31
0.0
  0
LINE
  5
9D
  8
1
 62
     7
 10
65.999999999999986
 20
53.999999999999993
 30
0.0
 11
65.999999999999986
 21
44.999999999999993
 31
0.0
  0
LINE
  5
9E
  8
1
 62
     7
 10
69.699999999999974
 20
53.999999999999993
 30
0.0
 11
65.999999999999986
 21
53.999999999999993
 31
0.0
  0
LINE
  5
9F
  8
1
 62
     7
 10
69.699999999999974
 20
60.0
 30
0.0
 11
69.699999999999974
 21
53.999999999999993
 31
0.0
  0
LINE
  5
A0
  8
1
 62
     7
 10
69.699999999999974
 20
60.0
 30
0.0
 11
29.5
 21
60.0
 31
0.0
  0
LINE
  5
A1
  8
1
 62
     7
 10
27.000000000000011
 20
54.499999999999993
 30
0.0
 11
27.000000000000011
 21
57.5
 31
0.0
  0
LINE
  5
A2
  8
1
 62
     7
 10
60.0
 20
54.499999999999993
 30
0.0
 11
27.000000000000011
 21
54.499999999999993
 31
0.0
  0
LINE
  5
A3
  8
1
 62
     7
 10
60.0
 20
31.999999999999989
 30
0.0
 11
60.0
 21
54.499999999999993
 31
0.0
  0
LINE
  5
A4
  8
1
 62
     7
 10
24.000000000000011
 20
31.999999999999989
 30
0.0
 11
60.0
 21
31.999999999999989
 31
0.0
  0
LINE
  5
A5
  8
1
 62
     7
 10
3.0000000000000129
 20
39.149999999999991
 30
0.0
 11
6.0000000000000133
 21
39.149999999999991
 31
0.0
  0
LINE
  5
A6
  8
1
 62
     7
 10
6.0000000000000133
 20
46.749999999999993
 30
0.0
 11
3.0000000000000129
 21
46.749999999999993
 31
0.0
  0
LINE
  5
A7
  8
1
 62
     7
 10
25.000000000000011
 20
38.999999999999993
 30
0.0
 11
24.000000000000011
 21
38.999999999999993
 31
0.0
  0
LINE
  5
A8
  8
1
 62
     7
 10
25.000000000000011
 20
32.799999999999983
 30
0.0
 11
25.000000000000011
 21
38.999999999999993
 31
0.0
  0
LINE
  5
A9
  8
1
 62
     7
 10
58.5
 20
53.699999999999989
 30
0.0
 11
58.5
 21
32.79999999999999
 31
0.0
  0
LINE
  5
AA
  8
1
 62
     7
 10
58.5
 20
32.79999999999999
 30
0.0
 11
25.000000000000011
 21
32.799999999999983
 31
0.0
  0
LINE
  5
AB
  8
1
 62
     7
 10
71.499999999999986
 20
-54.0
 30
0.0
 11
71.499999999999986
 21
53.999999999999993
 31
0.0
  0
LINE
  5
AC
  8
1
 62
     7
 10
4.150000000000019
 20
74.925730705376594
 30
0.0
 11
4.150000000000019
 21
53.699999999999989
 31
0.0
  0
LINE
  5
AD
  8
1
 62
     7
 10
5.8500000000000076
 20
53.699999999999989
 30
0.0
 11
5.8500000000000076
 21
74.925730705376594
 31
0.0
  0
LINE
  5
AE
  8
1
 62
     7
 10
4.150000000000019
 20
74.925730705376594
 30
0.0
 11
5.8500000000000076
 21
74.925730705376594
 31
0.0
  0
LINE
  5
AF
  8
1
 62
     7
 10
4.4500000000001174
 20
77.179357679222079
 30
0.0
 11
4.4500000000001174
 21
74.925730705376594
 31
0.0
  0
LINE
  5
B0
  8
1
 62
     7
 10
4.7500000000001128
 20
77.179357679222079
 30
0.0
 11
4.7500000000001128
 21
74.925730705376594
 31
0.0
  0
LINE
  5
B1
  8
1
 62
     7
 10
5.2500000000000133
 20
77.179357679222079
 30
0.0
 11
5.2500000000000133
 21
74.925730705376594
 31
0.0
  0
LINE
  5
B2
  8
1
 62
     7
 10
5.5500000000000123
 20
77.179357679222079
 30
0.0
 11
5.5500000000000123
 21
74.925730705376594
 31
0.0
  0
LINE
  5
B3
  8
1
 62
     7
 10
3.0000000000000129
 20
44.999999999999993
 30
0.0
 11
0.0
 21
44.999999999999993
 31
0.0
  0
LINE
  5
B4
  8
1
 62
     7
 10
4.0000000000000133
 20
27.499999999999989
 30
0.0
 11
0.0
 21
27.499999999999989
 31
0.0
  0
LINE
  5
B5
  8
1
 62
     7
 10
12.375
 20
31.703366630131679
 30
0.0
 11
6.0000000000000133
 21
31.703366630131679
 31
0.0
  0
LINE
  5
B6
  8
1
 62
     7
 10
17.625000000000011
 20
31.703366630131679
 30
0.0
 11
24.000000000000011
 21
31.703366630131679
 31
0.0
  0
LINE
  5
B7
  8
1
 62
     7
 10
17.625000000000011
 20
40.796633369868289
 30
0.0
 11
24.000000000000011
 21
40.796633369868289
 31
0.0
  0
LINE
  5
B8
  8
1
 62
     7
 10
12.375
 20
40.796633369868289
 30
0.0
 11
6.0000000000000133
 21
40.796633369868289
 31
0.0
  0
LINE
  5
B9
  8
1
 62
     7
 10
7.80000000000011
 20
41.499999999999993
 30
0.0
 11
7.80000000000011
 21
30.999999999999989
 31
0.0
  0
LINE
  5
BA
  8
1
 62
     7
 10
22.20000000000001
 20
41.499999999999993
 30
0.0
 11
22.20000000000001
 21
30.999999999999989
 31
0.0
  0
LINE
  5
BB
  8
1
 62
     7
 10
6.0000000000000133
 20
-26.0
 30
0.0
 11
4.0000000000000133
 21
-26.0
 31
0.0
  0
LINE
  5
BC
  8
1
 62
     7
 10
4.0000000000000133
 20
-26.0
 30
0.0
 11
4.0000000000000133
 21
-31.0
 31
0.0
  0
LINE
  5
BD
  8
1
 62
     7
 10
4.0000000000000133
 20
-31.0
 30
0.0
 11
6.0000000000000133
 21
-31.0
 31
0.0
  0
LINE
  5
BE
  8
1
 62
     7
 10
6.0000000000000133
 20
-39.149999999999991
 30
0.0
 11
3.0000000000000129
 21
-39.149999999999991
 31
0.0
  0
LINE
  5
BF
  8
1
 62
     7
 10
6.0000000000000133
 20
-31.70336663013169
 30
0.0
 11
12.375
 21
-31.70336663013169
 31
0.0
  0
LINE
  5
C0
  8
1
 62
     7
 10
24.000000000000011
 20
-31.70336663013169
 30
0.0
 11
17.625000000000011
 21
-31.70336663013169
 31
0.0
  0
LINE
  5
C1
  8
1
 62
     7
 10
24.000000000000011
 20
-40.796633369868289
 30
0.0
 11
17.625000000000011
 21
-40.796633369868289
 31
0.0
  0
LINE
  5
C2
  8
1
 62
     7
 10
6.0000000000000133
 20
-40.796633369868289
 30
0.0
 11
12.375
 21
-40.796633369868289
 31
0.0
  0
LINE
  5
C3
  8
1
 62
     7
 10
24.000000000000011
 20
-27.5
 30
0.0
 11
6.0000000000000133
 21
-27.5
 31
0.0
  0
LINE
  5
C4
  8
1
 62
     7
 10
6.0000000000000133
 20
-45.0
 30
0.0
 11
24.000000000000011
 21
-45.0
 31
0.0
  0
LINE
  5
C5
  8
1
 62
     7
 10
7.80000000000011
 20
-31.0
 30
0.0
 11
7.80000000000011
 21
-41.5
 31
0.0
  0
LINE
  5
C6
  8
1
 62
     7
 10
22.20000000000001
 20
-31.0
 30
0.0
 11
22.20000000000001
 21
-41.5
 31
0.0
  0
LINE
  5
C7
  8
1
 62
     7
 10
3.0000000000000129
 20
-39.149999999999991
 30
0.0
 11
3.0000000000000129
 21
-46.749999999999993
 31
0.0
  0
LINE
  5
C8
  8
1
 62
     7
 10
6.0000000000000133
 20
-46.749999999999993
 30
0.0
 11
6.0000000000000133
 21
-26.0
 31
0.0
  0
LINE
  5
C9
  8
1
 62
     7
 10
3.0000000000000129
 20
-46.749999999999993
 30
0.0
 11
6.0000000000000133
 21
-46.749999999999993
 31
0.0
  0
LINE
  5
CA
  8
1
  6
DASHDOT
 62
     3
 10
202.553587159047
 20
73.0
 30
0.0
 11
194.47197973492729
 21
73.0
 31
0.0
  0
LINE
  5
CB
  8
1
  6
DASHDOT
 62
     3
 10
198.5127834469871
 20
77.04080371205994
 30
0.0
 11
198.5127834469871
 21
68.959196287940074
 31
0.0
  0
LINE
  5
CC
  8
1
  6
DASHDOT
 62
     3
 10
205.20444578575541
 20
0.0
 30
0.0
 11
191.8211211082189
 21
0.0
 31
0.0
  0
LINE
  5
CD
  8
1
  6
DASHDOT
 62
     3
 10
198.5127834469871
 20
6.6916623387683094
 30
0.0
 11
198.5127834469871
 21
-6.6916623387683094
 31
0.0
  0
LINE
  5
CE
  8
1
  6
DASHDOT
 62
     3
 10
198.5127834469871
 20
48.329735141188003
 30
0.0
 11
198.5127834469871
 21
33.599675323737102
 31
0.0
  0
LINE
  5
CF
  8
1
 62
     3
 10
0.0
 20
0.0
 30
0.0
 11
-3.932986568667673
 21
0.0
 31
0.0
  0
LINE
  5
D0
  8
1
 62
     7
 10
-139.27353995923889
 20
79.0
 30
0.0
 11
-139.27353995923889
 21
53.699999999999989
 31
0.0
  0
LINE
  5
D1
  8
1
 62
     7
 10
-141.27353995923889
 20
79.0
 30
0.0
 11
-139.27353995923889
 21
79.0
 31
0.0
  0
LINE
  5
D2
  8
1
 62
     7
 10
-141.27353995923889
 20
79.0
 30
0.0
 11
-141.27353995923889
 21
53.699999999999989
 31
0.0
  0
LINE
  5
D3
  8
1
 62
     7
 10
-115.2735399592387
 20
-57.5
 30
0.0
 11
-115.2735399592387
 21
57.5
 31
0.0
  0
LINE
  5
D4
  8
1
 62
     7
 10
-112.7735399592387
 20
-60.0
 30
0.0
 11
-72.573539959238914
 21
-60.0
 31
0.0
  0
LINE
  5
D5
  8
1
 62
     7
 10
-72.573539959238914
 20
60.0
 30
0.0
 11
-72.573539959238914
 21
-60.0
 31
0.0
  0
LINE
  5
D6
  8
1
 62
     7
 10
-115.2735399592387
 20
-57.5
 30
0.0
 11
-112.7735399592387
 21
-60.0
 31
0.0
  0
LINE
  5
D7
  8
1
 62
     7
 10
-53.273539959238782
 20
-53.599999999999987
 30
0.0
 11
-53.273539959238782
 21
53.59999999999998
 31
0.0
  0
LINE
  5
D8
  8
1
 62
     7
 10
-50.273539959238782
 20
-49.0
 30
0.0
 11
-53.273539959238782
 21
-49.0
 31
0.0
  0
LINE
  5
D9
  8
1
 62
     7
 10
-53.923539959238767
 20
-60.0
 30
0.0
 11
-72.273539959238775
 21
-60.0
 31
0.0
  0
LINE
  5
DA
  8
1
 62
     3
 10
-70.723539959238906
 20
60.0
 30
0.0
 11
-70.723539959238906
 21
-60.0
 31
0.0
  0
LINE
  5
DB
  8
1
 62
     7
 10
-72.273539959238775
 20
60.0
 30
0.0
 11
-72.273539959238775
 21
-60.0
 31
0.0
  0
LINE
  5
DC
  8
1
 62
     3
 10
-74.123539959238769
 20
60.0
 30
0.0
 11
-74.123539959238769
 21
-60.0
 31
0.0
  0
LINE
  5
DD
  8
1
 62
     7
 10
-72.273539959238775
 20
60.0
 30
0.0
 11
-53.923539959238767
 21
60.0
 31
0.0
  0
LINE
  5
DE
  8
1
 62
     7
 10
-50.273539959238782
 20
48.999999999999993
 30
0.0
 11
-50.273539959238782
 21
-49.0
 31
0.0
  0
LINE
  5
DF
  8
1
 62
     7
 10
-53.273539959238782
 20
48.999999999999993
 30
0.0
 11
-50.273539959238782
 21
48.999999999999993
 31
0.0
  0
LINE
  5
E0
  8
1
 62
     3
 10
-50.273539959238782
 20
0.0
 30
0.0
 11
-46.0084563428004
 21
0.0
 31
0.0
  0
LINE
  5
E1
  8
1
 62
     7
 10
-112.7735399592387
 20
60.0
 30
0.0
 11
-115.2735399592387
 21
57.5
 31
0.0
  0
LINE
  5
E2
  8
1
 62
     7
 10
-142.27353995923889
 20
53.699999999999989
 30
0.0
 11
-142.27353995923889
 21
-53.699999999999989
 31
0.0
  0
LINE
  5
E3
  8
1
 62
     7
 10
-72.573539959238914
 20
60.0
 30
0.0
 11
-112.7735399592387
 21
60.0
 31
0.0
  0
LINE
  5
E4
  8
1
 62
     7
 10
-138.12353995923891
 20
74.925730705376594
 30
0.0
 11
-138.12353995923891
 21
53.699999999999989
 31
0.0
  0
LINE
  5
E5
  8
1
 62
     7
 10
-136.42353995923889
 20
53.699999999999989
 30
0.0
 11
-136.42353995923889
 21
74.925730705376594
 31
0.0
  0
LINE
  5
E6
  8
1
 62
     7
 10
-138.12353995923891
 20
74.925730705376594
 30
0.0
 11
-136.42353995923889
 21
74.925730705376594
 31
0.0
  0
LINE
  5
E7
  8
1
 62
     7
 10
-137.8235399592387
 20
77.179357679222079
 30
0.0
 11
-137.8235399592387
 21
74.925730705376594
 31
0.0
  0
LINE
  5
E8
  8
1
 62
     7
 10
-137.5235399592388
 20
77.179357679222079
 30
0.0
 11
-137.5235399592388
 21
74.925730705376594
 31
0.0
  0
LINE
  5
E9
  8
1
 62
     7
 10
-137.0235399592388
 20
77.179357679222079
 30
0.0
 11
-137.0235399592388
 21
74.925730705376594
 31
0.0
  0
LINE
  5
EA
  8
1
 62
     7
 10
-136.72353995923879
 20
77.179357679222079
 30
0.0
 11
-136.72353995923879
 21
74.925730705376594
 31
0.0
  0
LINE
  5
EB
  8
1
 62
     3
 10
-142.27353995923889
 20
0.0
 30
0.0
 11
-146.2065265279065
 21
0.0
 31
0.0
  0
LINE
  5
EC
  8
1
 62
     7
 10
-53.273539959238782
 20
53.59999999999998
 30
0.0
 11
-53.923539959238767
 21
53.59999999999998
 31
0.0
  0
LINE
  5
ED
  8
1
 62
     7
 10
-53.273539959238782
 20
-53.599999999999987
 30
0.0
 11
-53.923539959238767
 21
-53.599999999999987
 31
0.0
  0
LINE
  5
EE
  8
1
 62
     7
 10
-53.923539959238767
 20
60.0
 30
0.0
 11
-53.923539959238767
 21
-60.0
 31
0.0
  0
LINE
  5
EF
  8
1
 62
     7
 10
-112.7735399592387
 20
60.0
 30
0.0
 11
-112.7735399592387
 21
-60.0
 31
0.0
  0
LINE
  5
F0
  8
1
 62
     7
 10
-115.2735399592387
 20
-53.699999999999989
 30
0.0
 11
-142.27353995923889
 21
-53.699999999999989
 31
0.0
  0
LINE
  5
F1
  8
1
 62
     7
 10
-246.2163838619316
 20
79.0
 30
0.0
 11
-258.2163838619316
 21
79.0
 31
0.0
  0
LINE
  5
F2
  8
1
 62
     7
 10
-260.2163838619316
 20
77.0
 30
0.0
 11
-260.2163838619316
 21
60.154700538379252
 31
0.0
  0
LINE
  5
F3
  8
1
 62
     7
 10
-247.2163838619316
 20
23.5
 30
0.0
 11
-247.2163838619316
 21
19.36491673103707
 31
0.0
  0
LINE
  5
F4
  8
1
 62
     7
 10
-257.2163838619316
 20
23.5
 30
0.0
 11
-247.2163838619316
 21
23.5
 31
0.0
  0
LINE
  5
F5
  8
1
 62
     7
 10
-257.2163838619316
 20
19.36491673103707
 30
0.0
 11
-257.2163838619316
 21
23.5
 31
0.0
  0
LINE
  5
F6
  8
1
  6
DASHDOT
 62
     3
 10
-248.17558014987159
 20
73.0
 30
0.0
 11
-256.25718757399147
 21
73.0
 31
0.0
  0
LINE
  5
F7
  8
1
  6
DASHDOT
 62
     3
 10
-252.21638386193169
 20
77.04080371205994
 30
0.0
 11
-252.21638386193169
 21
68.959196287940074
 31
0.0
  0
LINE
  5
F8
  8
1
  6
DASHDOT
 62
     3
 10
-245.52472152316341
 20
0.0
 30
0.0
 11
-258.90804620069991
 21
0.0
 31
0.0
  0
LINE
  5
F9
  8
1
  6
DASHDOT
 62
     3
 10
-252.21638386193169
 20
6.6916623387683094
 30
0.0
 11
-252.21638386193169
 21
-6.6916623387683094
 31
0.0
  0
LINE
  5
FA
  8
1
 62
     7
 10
-267.2163838619316
 20
51.562486363634569
 30
0.0
 11
-267.2163838619316
 21
42.426406871192853
 31
0.0
  0
LINE
  5
FB
  8
1
 62
     7
 10
-237.21638386193169
 20
42.426406871192853
 30
0.0
 11
-237.21638386193169
 21
51.562486363634569
 31
0.0
  0
LINE
  5
FC
  8
1
 62
     7
 10
-264.2163838619316
 20
45.0
 30
0.0
 11
-240.2163838619316
 21
45.0
 31
0.0
  0
LINE
  5
FD
  8
1
 62
     7
 10
-266.2163838619316
 20
47.0
 30
0.0
 11
-266.2163838619316
 21
54.381197846482991
 31
0.0
  0
LINE
  5
FE
  8
1
 62
     7
 10
-265.2163838619316
 20
56.113248654051873
 30
0.0
 11
-261.2163838619316
 21
58.422649730810377
 31
0.0
  0
LINE
  5
FF
  8
1
 62
     7
 10
-238.2163838619316
 20
47.0
 30
0.0
 11
-238.2163838619316
 21
54.381197846482991
 31
0.0
  0
LINE
  5
100
  8
1
 62
     7
 10
-239.21638386193169
 20
56.113248654051873
 30
0.0
 11
-243.2163838619316
 21
58.422649730810377
 31
0.0
  0
LINE
  5
101
  8
1
 62
     7
 10
-244.2163838619316
 20
60.154700538379252
 30
0.0
 11
-244.2163838619316
 21
77.0
 31
0.0
  0
LINE
  5
102
  8
1
 62
     7
 10
-243.88638386193159
 20
52.200000000000003
 30
0.0
 11
-244.54638386193159
 21
52.200000000000003
 31
0.0
  0
LINE
  5
103
  8
1
 62
     7
 10
-246.41638386193159
 20
50.329999999999998
 30
0.0
 11
-246.41638386193159
 21
49.670000000000002
 31
0.0
  0
LINE
  5
104
  8
1
 62
     7
 10
-244.54638386193159
 20
47.799999999999997
 30
0.0
 11
-243.88638386193159
 21
47.799999999999997
 31
0.0
  0
LINE
  5
105
  8
1
 62
     7
 10
-242.0163838619317
 20
49.670000000000002
 30
0.0
 11
-242.0163838619317
 21
50.329999999999998
 31
0.0
  0
LINE
  5
106
  8
1
 62
     7
 10
-260.54638386193159
 20
47.799999999999997
 30
0.0
 11
-259.88638386193162
 21
47.799999999999997
 31
0.0
  0
LINE
  5
107
  8
1
 62
     7
 10
-258.01638386193162
 20
49.670000000000002
 30
0.0
 11
-258.01638386193162
 21
50.329999999999998
 31
0.0
  0
LINE
  5
108
  8
1
 62
     7
 10
-259.88638386193162
 20
52.200000000000003
 30
0.0
 11
-260.54638386193159
 21
52.200000000000003
 31
0.0
  0
LINE
  5
109
  8
1
 62
     7
 10
-262.41638386193159
 20
50.329999999999998
 30
0.0
 11
-262.41638386193159
 21
49.670000000000002
 31
0.0
  0
LINE
  5
10A
  8
1
  6
DASHDOT
 62
     3
 10
156.65800505654479
 20
24.164867570594001
 30
0.0
 11
169.4146110577216
 21
16.799837661868551
 31
0.0
  0
LINE
  5
10B
  8
1
  6
DASHDOT
 62
     3
 10
156.65800505654479
 20
-24.164867570594001
 30
0.0
 11
169.4146110577216
 21
-16.799837661868551
 31
0.0
  0
LINE
  5
10C
  8
1
  6
DASHDOT
 62
     3
 10
198.5127834469871
 20
-48.329735141188003
 30
0.0
 11
198.5127834469871
 21
-33.599675323737102
 31
0.0
  0
LINE
  5
10D
  8
1
  6
DASHDOT
 62
     3
 10
240.36756183742949
 20
-24.164867570594001
 30
0.0
 11
227.6109558362526
 21
-16.799837661868551
 31
0.0
  0
LINE
  5
10E
  8
1
  6
DASHDOT
 62
     3
 10
240.36756183742949
 20
24.164867570594001
 30
0.0
 11
227.6109558362526
 21
16.799837661868569
 31
0.0
  0
LINE
  5
10F
  8
1
  6
DASHDOT
 62
     3
 10
152.23624316284781
 20
0.0
 30
0.0
 11
162.86091549529161
 21
0.0
 31
0.0
  0
LINE
  5
110
  8
1
  6
DASHDOT
 62
     3
 10
234.16465139868279
 20
0.0
 30
0.0
 11
244.7893237311265
 21
0.0
 31
0.0
  0
LINE
  5
111
  8
1
 62
     7
 10
71.499999999999986
 20
47.499999999999993
 30
0.0
 11
84.000000000000028
 21
47.499999999999993
 31
0.0
  0
LINE
  5
112
  8
1
 62
     7
 10
84.000000000000028
 20
47.499999999999993
 30
0.0
 11
84.000000000000028
 21
34.499999999999993
 31
0.0
  0
LINE
  5
113
  8
1
 62
     7
 10
84.000000000000028
 20
34.499999999999993
 30
0.0
 11
71.499999999999986
 21
34.499999999999993
 31
0.0
  0
LINE
  5
114
  8
1
 62
     7
 10
84.000000000000028
 20
44.249999999999993
 30
0.0
 11
92.000000000000043
 21
44.249999999999993
 31
0.0
  0
LINE
  5
115
  8
1
 62
     7
 10
84.000000000000028
 20
37.749999999999993
 30
0.0
 11
92.000000000000043
 21
37.749999999999993
 31
0.0
  0
LINE
  5
116
  8
1
 62
     7
 10
0.0
 20
-53.699999999999989
 30
0.0
 11
0.0
 21
53.699999999999989
 31
0.0
  0
LINE
  5
117
  8
1
 62
     7
 10
0.0
 20
53.699999999999989
 30
0.0
 11
1.0
 21
53.699999999999989
 31
0.0
  0
LINE
  5
118
  8
1
 62
     7
 10
3.0000000000000129
 20
53.699999999999989
 30
0.0
 11
58.5
 21
53.699999999999989
 31
0.0
  0
ARC
  5
119
  8
1
 62
     7
 10
192.5127834469871
 20
77.0
 30
0.0
 40
2.0
 50
90.0
 51
180.0
  0
ARC
  5
11A
  8
1
 62
     7
 10
204.5127834469871
 20
77.0
 30
0.0
 40
2.0
 50
0.0
 51
90.0
  0
ARC
  5
11B
  8
1
 62
     7
 10
-258.2163838619316
 20
77.0
 30
0.0
 40
2.0
 50
90.0
 51
180.0
  0
ARC
  5
11C
  8
1
 62
     7
 10
-246.2163838619316
 20
77.0
 30
0.0
 40
2.0
 50
0.0
 51
90.0
  0
ARC
  5
11D
  8
1
 62
     7
 10
-264.2163838619316
 20
54.381197846482991
 30
0.0
 40
2.0000000000000031
 50
119.9999999999999
 51
180.0
  0
ARC
  5
11E
  8
1
 62
     7
 10
-262.2163838619316
 20
60.154700538379252
 30
0.0
 40
1.999999999999998
 50
300.00000000000011
 51
0.0
  0
ARC
  5
11F
  8
1
 62
     7
 10
-242.2163838619316
 20
60.154700538379252
 30
0.0
 40
2.0
 50
180.0
 51
239.99999999999989
  0
ARC
  5
120
  8
1
 62
     7
 10
-240.2163838619316
 20
54.381197846482991
 30
0.0
 40
2.0
 50
0.0
 51
60.000000000000057
  0
ARC
  5
121
  8
1
 62
     7
 10
-264.2163838619316
 20
47.0
 30
0.0
 40
2.0
 50
180.0
 51
270.0
  0
ARC
  5
122
  8
1
 62
     7
 10
-240.2163838619316
 20
47.0
 30
0.0
 40
2.0
 50
270.0
 51
0.0
  0
ARC
  5
123
  8
1
 62
     7
 10
-252.21638386193169
 20
0.0
 30
0.0
 40
60.0
 50
97.907371002760215
 51
82.212942468794054
  0
ARC
  5
124
  8
1
 62
     7
 10
198.5127834469871
 20
0.0
 30
0.0
 40
19.999999999999989
 50
104.4775121859299
 51
75.522487814070075
  0
ARC
  5
125
  8
1
 62
     7
 10
-252.21638386193169
 20
0.0
 30
0.0
 40
20.0
 50
104.47751218593
 51
75.522487814070075
  0
ARC
  5
126
  8
1
 62
     7
 10
-252.21638386193169
 20
0.0
 30
0.0
 40
53.70000000000001
 50
105.11205483572451
 51
74.887945164275493
  0
ARC
  5
127
  8
1
 62
     7
 10
-242.0163838619317
 20
52.200000000000003
 30
0.0
 40
1.8700000000000041
 50
180.0
 51
270.0
  0
ARC
  5
128
  8
1
 62
     7
 10
-246.41638386193159
 20
52.200000000000003
 30
0.0
 40
1.8700000000000041
 50
270.0
 51
0.0
  0
ARC
  5
129
  8
1
 62
     7
 10
-246.41638386193159
 20
47.799999999999997
 30
0.0
 40
1.8700000000000041
 50
0.0
 51
90.0
  0
ARC
  5
12A
  8
1
 62
     7
 10
-242.0163838619317
 20
47.799999999999997
 30
0.0
 40
1.8700000000000041
 50
90.0
 51
180.0
  0
ARC
  5
12B
  8
1
 62
     7
 10
-262.41638386193159
 20
47.799999999999997
 30
0.0
 40
1.8700000000000041
 50
0.0
 51
90.0
  0
ARC
  5
12C
  8
1
 62
     7
 10
-258.01638386193162
 20
47.799999999999997
 30
0.0
 40
1.8700000000000041
 50
90.0
 51
180.0
  0
ARC
  5
12D
  8
1
 62
     7
 10
-258.01638386193162
 20
52.200000000000003
 30
0.0
 40
1.8700000000000041
 50
180.0
 51
270.0
  0
ARC
  5
12E
  8
1
 62
     7
 10
-262.41638386193159
 20
52.200000000000003
 30
0.0
 40
1.8700000000000041
 50
270.0
 51
0.0
  0
ARC
  5
12F
  8
1
  6
DASHDOT
 62
     3
 10
198.5127834469871
 20
0.0
 30
0.0
 40
41.000000000000043
 50
139.2777808622368
 51
162.83097538094731
  0
ARC
  5
130
  8
1
  6
DASHDOT
 62
     3
 10
198.5127834469871
 20
0.0
 30
0.0
 40
41.0
 50
171.54251192370941
 51
187.7031577509519
  0
ARC
  5
131
  8
1
  6
DASHDOT
 62
     3
 10
198.5127834469871
 20
0.0
 30
0.0
 40
41.0
 50
78.222854235045702
 51
101.91897297460829
  0
ARC
  5
132
  8
1
  6
DASHDOT
 62
     3
 10
198.5127834469871
 20
0.0
 30
0.0
 40
40.999999999999993
 50
18.754694156284572
 51
40.680451050941592
  0
ARC
  5
133
  8
1
  6
DASHDOT
 62
     3
 10
198.5127834469871
 20
0.0
 30
0.0
 40
41.0
 50
352.3965811963846
 51
6.9411261315736317
  0
ARC
  5
134
  8
1
  6
DASHDOT
 62
     3
 10
198.5127834469871
 20
0.0
 30
0.0
 40
40.999999999999972
 50
319.54438324742671
 51
341.60027609298533
  0
ARC
  5
135
  8
1
  6
DASHDOT
 62
     3
 10
198.5127834469871
 20
0.0
 30
0.0
 40
40.999999999999993
 50
258.76237494471837
 51
281.36564824807652
  0
ARC
  5
136
  8
1
  6
DASHDOT
 62
     3
 10
198.5127834469871
 20
0.0
 30
0.0
 40
40.999999999999957
 50
199.13919557118359
 51
220.7621885594528
  0
CIRCLE
  5
137
  8
1
 62
     7
 10
198.5127834469871
 20
73.0
 30
0.0
 40
2.75
  0
CIRCLE
  5
138
  8
1
 62
     7
 10
172.158491449839
 20
-31.407822167878081
 30
0.0
 40
5.4999999999999147
  0
CIRCLE
  5
139
  8
1
 62
     7
 10
172.158491449839
 20
-31.407822167878081
 30
0.0
 40
5.9999999999999147
  0
CIRCLE
  5
13A
  8
1
 62
     7
 10
224.86707544413531
 20
-31.407822167878081
 30
0.0
 40
6.0000000000000844
  0
CIRCLE
  5
13B
  8
1
 62
     7
 10
224.86707544413531
 20
-31.407822167878081
 30
0.0
 40
5.5
  0
CIRCLE
  5
13C
  8
1
 62
     7
 10
172.158491449839
 20
31.407822167878081
 30
0.0
 40
5.4999999999999147
  0
CIRCLE
  5
13D
  8
1
 62
     7
 10
172.158491449839
 20
31.407822167878081
 30
0.0
 40
5.9999999999999147
  0
CIRCLE
  5
13E
  8
1
 62
     7
 10
224.86707544413531
 20
31.407822167878081
 30
0.0
 40
6.0000000000000844
  0
CIRCLE
  5
13F
  8
1
 62
     7
 10
224.86707544413531
 20
31.407822167878081
 30
0.0
 40
5.5
  0
CIRCLE
  5
140
  8
1
 62
     7
 10
198.5127834469871
 20
0.0
 30
0.0
 40
53.599999999999987
  0
CIRCLE
  5
141
  8
1
 62
     7
 10
198.5127834469871
 20
0.0
 30
0.0
 40
25.5
  0
CIRCLE
  5
142
  8
1
 62
     7
 10
198.5127834469871
 20
0.0
 30
0.0
 40
32.5
  0
CIRCLE
  5
143
  8
1
 62
     7
 10
198.5127834469871
 20
0.0
 30
0.0
 40
49.0
  0
CIRCLE
  5
144
  8
1
 62
     7
 10
198.5127834469871
 20
0.0
 30
0.0
 40
60.0
  0
CIRCLE
  5
145
  8
1
 62
     7
 10
15.0
 20
36.249999999999993
 30
0.0
 40
5.25
  0
CIRCLE
  5
146
  8
1
 62
     7
 10
15.0
 20
-36.25
 30
0.0
 40
5.25
  0
CIRCLE
  5
147
  8
1
 62
     7
 10
-252.21638386193169
 20
73.0
 30
0.0
 40
2.75
  0
CIRCLE
  5
148
  8
1
 62
     7
 10
-252.21638386193169
 20
0.0
 30
0.0
 40
27.5
  0
CIRCLE
  5
149
  8
1
 62
     7
 10
-252.21638386193169
 20
0.0
 30
0.0
 40
45.0
  0
CIRCLE
  5
14A
  8
1
 62
     7
 10
-244.2163838619316
 20
50.0
 30
0.0
 40
4.0
  0
CIRCLE
  5
14B
  8
1
 62
     7
 10
-260.2163838619316
 20
50.0
 30
0.0
 40
4.0
  0
CIRCLE
  5
14C
  8
1
  6
DASHED
 62
     7
 10
198.5127834469871
 20
40.999999999999993
 30
0.0
 40
6.5
  0
CIRCLE
  5
14D
  8
1
 62
     7
 10
198.5127834469871
 20
40.999999999999993
 30
0.0
 40
3.25
  0
CIRCLE
  5
14E
  8
1
 62
     7
 10
163.0057418918251
 20
20.499999999999979
 30
0.0
 40
3.25
  0
CIRCLE
  5
14F
  8
1
 62
     7
 10
163.0057418918251
 20
-20.499999999999979
 30
0.0
 40
3.25
  0
CIRCLE
  5
150
  8
1
 62
     7
 10
198.5127834469871
 20
-41.0
 30
0.0
 40
3.25
  0
CIRCLE
  5
151
  8
1
 62
     7
 10
234.0198250021491
 20
-20.5
 30
0.0
 40
3.25
  0
CIRCLE
  5
152
  8
1
 62
     7
 10
234.0198250021491
 20
20.5
 30
0.0
 40
3.25
  0
CIRCLE
  5
153
  8
1
  6
DASHED
 62
     7
 10
163.0057418918251
 20
20.499999999999979
 30
0.0
 40
6.5
  0
CIRCLE
  5
154
  8
1
  6
DASHED
 62
     7
 10
163.0057418918251
 20
-20.499999999999979
 30
0.0
 40
6.5
  0
CIRCLE
  5
155
  8
1
  6
DASHED
 62
     7
 10
198.5127834469871
 20
-41.0
 30
0.0
 40
6.5
  0
CIRCLE
  5
156
  8
1
  6
DASHED
 62
     7
 10
234.0198250021491
 20
-20.5
 30
0.0
 40
6.4999999999999147
  0
CIRCLE
  5
157
  8
1
  6
DASHED
 62
     7
 10
234.0198250021491
 20
20.5
 30
0.0
 40
6.5
  0
CIRCLE
  5
158
  8
1
 62
     7
 10
157.5127834469871
 20
0.0
 30
0.0
 40
3.8999999999999759
  0
CIRCLE
  5
159
  8
1
 62
     7
 10
239.5127834469871
 20
0.0
 30
0.0
 40
3.8999999999999759
  0
TEXT
  5
15B
  8
1
 62
     7
 10
-267.03558476877498
 20
119.9557504800792
 30
0.0
 40
7.0
  1
MZ 25
 41
0.9
  7
SIMPLEX
  0
ENDSEC
  0
EOF
