  0
SECTION
  2
HEADER
  9
$ACADVER
  1
AC1009
  9
$INSBASE
 10
0.0
 20
0.0
 30
0.0
  9
$EXTMIN
 10
-625.55081677480825
 20
-118.5
 30
0.0
  9
$EXTMAX
 10
492.4740531088118
 20
242.10474534691491
 30
0.0
  9
$LIMMIN
 10
-625.55081677480837
 20
-118.5
  9
$LIMMAX
 10
492.4740531088118
 20
242.1047453469148
  9
$ORTHOMODE
 70
     0
  9
$REGENMODE
 70
     1
  9
$FILLMODE
 70
     1
  9
$QTEXTMODE
 70
     0
  9
$MIRRTEXT
 70
     1
  9
$DRAGMODE
 70
     2
  9
$LTSCALE
 40
1.0
  9
$OSMODE
 70
    37
  9
$ATTMODE
 70
     1
  9
$TEXTSIZE
 40
3.5
  9
$TRACEWID
 40
0.5
  9
$TEXTSTYLE
  7
STANDARD
  9
$CLAYER
  8
0
  9
$CELTYPE
  6
BYLAYER
  9
$CECOLOR
 62
   256
  9
$DIMSCALE
 40
1.0
  9
$DIMASZ
 40
0.18
  9
$DIMEXO
 40
0.0625
  9
$DIMDLI
 40
0.38
  9
$DIMRND
 40
0.0
  9
$DIMDLE
 40
0.0
  9
$DIMEXE
 40
0.18
  9
$DIMTP
 40
0.0
  9
$DIMTM
 40
0.0
  9
$DIMTXT
 40
0.18
  9
$DIMCEN
 40
0.09
  9
$DIMTSZ
 40
0.0
  9
$DIMTOL
 70
     0
  9
$DIMLIM
 70
     0
  9
$DIMTIH
 70
     1
  9
$DIMTOH
 70
     1
  9
$DIMSE1
 70
     0
  9
$DIMSE2
 70
     0
  9
$DIMTAD
 70
     0
  9
$DIMZIN
 70
     0
  9
$DIMBLK
  1

  9
$DIMASO
 70
     1
  9
$DIMSHO
 70
     1
  9
$DIMPOST
  1

  9
$DIMAPOST
  1

  9
$DIMALT
 70
     0
  9
$DIMALTD
 70
     2
  9
$DIMALTF
 40
25.399999999999999
  9
$DIMLFAC
 40
1.0
  9
$DIMTOFL
 70
     0
  9
$DIMTVP
 40
0.0
  9
$DIMTIX
 70
     0
  9
$DIMSOXD
 70
     0
  9
$DIMSAH
 70
     0
  9
$DIMBLK1
  1

  9
$DIMBLK2
  1

  9
$DIMSTYLE
  2
STANDARD
  9
$DIMCLRD
 70
     0
  9
$DIMCLRE
 70
     0
  9
$DIMCLRT
 70
     0
  9
$DIMTFAC
 40
1.0
  9
$DIMGAP
 40
0.09
  9
$LUNITS
 70
     2
  9
$LUPREC
 70
     4
  9
$SKETCHINC
 40
0.1
  9
$FILLETRAD
 40
2.0
  9
$AUNITS
 70
     0
  9
$AUPREC
 70
     0
  9
$MENU
  1
ACAD
  9
$ELEVATION
 40
0.0
  9
$PELEVATION
 40
0.0
  9
$THICKNESS
 40
0.0
  9
$LIMCHECK
 70
     0
  9
$BLIPMODE
 70
     0
  9
$CHAMFERA
 40
0.0
  9
$CHAMFERB
 40
0.0
  9
$SKPOLY
 70
     0
  9
$TDCREATE
 40
2452095.087880787
  9
$TDUPDATE
 40
2452095.089398148
  9
$TDINDWG
 40
0.0015346065
  9
$TDUSRTIMER
 40
0.0015346065
  9
$USRTIMER
 70
     1
  9
$ANGBASE
 50
0.0
  9
$ANGDIR
 70
     0
  9
$PDMODE
 70
     0
  9
$PDSIZE
 40
0.0
  9
$PLINEWID
 40
0.0
  9
$COORDS
 70
     1
  9
$SPLFRAME
 70
     0
  9
$SPLINETYPE
 70
     6
  9
$SPLINESEGS
 70
     8
  9
$ATTDIA
 70
     0
  9
$ATTREQ
 70
     1
  9
$HANDLING
 70
 10241
  9
$HANDSEED
  5
128
  9
$SURFTAB1
 70
     6
  9
$SURFTAB2
 70
     6
  9
$SURFTYPE
 70
     6
  9
$SURFU
 70
     6
  9
$SURFV
 70
     6
  9
$UCSNAME
  2

  9
$UCSORG
 10
0.0
 20
0.0
 30
0.0
  9
$UCSXDIR
 10
1.0
 20
0.0
 30
0.0
  9
$UCSYDIR
 10
0.0
 20
1.0
 30
0.0
  9
$PUCSNAME
  2

  9
$PUCSORG
 10
0.0
 20
0.0
 30
0.0
  9
$PUCSXDIR
 10
1.0
 20
0.0
 30
0.0
  9
$PUCSYDIR
 10
0.0
 20
1.0
 30
0.0
  9
$USERI1
 70
     0
  9
$USERI2
 70
     0
  9
$USERI3
 70
     0
  9
$USERI4
 70
     0
  9
$USERI5
 70
     0
  9
$USERR1
 40
0.0
  9
$USERR2
 40
0.0
  9
$USERR3
 40
0.0
  9
$USERR4
 40
0.0
  9
$USERR5
 40
0.0
  9
$WORLDVIEW
 70
     1
  9
$SHADEDGE
 70
     3
  9
$SHADEDIF
 70
    70
  9
$TILEMODE
 70
     1
  9
$MAXACTVP
 70
    64
  9
$PLIMCHECK
 70
     0
  9
$PEXTMIN
 10
1.0000000000000000E+020
 20
1.0000000000000000E+020
 30
1.0000000000000000E+020
  9
$PEXTMAX
 10
-1.0000000000000000E+020
 20
-1.0000000000000000E+020
 30
-1.0000000000000000E+020
  9
$PLIMMIN
 10
0.0
 20
0.0
  9
$PLIMMAX
 10
12.0
 20
9.0
  9
$UNITMODE
 70
     0
  9
$VISRETAIN
 70
     1
  9
$PLINEGEN
 70
     0
  9
$PSLTSCALE
 70
     1
  0
ENDSEC
  0
SECTION
  2
TABLES
  0
TABLE
  2
VPORT
 70
     2
  0
VPORT
  2
*ACTIVE
 70
     0
 10
0.0
 20
0.0
 11
1.0
 21
1.0
 12
-546.37785249807996
 22
237.84689755461051
 13
0.0
 23
0.0
 14
1.0
 24
1.0
 15
0.0
 25
0.0
 16
0.0
 26
0.0
 36
1.0
 17
0.0
 27
0.0
 37
0.0
 40
9.0000000357229055
 41
2.4144144144144142
 42
50.0
 43
0.0
 44
0.0
 50
0.0
 51
0.0
 71
     0
 72
   100
 73
     1
 74
     1
 75
     0
 76
     0
 77
     0
 78
     0
  0
ENDTAB
  0
TABLE
  2
LTYPE
 70
     9
  0
LTYPE
  2
CONTINUOUS
 70
     0
  3
Solid line
 72
    65
 73
     0
 40
0.0
  0
LTYPE
  2
BORDER
 70
     0
  3
__ __ . __ __ .
 72
    65
 73
     6
 40
51.487987428850943
 49
14.710853551100261
 49
-7.355426775550133
 49
14.710853551100261
 49
-7.355426775550133
 49
0.0
 49
-7.355426775550133
  0
LTYPE
  2
CENTER
 70
     0
  3
____ _ ____ _
 72
    65
 73
     4
 40
58.843414204401071
 49
36.777133877750671
 49
-7.355426775550133
 49
7.355426775550133
 49
-7.355426775550133
  0
LTYPE
  2
DASHDOT
 70
     0
  3
__ . __ . __ .
 72
    65
 73
     4
 40
29.421707102200529
 49
14.710853551100261
 49
-7.355426775550133
 49
0.0
 49
-7.355426775550133
  0
LTYPE
  2
DASHED
 70
     0
  3
__ __ __ __ __
 72
    65
 73
     2
 40
22.0662803266504
 49
14.710853551100261
 49
-7.355426775550133
  0
LTYPE
  2
DIVIDE
 70
     0
  3
__ . . __ . . 
 72
    65
 73
     6
 40
36.777133877750671
 49
14.710853551100261
 49
-7.355426775550133
 49
0.0
 49
-7.355426775550133
 49
0.0
 49
-7.355426775550133
  0
LTYPE
  2
DOT
 70
     0
  3
..............
 72
    65
 73
     4
 40
14.710853551100261
 49
0.0
 49
-7.355426775550133
 49
0.0
 49
-7.355426775550133
  0
LTYPE
  2
HIDDEN
 70
     0
  3
_ _ _ _ _ _ _
 72
    65
 73
     2
 40
11.0331401633252
 49
7.355426775550133
 49
-3.6777133877750661
  0
LTYPE
  2
PHANTOM
 70
     0
  3
_____ _ _ _____ _ _ 
 72
    65
 73
     6
 40
73.554267755501343
 49
36.777133877750671
 49
-7.355426775550133
 49
7.355426775550133
 49
-7.355426775550133
 49
7.355426775550133
 49
-7.355426775550133
  0
ENDTAB
  0
TABLE
  2
LAYER
 70
     2
  0
LAYER
  2
0
 70
     0
 62
     7
  6
CONTINUOUS
  0
LAYER
  2
1
 70
     0
 62
     7
  6
CONTINUOUS
  0
ENDTAB
  0
TABLE
  2
STYLE
 70
     4
  0
STYLE
  2
STANDARD
 70
     0
 40
0.0
 41
1.0
 50
0.0
 71
     0
 42
3.5
  3
txt
  4

  0
STYLE
  2
SIMPLEX
 70
     0
 40
0.0
 41
1.0
 50
0.0
 71
     0
 42
3.5
  3
simplex
  4

  0
STYLE
  2
COMPLEX
 70
     0
 40
0.0
 41
1.0
 50
0.0
 71
     0
 42
3.5
  3
complex
  4

  0
STYLE
  2
ITALIC
 70
     0
 40
0.0
 41
1.0
 50
0.0
 71
     0
 42
3.5
  3
italic
  4

  0
ENDTAB
  0
TABLE
  2
VIEW
 70
     0
  0
ENDTAB
  0
TABLE
  2
UCS
 70
     0
  0
ENDTAB
  0
TABLE
  2
APPID
 70
     1
  0
APPID
  2
ACAD
 70
     0
  0
ENDTAB
  0
TABLE
  2
DIMSTYLE
 70
     1
  0
DIMSTYLE
  2
STANDARD
 70
     0
  3

  4

  5

  6

  7

 40
1.0
 41
0.18
 42
0.0625
 43
0.38
 44
0.18
 45
0.0
 46
0.0
 47
0.0
 48
0.0
140
0.18
141
0.09
142
0.0
143
25.399999999999999
144
1.0
145
0.0
146
1.0
147
0.09
 71
     0
 72
     0
 73
     1
 74
     1
 75
     0
 76
     0
 77
     0
 78
     0
170
     0
171
     2
172
     0
173
     0
174
     0
175
     0
176
     0
177
     0
178
     0
  0
ENDTAB
  0
ENDSEC
  0
SECTION
  2
BLOCKS
  0
BLOCK
  8
0
  2
$MODEL_SPACE
 70
     0
 10
0.0
 20
0.0
 30
0.0
  3
$MODEL_SPACE
  1

  0
ENDBLK
  5
20
  8
0
  0
BLOCK
 67
     1
  8
0
  2
$PAPER_SPACE
 70
     0
 10
0.0
 20
0.0
 30
0.0
  3
$PAPER_SPACE
  1

  0
ENDBLK
  5
1C
 67
     1
  8
0
  0
ENDSEC
  0
SECTION
  2
ENTITIES
  0
LINE
  5
33
  8
1
 62
     7
 10
-505.35081677480832
 20
155.49385578251079
 30
0.0
 11
-505.35081677480832
 21
104.4847388405439
 31
0.0
  0
LINE
  5
34
  8
1
 62
     7
 10
-507.05081677480842
 20
104.4969335608445
 30
0.0
 11
-507.05081677480842
 21
155.49385578251079
 31
0.0
  0
LINE
  5
35
  8
1
 62
     7
 10
-508.7508167748083
 20
104.4847388405439
 30
0.0
 11
-508.7508167748083
 21
155.49385578251079
 31
0.0
  0
LINE
  5
36
  8
1
 62
     7
 10
-507.30081677480831
 20
159.75782606478981
 30
0.0
 11
-507.30081677480831
 21
155.49385578251079
 31
0.0
  0
LINE
  5
37
  8
1
 62
     7
 10
-507.60081677480832
 20
155.49385578251079
 30
0.0
 11
-507.60081677480832
 21
159.75782606478981
 31
0.0
  0
LINE
  5
38
  8
1
 62
     7
 10
-507.90081677480828
 20
159.75782606478981
 30
0.0
 11
-507.90081677480828
 21
155.49385578251079
 31
0.0
  0
LINE
  5
39
  8
1
 62
     7
 10
-508.20081677480829
 20
155.49385578251079
 30
0.0
 11
-508.20081677480829
 21
159.75782606478981
 31
0.0
  0
LINE
  5
3A
  8
1
 62
     7
 10
-508.50081677480841
 20
159.75782606478981
 30
0.0
 11
-508.50081677480841
 21
155.49385578251079
 31
0.0
  0
LINE
  5
3B
  8
1
 62
     7
 10
-508.7508167748083
 20
155.49385578251079
 30
0.0
 11
-507.05081677480842
 21
155.49385578251079
 31
0.0
  0
LINE
  5
3C
  8
1
 62
     7
 10
-506.80081677480831
 20
155.49385578251079
 30
0.0
 11
-506.80081677480831
 21
159.75782606478981
 31
0.0
  0
LINE
  5
3D
  8
1
 62
     7
 10
-506.5008167748083
 20
159.75782606478981
 30
0.0
 11
-506.5008167748083
 21
155.49385578251079
 31
0.0
  0
LINE
  5
3E
  8
1
 62
     7
 10
-506.20081677480852
 20
155.49385578251079
 30
0.0
 11
-506.20081677480829
 21
159.75782606478981
 31
0.0
  0
LINE
  5
3F
  8
1
 62
     7
 10
-505.90081677480828
 20
159.75782606478981
 30
0.0
 11
-505.90081677480828
 21
155.49385578251079
 31
0.0
  0
LINE
  5
40
  8
1
 62
     7
 10
-505.60081677480832
 20
155.49385578251079
 30
0.0
 11
-505.60081677480832
 21
159.75782606478981
 31
0.0
  0
LINE
  5
41
  8
1
 62
     7
 10
-507.05081677480842
 20
155.49385578251079
 30
0.0
 11
-505.35081677480832
 21
155.49385578251079
 31
0.0
  0
LINE
  5
42
  8
1
 62
     7
 10
372.27405310881181
 20
118.4878052796995
 30
0.0
 11
372.27405310881181
 21
155.49385578251079
 31
0.0
  0
LINE
  5
43
  8
1
 62
     7
 10
374.2240531088118
 20
155.49385578251079
 30
0.0
 11
374.2240531088118
 21
159.75782606478981
 31
0.0
  0
LINE
  5
44
  8
1
 62
     7
 10
374.52405310881181
 20
159.75782606478981
 30
0.0
 11
374.52405310881181
 21
155.49385578251079
 31
0.0
  0
LINE
  5
45
  8
1
 62
     7
 10
374.82405310881182
 20
155.49385578251079
 30
0.0
 11
374.82405310881182
 21
159.75782606478981
 31
0.0
  0
LINE
  5
46
  8
1
 62
     7
 10
375.12405310881178
 20
159.75782606478981
 30
0.0
 11
375.12405310881178
 21
155.49385578251079
 31
0.0
  0
LINE
  5
47
  8
1
 62
     7
 10
375.42405310881179
 20
155.49385578251079
 30
0.0
 11
375.42405310881179
 21
159.75782606478981
 31
0.0
  0
LINE
  5
48
  8
1
 62
     7
 10
373.9740531088118
 20
155.49385578251079
 30
0.0
 11
375.67405310881179
 21
155.49385578251079
 31
0.0
  0
LINE
  5
49
  8
1
 62
     7
 10
375.67405310881179
 20
155.49385578251079
 30
0.0
 11
375.67405310881179
 21
118.4878052796995
 31
0.0
  0
LINE
  5
4A
  8
1
 62
     7
 10
373.9740531088118
 20
155.49385578251079
 30
0.0
 11
373.9740531088118
 21
118.5
 31
0.0
  0
LINE
  5
4B
  8
1
 62
     7
 10
373.7240531088118
 20
159.75782606478981
 30
0.0
 11
373.7240531088118
 21
155.49385578251079
 31
0.0
  0
LINE
  5
4C
  8
1
 62
     7
 10
373.42405310881179
 20
155.49385578251079
 30
0.0
 11
373.42405310881179
 21
159.75782606478981
 31
0.0
  0
LINE
  5
4D
  8
1
 62
     7
 10
373.12405310881178
 20
159.75782606478981
 30
0.0
 11
373.12405310881178
 21
155.49385578251079
 31
0.0
  0
LINE
  5
4E
  8
1
 62
     7
 10
372.82405310881182
 20
155.49385578251079
 30
0.0
 11
372.82405310881182
 21
159.75782606478981
 31
0.0
  0
LINE
  5
4F
  8
1
 62
     7
 10
372.52405310881181
 20
159.75782606478981
 30
0.0
 11
372.52405310881181
 21
155.49385578251079
 31
0.0
  0
LINE
  5
50
  8
1
 62
     7
 10
372.27405310881181
 20
155.49385578251079
 30
0.0
 11
373.9740531088118
 21
155.49385578251079
 31
0.0
  0
LINE
  5
51
  8
1
 62
     7
 10
10.85000000000001
 20
155.49385578251079
 30
0.0
 11
10.85000000000001
 21
104.4999999999999
 31
0.0
  0
LINE
  5
52
  8
1
 62
     7
 10
9.1500000000000341
 20
104.4999999999999
 30
0.0
 11
9.1500000000000341
 21
155.49385578251079
 31
0.0
  0
LINE
  5
53
  8
1
 62
     7
 10
10.600000000000019
 20
159.75782606478981
 30
0.0
 11
10.600000000000019
 21
155.49385578251079
 31
0.0
  0
LINE
  5
54
  8
1
 62
     7
 10
10.30000000000013
 20
155.49385578251079
 30
0.0
 11
10.30000000000013
 21
159.75782606478981
 31
0.0
  0
LINE
  5
55
  8
1
 62
     7
 10
10.0
 20
159.75782606478981
 30
0.0
 11
10.0
 21
155.49385578251079
 31
0.0
  0
LINE
  5
56
  8
1
 62
     7
 10
9.6999999999999886
 20
155.49385578251079
 30
0.0
 11
9.6999999999999886
 21
159.75782606478981
 31
0.0
  0
LINE
  5
57
  8
1
 62
     7
 10
9.4000000000000341
 20
159.75782606478981
 30
0.0
 11
9.4000000000000341
 21
155.49385578251079
 31
0.0
  0
LINE
  5
58
  8
1
 62
     7
 10
9.1500000000000341
 20
155.49385578251079
 30
0.0
 11
10.85000000000001
 21
155.49385578251079
 31
0.0
  0
LINE
  5
59
  8
1
 62
     7
 10
-270.30435568277687
 20
159.75782606478981
 30
0.0
 11
-270.30435568277687
 21
155.49385578251079
 31
0.0
  0
LINE
  5
5A
  8
1
 62
     7
 10
-270.60435568277688
 20
155.49385578251079
 30
0.0
 11
-270.60435568277688
 21
159.75782606478981
 31
0.0
  0
LINE
  5
5B
  8
1
 62
     7
 10
-270.9043556827769
 20
159.75782606478981
 30
0.0
 11
-270.9043556827769
 21
155.49385578251079
 31
0.0
  0
LINE
  5
5C
  8
1
 62
     7
 10
-271.20435568277691
 20
155.49385578251079
 30
0.0
 11
-271.20435568277691
 21
159.75782606478981
 31
0.0
  0
LINE
  5
5D
  8
1
 62
     7
 10
-271.50435568277692
 20
159.75782606478981
 30
0.0
 11
-271.50435568277692
 21
155.49385578251079
 31
0.0
  0
LINE
  5
5E
  8
1
 62
     7
 10
-270.05435568277687
 20
155.49385578251079
 30
0.0
 11
-270.05435568277687
 21
104.4999999999999
 31
0.0
  0
LINE
  5
5F
  8
1
 62
     7
 10
-271.75435568277692
 20
155.49385578251079
 30
0.0
 11
-270.05435568277687
 21
155.49385578251079
 31
0.0
  0
LINE
  5
60
  8
1
 62
     7
 10
-271.75435568277692
 20
104.4999999999999
 30
0.0
 11
-271.75435568277692
 21
155.49385578251079
 31
0.0
  0
LINE
  5
61
  8
1
  6
DASHDOT
 62
     3
 10
-5.547337278106113
 20
0.0
 30
0.0
 11
0.0
 21
0.0
 31
0.0
  0
LINE
  5
62
  8
1
 62
     7
 10
0.0
 20
74.399999999999963
 30
0.0
 11
79.0
 21
74.399999999999963
 31
0.0
  0
LINE
  5
63
  8
1
 62
     7
 10
0.0000000000000067
 20
104.2499999999999
 30
0.0
 11
76.0
 21
104.2499999999999
 31
0.0
  0
LINE
  5
64
  8
1
 62
     7
 10
76.0
 20
104.2499999999999
 30
0.0
 11
76.0
 21
75.249999999999986
 31
0.0
  0
LINE
  5
65
  8
1
 62
     7
 10
79.0
 20
74.399999999999963
 30
0.0
 11
79.0
 21
105.0
 31
0.0
  0
LINE
  5
66
  8
1
 62
     7
 10
79.0
 20
105.0
 30
0.0
 11
20.0
 21
105.0
 31
0.0
  0
LINE
  5
67
  8
1
 62
     7
 10
20.0
 20
105.0
 30
0.0
 11
20.0
 21
114.5
 31
0.0
  0
LINE
  5
68
  8
1
 62
     7
 10
20.0
 20
114.5
 30
0.0
 11
24.0
 21
118.5
 31
0.0
  0
LINE
  5
69
  8
1
 62
     7
 10
100.0
 20
45.0
 30
0.0
 11
0.0
 21
45.0
 31
0.0
  0
LINE
  5
6A
  8
1
 62
     7
 10
96.0
 20
89.999999999999986
 30
0.0
 11
100.0
 21
89.999999999999986
 31
0.0
  0
LINE
  5
6B
  8
1
 62
     7
 10
96.0
 20
105.0
 30
0.0
 11
96.0
 21
89.999999999999986
 31
0.0
  0
LINE
  5
6C
  8
1
 62
     7
 10
96.0
 20
105.0
 30
0.0
 11
99.299999999999969
 21
105.0
 31
0.0
  0
LINE
  5
6D
  8
1
 62
     7
 10
99.299999999999969
 20
105.0
 30
0.0
 11
99.299999999999969
 21
118.5
 31
0.0
  0
LINE
  5
6E
  8
1
 62
     7
 10
24.0
 20
118.5
 30
0.0
 11
99.299999999999969
 21
118.5
 31
0.0
  0
LINE
  5
6F
  8
1
 62
     3
 10
97.449999999999974
 20
118.5
 30
0.0
 11
97.449999999999974
 21
105.0
 31
0.0
  0
LINE
  5
70
  8
1
 62
     7
 10
0.0
 20
52.999999999999993
 30
0.0
 11
100.0
 21
52.999999999999993
 31
0.0
  0
LINE
  5
71
  8
1
 62
     7
 10
100.0
 20
89.999999999999986
 30
0.0
 11
100.0
 21
-89.999999999999986
 31
0.0
  0
LINE
  5
72
  8
1
 62
     7
 10
0.0
 20
99.0
 30
0.0
 11
28.0
 21
99.0
 31
0.0
  0
LINE
  5
73
  8
1
 62
     7
 10
28.0
 20
99.0
 30
0.0
 11
28.0
 21
91.0
 31
0.0
  0
LINE
  5
74
  8
1
 62
     7
 10
28.0
 20
91.0
 30
0.0
 11
0.0
 21
91.0
 31
0.0
  0
LINE
  5
75
  8
1
 62
     7
 10
28.0
 20
99.0
 30
0.0
 11
30.886751345948081
 21
95.0
 31
0.0
  0
LINE
  5
76
  8
1
 62
     7
 10
30.886751345948081
 20
95.0
 30
0.0
 11
28.0
 21
91.0
 31
0.0
  0
LINE
  5
77
  8
1
 62
     3
 10
0.0
 20
100.0
 30
0.0
 11
20.0
 21
100.0
 31
0.0
  0
LINE
  5
78
  8
1
 62
     7
 10
20.0
 20
100.0
 30
0.0
 11
20.0
 21
89.999999999999986
 31
0.0
  0
LINE
  5
79
  8
1
 62
     3
 10
20.0
 20
89.999999999999986
 30
0.0
 11
0.0
 21
89.999999999999986
 31
0.0
  0
LINE
  5
7A
  8
1
 62
     3
 10
20.0
 20
100.0
 30
0.0
 11
21.732050807568839
 21
99.0
 31
0.0
  0
LINE
  5
7B
  8
1
 62
     3
 10
20.0
 20
89.999999999999986
 30
0.0
 11
21.732050807568839
 21
91.0
 31
0.0
  0
LINE
  5
7C
  8
1
  6
DASHDOT
 62
     3
 10
-3.0
 20
95.0
 30
0.0
 11
35.30940107675849
 21
95.0
 31
0.0
  0
LINE
  5
7D
  8
1
 62
     7
 10
123.0
 20
103.2
 30
0.0
 11
146.0
 21
103.2
 31
0.0
  0
LINE
  5
7E
  8
1
 62
     7
 10
146.0
 20
103.2
 30
0.0
 11
146.0
 21
92.5
 31
0.0
  0
LINE
  5
7F
  8
1
 62
     7
 10
146.0
 20
92.5
 30
0.0
 11
150.0
 21
92.5
 31
0.0
  0
LINE
  5
80
  8
1
 62
     7
 10
150.0
 20
92.5
 30
0.0
 11
150.0
 21
-92.5
 31
0.0
  0
LINE
  5
81
  8
1
 62
     7
 10
123.0
 20
96.799999999999983
 30
0.0
 11
146.0
 21
96.799999999999983
 31
0.0
  0
LINE
  5
82
  8
1
 62
     7
 10
123.0
 20
64.999999999999986
 30
0.0
 11
150.0
 21
64.999999999999986
 31
0.0
  0
LINE
  5
83
  8
1
 62
     7
 10
128.0
 20
105.0
 30
0.0
 11
128.0
 21
96.799999999999983
 31
0.0
  0
LINE
  5
84
  8
1
 62
     7
 10
123.0
 20
-105.0
 30
0.0
 11
123.0
 21
105.0
 31
0.0
  0
LINE
  5
85
  8
1
 62
     7
 10
128.0
 20
105.0
 30
0.0
 11
123.0
 21
105.0
 31
0.0
  0
LINE
  5
86
  8
1
 62
     7
 10
145.0
 20
118.5
 30
0.0
 11
145.0
 21
96.799999999999983
 31
0.0
  0
LINE
  5
87
  8
1
 62
     7
 10
100.0
 20
118.5
 30
0.0
 11
145.0
 21
118.5
 31
0.0
  0
LINE
  5
88
  8
1
 62
     7
 10
100.0
 20
118.5
 30
0.0
 11
100.0
 21
105.0
 31
0.0
  0
LINE
  5
89
  8
1
 62
     3
 10
101.84999999999989
 20
118.5
 30
0.0
 11
101.84999999999989
 21
105.0
 31
0.0
  0
LINE
  5
8A
  8
1
 62
     7
 10
100.0
 20
105.0
 30
0.0
 11
102.2499999999999
 21
105.0
 31
0.0
  0
LINE
  5
8B
  8
1
 62
     7
 10
102.2499999999999
 20
60.0
 30
0.0
 11
123.0
 21
60.0
 31
0.0
  0
LINE
  5
8C
  8
1
 62
     7
 10
102.2499999999999
 20
92.5
 30
0.0
 11
123.0
 21
92.5
 31
0.0
  0
LINE
  5
8D
  8
1
 62
     7
 10
102.2499999999999
 20
62.5
 30
0.0
 11
123.0
 21
62.5
 31
0.0
  0
LINE
  5
8E
  8
1
  6
DASHDOT
 62
     3
 10
101.122300321807
 20
77.499999999999986
 30
0.0
 11
152.31357760582591
 21
77.499999999999986
 31
0.0
  0
LINE
  5
8F
  8
1
 62
     7
 10
123.0
 20
86.499999999999986
 30
0.0
 11
150.0
 21
86.499999999999986
 31
0.0
  0
LINE
  5
90
  8
1
 62
     7
 10
150.0
 20
68.499999999999986
 30
0.0
 11
123.0
 21
68.499999999999986
 31
0.0
  0
LINE
  5
91
  8
1
 62
     7
 10
0.0000000000000007
 20
-105.0
 30
0.0
 11
0.0000000000000085
 21
-75.25
 31
0.0
  0
LINE
  5
92
  8
1
 62
     7
 10
76.0
 20
-75.25
 30
0.0
 11
0.0000000000000085
 21
-75.25
 31
0.0
  0
LINE
  5
93
  8
1
 62
     7
 10
76.0
 20
-75.25
 30
0.0
 11
76.0
 21
-104.2499999999999
 31
0.0
  0
LINE
  5
94
  8
1
 62
     7
 10
79.0
 20
-74.40000000000002
 30
0.0
 11
0.0000000000000007
 21
-74.40000000000002
 31
0.0
  0
LINE
  5
95
  8
1
 62
     7
 10
79.0
 20
-105.0
 30
0.0
 11
79.0
 21
-74.40000000000002
 31
0.0
  0
LINE
  5
96
  8
1
 62
     7
 10
20.0
 20
-105.0
 30
0.0
 11
79.0
 21
-105.0
 31
0.0
  0
LINE
  5
97
  8
1
 62
     7
 10
20.0
 20
-114.5
 30
0.0
 11
20.0
 21
-105.0
 31
0.0
  0
LINE
  5
98
  8
1
 62
     7
 10
24.0
 20
-118.5
 30
0.0
 11
20.0
 21
-114.5
 31
0.0
  0
LINE
  5
99
  8
1
 62
     7
 10
0.0
 20
-45.0
 30
0.0
 11
100.0
 21
-45.0
 31
0.0
  0
LINE
  5
9A
  8
1
 62
     7
 10
100.0
 20
-89.999999999999986
 30
0.0
 11
96.0
 21
-89.999999999999986
 31
0.0
  0
LINE
  5
9B
  8
1
 62
     7
 10
96.0
 20
-89.999999999999986
 30
0.0
 11
96.0
 21
-105.0
 31
0.0
  0
LINE
  5
9C
  8
1
 62
     7
 10
99.299999999999969
 20
-105.0
 30
0.0
 11
96.0
 21
-105.0
 31
0.0
  0
LINE
  5
9D
  8
1
 62
     7
 10
99.299999999999969
 20
-118.5
 30
0.0
 11
99.299999999999969
 21
-105.0
 31
0.0
  0
LINE
  5
9E
  8
1
 62
     7
 10
99.299999999999969
 20
-118.5
 30
0.0
 11
24.0
 21
-118.5
 31
0.0
  0
LINE
  5
9F
  8
1
 62
     3
 10
97.449999999999974
 20
-105.0
 30
0.0
 11
97.449999999999974
 21
-118.5
 31
0.0
  0
LINE
  5
A0
  8
1
 62
     7
 10
146.0
 20
-103.2
 30
0.0
 11
123.0
 21
-103.2
 31
0.0
  0
LINE
  5
A1
  8
1
 62
     7
 10
146.0
 20
-92.5
 30
0.0
 11
146.0
 21
-103.2
 31
0.0
  0
LINE
  5
A2
  8
1
 62
     7
 10
150.0
 20
-92.5
 30
0.0
 11
146.0
 21
-92.5
 31
0.0
  0
LINE
  5
A3
  8
1
 62
     7
 10
146.0
 20
-96.799999999999983
 30
0.0
 11
123.0
 21
-96.799999999999983
 31
0.0
  0
LINE
  5
A4
  8
1
 62
     7
 10
150.0
 20
-65.0
 30
0.0
 11
123.0
 21
-65.0
 31
0.0
  0
LINE
  5
A5
  8
1
 62
     7
 10
123.0
 20
-105.0
 30
0.0
 11
128.0
 21
-105.0
 31
0.0
  0
LINE
  5
A6
  8
1
 62
     7
 10
145.0
 20
-96.799999999999983
 30
0.0
 11
145.0
 21
-118.5
 31
0.0
  0
LINE
  5
A7
  8
1
 62
     7
 10
128.0
 20
-96.799999999999983
 30
0.0
 11
128.0
 21
-105.0
 31
0.0
  0
LINE
  5
A8
  8
1
 62
     7
 10
145.0
 20
-118.5
 30
0.0
 11
100.0
 21
-118.5
 31
0.0
  0
LINE
  5
A9
  8
1
 62
     7
 10
100.0
 20
-105.0
 30
0.0
 11
100.0
 21
-118.5
 31
0.0
  0
LINE
  5
AA
  8
1
 62
     3
 10
101.84999999999989
 20
-105.0
 30
0.0
 11
101.84999999999989
 21
-118.5
 31
0.0
  0
LINE
  5
AB
  8
1
 62
     7
 10
102.2499999999999
 20
-105.0
 30
0.0
 11
100.0
 21
-105.0
 31
0.0
  0
LINE
  5
AC
  8
1
 62
     7
 10
102.2499999999999
 20
-105.0
 30
0.0
 11
102.2499999999999
 21
105.0
 31
0.0
  0
LINE
  5
AD
  8
1
 62
     7
 10
123.0
 20
-60.0
 30
0.0
 11
102.2499999999999
 21
-60.0
 31
0.0
  0
LINE
  5
AE
  8
1
  6
DASHDOT
 62
     3
 10
150.0
 20
0.0
 30
0.0
 11
155.15680473372791
 21
0.0
 31
0.0
  0
LINE
  5
AF
  8
1
  6
DASHDOT
 62
     3
 10
381.91967402928481
 20
0.0
 30
0.0
 11
366.0284321883388
 21
0.0
 31
0.0
  0
LINE
  5
B0
  8
1
  6
DASHDOT
 62
     3
 10
373.9740531088118
 20
7.9456209204729538
 30
0.0
 11
373.9740531088118
 21
-7.9456209204729467
 31
0.0
  0
LINE
  5
B1
  8
1
 62
     7
 10
361.9740531088118
 20
43.370496884402883
 30
0.0
 11
361.9740531088118
 21
52.999999999999993
 31
0.0
  0
LINE
  5
B2
  8
1
 62
     7
 10
361.9740531088118
 20
52.999999999999993
 30
0.0
 11
385.9740531088118
 21
52.999999999999993
 31
0.0
  0
LINE
  5
B3
  8
1
 62
     7
 10
385.9740531088118
 20
52.999999999999993
 30
0.0
 11
385.9740531088118
 21
43.370496884402883
 31
0.0
  0
LINE
  5
B4
  8
1
  6
DASHDOT
 62
     3
 10
373.9740531088118
 20
94.710883599748783
 30
0.0
 11
373.9740531088118
 21
60.880703070225792
 31
0.0
  0
LINE
  5
B5
  8
1
  6
DASHDOT
 62
     3
 10
307.00334506325981
 20
66.970708045552186
 30
0.0
 11
330.92489512445042
 21
43.049157984361337
 31
0.0
  0
LINE
  5
B6
  8
1
  6
DASHDOT
 62
     3
 10
307.00334506325981
 20
-66.970708045552101
 30
0.0
 11
330.92489512445059
 21
-43.049157984361287
 31
0.0
  0
LINE
  5
B7
  8
1
  6
DASHDOT
 62
     3
 10
373.9740531088118
 20
-94.710883599748755
 30
0.0
 11
373.9740531088118
 21
-60.880703070225771
 31
0.0
  0
LINE
  5
B8
  8
1
  6
DASHDOT
 62
     3
 10
440.9447611543639
 20
-66.970708045552144
 30
0.0
 11
417.02321109317307
 21
-43.049157984361322
 31
0.0
  0
LINE
  5
B9
  8
1
  6
DASHDOT
 62
     3
 10
440.9447611543639
 20
66.970708045552087
 30
0.0
 11
417.02321109317307
 21
43.049157984361287
 31
0.0
  0
LINE
  5
BA
  8
1
  6
DASHDOT
 62
     3
 10
462.2546588958798
 20
0.0
 30
0.0
 11
441.40077793428901
 21
0.0
 31
0.0
  0
LINE
  5
BB
  8
1
  6
DASHDOT
 62
     3
 10
285.8787256313779
 20
0.0000000000000497
 30
0.0
 11
306.8951043666948
 21
0.0
 31
0.0
  0
LINE
  5
BC
  8
1
  6
DASHDOT
 62
     3
 10
290.2909018670963
 20
34.662696186437501
 30
0.0
 11
311.70475899312498
 21
25.79278614211664
 31
0.0
  0
LINE
  5
BD
  8
1
  6
DASHDOT
 62
     3
 10
-286.45169296088289
 20
0.0
 30
0.0
 11
-280.90435568277701
 21
0.0
 31
0.0
  0
LINE
  5
BE
  8
1
 62
     7
 10
-280.90435568277701
 20
104.4999999999999
 30
0.0
 11
-260.90435568277701
 21
104.4999999999999
 31
0.0
  0
LINE
  5
BF
  8
1
 62
     7
 10
-260.90435568277701
 20
114.5
 30
0.0
 11
-260.90435568277701
 21
-104.4999999999999
 31
0.0
  0
LINE
  5
C0
  8
1
 62
     7
 10
-260.90435568277701
 20
114.5
 30
0.0
 11
-256.90435568277701
 21
118.5
 31
0.0
  0
LINE
  5
C1
  8
1
 62
     7
 10
-181.60435568277711
 20
-118.5
 30
0.0
 11
-181.60435568277711
 21
118.5
 31
0.0
  0
LINE
  5
C2
  8
1
 62
     7
 10
-256.90435568277701
 20
118.5
 30
0.0
 11
-181.60435568277711
 21
118.5
 31
0.0
  0
LINE
  5
C3
  8
1
 62
     3
 10
-183.45435568277711
 20
118.5
 30
0.0
 11
-183.45435568277711
 21
-118.5
 31
0.0
  0
LINE
  5
C4
  8
1
 62
     7
 10
-134.90435568277701
 20
92.5
 30
0.0
 11
-130.90435568277701
 21
92.5
 31
0.0
  0
LINE
  5
C5
  8
1
 62
     7
 10
-130.90435568277701
 20
92.5
 30
0.0
 11
-130.90435568277701
 21
-92.5
 31
0.0
  0
LINE
  5
C6
  8
1
 62
     7
 10
-135.90435568277701
 20
118.5
 30
0.0
 11
-135.90435568277701
 21
-118.5
 31
0.0
  0
LINE
  5
C7
  8
1
 62
     7
 10
-180.9043556827769
 20
118.5
 30
0.0
 11
-135.90435568277701
 21
118.5
 31
0.0
  0
LINE
  5
C8
  8
1
 62
     3
 10
-179.0543556827769
 20
118.5
 30
0.0
 11
-179.0543556827769
 21
-118.5
 31
0.0
  0
LINE
  5
C9
  8
1
 62
     7
 10
-280.90435568277701
 20
-104.4999999999999
 30
0.0
 11
-280.90435568277701
 21
104.4999999999999
 31
0.0
  0
LINE
  5
CA
  8
1
 62
     7
 10
-260.90435568277701
 20
-114.5
 30
0.0
 11
-260.90435568277701
 21
-104.4999999999999
 31
0.0
  0
LINE
  5
CB
  8
1
 62
     7
 10
-256.90435568277701
 20
-118.5
 30
0.0
 11
-260.90435568277701
 21
-114.5
 31
0.0
  0
LINE
  5
CC
  8
1
 62
     7
 10
-181.60435568277711
 20
-118.5
 30
0.0
 11
-256.90435568277701
 21
-118.5
 31
0.0
  0
LINE
  5
CD
  8
1
 62
     7
 10
-134.90435568277701
 20
-103.2
 30
0.0
 11
-134.90435568277701
 21
103.2
 31
0.0
  0
LINE
  5
CE
  8
1
 62
     7
 10
-130.90435568277701
 20
-92.5
 30
0.0
 11
-134.90435568277701
 21
-92.5
 31
0.0
  0
LINE
  5
CF
  8
1
 62
     7
 10
-135.90435568277701
 20
-118.5
 30
0.0
 11
-180.9043556827769
 21
-118.5
 31
0.0
  0
LINE
  5
D0
  8
1
 62
     7
 10
-180.9043556827769
 20
118.5
 30
0.0
 11
-180.9043556827769
 21
-118.5
 31
0.0
  0
LINE
  5
D1
  8
1
  6
DASHDOT
 62
     3
 10
-130.90435568277701
 20
0.0
 30
0.0
 11
-125.7475509490489
 21
0.0
 31
0.0
  0
LINE
  5
D2
  8
1
 62
     7
 10
-134.90435568277701
 20
103.2
 30
0.0
 11
-135.90435568277701
 21
103.2
 31
0.0
  0
LINE
  5
D3
  8
1
 62
     7
 10
-134.90435568277701
 20
-103.2
 30
0.0
 11
-135.90435568277701
 21
-103.2
 31
0.0
  0
LINE
  5
D4
  8
1
 62
     7
 10
-256.90435568277701
 20
118.5
 30
0.0
 11
-256.90435568277701
 21
-118.5
 31
0.0
  0
LINE
  5
D5
  8
1
 62
     7
 10
-260.90435568277701
 20
-104.4999999999999
 30
0.0
 11
-280.90435568277701
 21
-104.4999999999999
 31
0.0
  0
LINE
  5
D6
  8
1
  6
DASHDOT
 62
     3
 10
-497.97894043390221
 20
0.0
 30
0.0
 11
-516.1226931157147
 21
0.0
 31
0.0
  0
LINE
  5
D7
  8
1
  6
DASHDOT
 62
     3
 10
-507.05081677480842
 20
9.0718763409062788
 30
0.0
 11
-507.05081677480842
 21
-9.0718763409062877
 31
0.0
  0
LINE
  5
D8
  8
1
 62
     7
 10
-495.05081677480831
 20
52.999999999999993
 30
0.0
 11
-495.05081677480831
 21
43.370496884402883
 31
0.0
  0
LINE
  5
D9
  8
1
 62
     7
 10
-519.05081677480848
 20
52.999999999999993
 30
0.0
 11
-495.05081677480831
 21
52.999999999999993
 31
0.0
  0
LINE
  5
DA
  8
1
 62
     7
 10
-519.05081677480848
 20
43.370496884402883
 30
0.0
 11
-519.05081677480848
 21
52.999999999999993
 31
0.0
  0
LINE
  5
DB
  8
1
  6
DASHDOT
 62
     3
 10
-578.91563697457468
 20
71.864820199766285
 30
0.0
 11
-569.37221142663418
 21
62.321394651825678
 31
0.0
  0
LINE
  5
DC
  8
1
  6
DASHDOT
 62
     3
 10
-578.91563697457468
 20
-71.864820199766214
 30
0.0
 11
-569.37221142663418
 21
-62.321394651825763
 31
0.0
  0
LINE
  5
DD
  8
1
  6
DASHDOT
 62
     3
 10
-435.18599657504211
 20
-71.864820199766271
 30
0.0
 11
-444.72942212298273
 21
-62.321394651825742
 31
0.0
  0
LINE
  5
DE
  8
1
  6
DASHDOT
 62
     3
 10
-435.18599657504211
 20
71.864820199766186
 30
0.0
 11
-444.72942212298273
 21
62.321394651825678
 31
0.0
  0
LINE
  5
DF
  8
1
 62
     7
 10
76.0
 20
-104.2499999999999
 30
0.0
 11
0.0000000000000067
 21
-104.2499999999999
 31
0.0
  0
LINE
  5
E0
  8
1
 62
     7
 10
0.0000000000000007
 20
-74.40000000000002
 30
0.0
 11
0.0
 21
74.399999999999963
 31
0.0
  0
LINE
  5
E1
  8
1
 62
     7
 10
0.0000000000000001
 20
75.249999999999986
 30
0.0
 11
76.0
 21
75.249999999999986
 31
0.0
  0
LINE
  5
E2
  8
1
 62
     7
 10
0.0000000000000001
 20
75.249999999999986
 30
0.0
 11
0.0
 21
104.4999999999999
 31
0.0
  0
ARC
  5
E3
  8
1
 62
     7
 10
373.9740531088118
 20
0.0
 30
0.0
 40
45.0
 50
105.4660099534206
 51
0.0
  0
ARC
  5
E4
  8
1
 62
     7
 10
373.9740531088118
 20
0.0
 30
0.0
 40
45.0
 50
0.0
 51
74.533990046579461
  0
ARC
  5
E5
  8
1
  6
DASHDOT
 62
     3
 10
373.9740531088118
 20
0.0
 30
0.0
 40
77.500000000000028
 50
77.50152036757126
 51
101.7379794231132
  0
ARC
  5
E6
  8
1
  6
DASHDOT
 62
     3
 10
373.9740531088118
 20
0.0
 30
0.0
 40
77.499999999999986
 50
352.89480927874911
 51
0.0
  0
ARC
  5
E7
  8
1
  6
DASHDOT
 62
     3
 10
373.9740531088118
 20
0.0
 30
0.0
 40
77.500000000000128
 50
172.74924023347691
 51
187.86556659268439
  0
ARC
  5
E8
  8
1
  6
DASHDOT
 62
     3
 10
373.9740531088118
 20
0.0
 30
0.0
 40
77.500000000000142
 50
122.89510023437791
 51
148.04766129516801
  0
ARC
  5
E9
  8
1
  6
DASHDOT
 62
     3
 10
373.9740531088118
 20
0.0
 30
0.0
 40
77.499999999999986
 50
211.6204707402581
 51
238.05563907171549
  0
ARC
  5
EA
  8
1
  6
DASHDOT
 62
     3
 10
373.9740531088118
 20
0.0
 30
0.0
 40
77.500000000000028
 50
257.11922136341519
 51
282.04002121534359
  0
ARC
  5
EB
  8
1
  6
DASHDOT
 62
     3
 10
373.9740531088118
 20
0.0
 30
0.0
 40
77.499999999999986
 50
302.49054626815831
 51
327.7278434099166
  0
ARC
  5
EC
  8
1
  6
DASHDOT
 62
     3
 10
373.9740531088118
 20
0.0
 30
0.0
 40
77.5
 50
0.0
 51
7.545253394860965
  0
ARC
  5
ED
  8
1
  6
DASHDOT
 62
     3
 10
373.9740531088118
 20
0.0
 30
0.0
 40
77.499999999999915
 50
32.265681036826187
 51
56.106888391317042
  0
ARC
  5
EE
  8
1
  6
DASHDOT
 62
     3
 10
373.97405310881442
 20
0.0000000000005684
 30
0.0
 40
77.499999999999972
 50
101.73797942311499
 51
102.8933834589385
  0
ARC
  5
EF
  8
1
 62
     7
 10
-507.05081677480842
 20
0.0
 30
0.0
 40
45.0
 50
0.0
 51
74.533990046579461
  0
ARC
  5
F0
  8
1
 62
     7
 10
-507.05081677480842
 20
0.0
 30
0.0
 40
45.0
 50
105.4660099534206
 51
0.0
  0
ARC
  5
F1
  8
1
 62
     7
 10
-507.05081677480842
 20
0.0
 30
0.0
 40
118.5
 50
90.807486239094587
 51
89.192513760905442
  0
ARC
  5
F2
  8
1
  6
DASHDOT
 62
     3
 10
-507.05081677480842
 20
0.0
 30
0.0
 40
94.999999999999957
 50
130.675705538926
 51
139.29212131610311
  0
ARC
  5
F3
  8
1
  6
DASHDOT
 62
     3
 10
-507.05081677480842
 20
0.0
 30
0.0
 40
94.999999999999957
 50
220.675705538926
 51
229.29212131610311
  0
ARC
  5
F4
  8
1
  6
DASHDOT
 62
     3
 10
-507.05081677480842
 20
0.0
 30
0.0
 40
95.0
 50
310.67570553892608
 51
319.29212131610319
  0
ARC
  5
F5
  8
1
  6
DASHDOT
 62
     3
 10
-507.05081677480842
 20
0.0
 30
0.0
 40
95.0
 50
40.675705538926067
 51
49.292121316103113
  0
CIRCLE
  5
F6
  8
1
 62
     7
 10
373.9740531088118
 20
0.0
 30
0.0
 40
118.5
  0
CIRCLE
  5
F7
  8
1
 62
     7
 10
373.9740531088118
 20
0.0
 30
0.0
 40
103.2
  0
CIRCLE
  5
F8
  8
1
 62
     7
 10
373.9740531088118
 20
0.0
 30
0.0
 40
92.5
  0
CIRCLE
  5
F9
  8
1
 62
     7
 10
373.9740531088118
 20
0.0
 30
0.0
 40
65.0
  0
CIRCLE
  5
FA
  8
1
 62
     7
 10
373.9740531088118
 20
0.0
 30
0.0
 40
60.0
  0
CIRCLE
  5
FB
  8
1
  6
DASHED
 62
     7
 10
373.9740531088118
 20
77.499999999999986
 30
0.0
 40
15.0
  0
CIRCLE
  5
FC
  8
1
 62
     7
 10
373.9740531088118
 20
77.499999999999986
 30
0.0
 40
9.3999999999998636
  0
CIRCLE
  5
FD
  8
1
  6
DASHED
 62
     7
 10
319.17327756685438
 20
54.800775541957492
 30
0.0
 40
15.0
  0
CIRCLE
  5
FE
  8
1
  6
DASHED
 62
     7
 10
319.17327756685438
 20
-54.800775541957407
 30
0.0
 40
15.0
  0
CIRCLE
  5
FF
  8
1
  6
DASHED
 62
     7
 10
373.9740531088118
 20
-77.499999999999972
 30
0.0
 40
15.0
  0
CIRCLE
  5
100
  8
1
  6
DASHED
 62
     7
 10
428.77482865076911
 20
-54.800775541957442
 30
0.0
 40
15.0
  0
CIRCLE
  5
101
  8
1
  6
DASHED
 62
     7
 10
428.77482865076911
 20
54.800775541957378
 30
0.0
 40
15.0
  0
CIRCLE
  5
102
  8
1
 62
     7
 10
319.17327756685438
 20
54.800775541957492
 30
0.0
 40
9.3999999999999204
  0
CIRCLE
  5
103
  8
1
 62
     7
 10
319.17327756685438
 20
-54.800775541957407
 30
0.0
 40
9.4000000000000341
  0
CIRCLE
  5
104
  8
1
 62
     7
 10
373.9740531088118
 20
-77.499999999999972
 30
0.0
 40
9.4000000000000892
  0
CIRCLE
  5
105
  8
1
 62
     7
 10
428.77482865076911
 20
-54.800775541957442
 30
0.0
 40
9.3999999999999755
  0
CIRCLE
  5
106
  8
1
 62
     7
 10
428.77482865076911
 20
54.800775541957378
 30
0.0
 40
9.3999999999999755
  0
CIRCLE
  5
107
  8
1
 62
     7
 10
296.4740531088118
 20
0.0000000000000639
 30
0.0
 40
7.75
  0
CIRCLE
  5
108
  8
1
 62
     7
 10
451.47405310881192
 20
0.0
 30
0.0
 40
7.75
  0
CIRCLE
  5
109
  8
1
 62
     7
 10
343.74206195196962
 20
72.986483068391692
 30
0.0
 40
10.5
  0
CIRCLE
  5
10A
  8
1
 62
     7
 10
343.74206195196962
 20
72.986483068391692
 30
0.0
 40
10.0
  0
CIRCLE
  5
10B
  8
1
 62
     7
 10
300.98757004042011
 20
30.231991156842071
 30
0.0
 40
10.5
  0
CIRCLE
  5
10C
  8
1
 62
     7
 10
343.74206195196962
 20
-72.986483068391664
 30
0.0
 40
10.49999999999994
  0
CIRCLE
  5
10D
  8
1
 62
     7
 10
404.20604426565399
 20
-72.986483068391635
 30
0.0
 40
10.5
  0
CIRCLE
  5
10E
  8
1
 62
     7
 10
446.96053617720349
 20
-30.231991156842071
 30
0.0
 40
10.50000000000011
  0
CIRCLE
  5
10F
  8
1
 62
     7
 10
404.20604426565382
 20
72.986483068391692
 30
0.0
 40
10.5
  0
CIRCLE
  5
110
  8
1
 62
     7
 10
300.98757004042011
 20
30.231991156842071
 30
0.0
 40
10.0
  0
CIRCLE
  5
111
  8
1
 62
     7
 10
343.74206195196962
 20
-72.986483068391664
 30
0.0
 40
9.9999999999999432
  0
CIRCLE
  5
112
  8
1
 62
     7
 10
404.20604426565399
 20
-72.986483068391635
 30
0.0
 40
10.0
  0
CIRCLE
  5
113
  8
1
 62
     7
 10
446.96053617720349
 20
-30.231991156842071
 30
0.0
 40
10.0
  0
CIRCLE
  5
114
  8
1
 62
     7
 10
404.20604426565382
 20
72.986483068391692
 30
0.0
 40
10.0
  0
CIRCLE
  5
115
  8
1
 62
     7
 10
-507.05081677480842
 20
0.0
 30
0.0
 40
104.4999999999999
  0
CIRCLE
  5
116
  8
1
 62
     7
 10
-507.05081677480842
 20
0.0
 30
0.0
 40
74.89999999999992
  0
CIRCLE
  5
117
  8
1
 62
     7
 10
-574.22596098753036
 20
67.175144212722003
 30
0.0
 40
4.0
  0
CIRCLE
  5
118
  8
1
 62
     3
 10
-574.22596098753036
 20
67.175144212722003
 30
0.0
 40
5.0
  0
CIRCLE
  5
119
  8
1
 62
     7
 10
-574.22596098753036
 20
-67.175144212722003
 30
0.0
 40
4.0
  0
CIRCLE
  5
11A
  8
1
 62
     3
 10
-574.22596098753036
 20
-67.175144212722003
 30
0.0
 40
5.0
  0
CIRCLE
  5
11B
  8
1
 62
     7
 10
-439.87567256208638
 20
-67.175144212722032
 30
0.0
 40
4.0
  0
CIRCLE
  5
11C
  8
1
 62
     3
 10
-439.87567256208638
 20
-67.175144212722032
 30
0.0
 40
5.0
  0
CIRCLE
  5
11D
  8
1
 62
     7
 10
-439.87567256208638
 20
67.175144212722003
 30
0.0
 40
4.0
  0
CIRCLE
  5
11E
  8
1
 62
     3
 10
-439.87567256208638
 20
67.175144212722003
 30
0.0
 40
5.0
  0
TEXT
  5
11F
  8
1
 62
     7
 10
-547.30202142326402
 20
227.1047453469148
 30
0.0
 40
15.0
  1
MZ 250
 41
0.9
  7
SIMPLEX
  0
ENDSEC
  0
EOF
