  0
SECTION
  2
HEADER
  9
$ACADVER
  1
AC1009
  9
$INSBASE
 10
0.0
 20
0.0
 30
0.0
  9
$EXTMIN
 10
-247.32436704472599
 20
-37.5
 30
0.0
  9
$EXTMAX
 10
197.4176032081061
 20
119.06948626009481
 30
0.0
  9
$LIMMIN
 10
-241.999859808086
 20
-37.5
  9
$LIMMAX
 10
197.41760320810599
 20
119.06948626009471
  9
$ORTHOMODE
 70
     0
  9
$REGENMODE
 70
     1
  9
$FILLMODE
 70
     1
  9
$QTEXTMODE
 70
     0
  9
$MIRRTEXT
 70
     1
  9
$DRAGMODE
 70
     2
  9
$LTSCALE
 40
1.0
  9
$OSMODE
 70
    37
  9
$ATTMODE
 70
     1
  9
$TEXTSIZE
 40
3.5
  9
$TRACEWID
 40
0.5
  9
$TEXTSTYLE
  7
STANDARD
  9
$CLAYER
  8
0
  9
$CELTYPE
  6
BYLAYER
  9
$CECOLOR
 62
   256
  9
$DIMSCALE
 40
1.0
  9
$DIMASZ
 40
0.18
  9
$DIMEXO
 40
0.0625
  9
$DIMDLI
 40
0.38
  9
$DIMRND
 40
0.0
  9
$DIMDLE
 40
0.0
  9
$DIMEXE
 40
0.18
  9
$DIMTP
 40
0.0
  9
$DIMTM
 40
0.0
  9
$DIMTXT
 40
0.18
  9
$DIMCEN
 40
0.09
  9
$DIMTSZ
 40
0.0
  9
$DIMTOL
 70
     0
  9
$DIMLIM
 70
     0
  9
$DIMTIH
 70
     1
  9
$DIMTOH
 70
     1
  9
$DIMSE1
 70
     0
  9
$DIMSE2
 70
     0
  9
$DIMTAD
 70
     0
  9
$DIMZIN
 70
     0
  9
$DIMBLK
  1

  9
$DIMASO
 70
     1
  9
$DIMSHO
 70
     1
  9
$DIMPOST
  1

  9
$DIMAPOST
  1

  9
$DIMALT
 70
     0
  9
$DIMALTD
 70
     2
  9
$DIMALTF
 40
25.399999999999999
  9
$DIMLFAC
 40
1.0
  9
$DIMTOFL
 70
     0
  9
$DIMTVP
 40
0.0
  9
$DIMTIX
 70
     0
  9
$DIMSOXD
 70
     0
  9
$DIMSAH
 70
     0
  9
$DIMBLK1
  1

  9
$DIMBLK2
  1

  9
$DIMSTYLE
  2
STANDARD
  9
$DIMCLRD
 70
     0
  9
$DIMCLRE
 70
     0
  9
$DIMCLRT
 70
     0
  9
$DIMTFAC
 40
1.0
  9
$DIMGAP
 40
0.09
  9
$LUNITS
 70
     2
  9
$LUPREC
 70
     4
  9
$SKETCHINC
 40
0.1
  9
$FILLETRAD
 40
2.0
  9
$AUNITS
 70
     0
  9
$AUPREC
 70
     0
  9
$MENU
  1
ACAD
  9
$ELEVATION
 40
0.0
  9
$PELEVATION
 40
0.0
  9
$THICKNESS
 40
0.0
  9
$LIMCHECK
 70
     0
  9
$BLIPMODE
 70
     0
  9
$CHAMFERA
 40
0.0
  9
$CHAMFERB
 40
0.0
  9
$SKPOLY
 70
     0
  9
$TDCREATE
 40
2452095.0773336799
  9
$TDUPDATE
 40
2452095.0781047451
  9
$TDINDWG
 40
0.0007965278
  9
$TDUSRTIMER
 40
0.0007965278
  9
$USRTIMER
 70
     1
  9
$ANGBASE
 50
0.0
  9
$ANGDIR
 70
     0
  9
$PDMODE
 70
     0
  9
$PDSIZE
 40
0.0
  9
$PLINEWID
 40
0.0
  9
$COORDS
 70
     1
  9
$SPLFRAME
 70
     0
  9
$SPLINETYPE
 70
     6
  9
$SPLINESEGS
 70
     8
  9
$ATTDIA
 70
     0
  9
$ATTREQ
 70
     1
  9
$HANDLING
 70
 10241
  9
$HANDSEED
  5
171
  9
$SURFTAB1
 70
     6
  9
$SURFTAB2
 70
     6
  9
$SURFTYPE
 70
     6
  9
$SURFU
 70
     6
  9
$SURFV
 70
     6
  9
$UCSNAME
  2

  9
$UCSORG
 10
0.0
 20
0.0
 30
0.0
  9
$UCSXDIR
 10
1.0
 20
0.0
 30
0.0
  9
$UCSYDIR
 10
0.0
 20
1.0
 30
0.0
  9
$PUCSNAME
  2

  9
$PUCSORG
 10
0.0
 20
0.0
 30
0.0
  9
$PUCSXDIR
 10
1.0
 20
0.0
 30
0.0
  9
$PUCSYDIR
 10
0.0
 20
1.0
 30
0.0
  9
$USERI1
 70
     0
  9
$USERI2
 70
     0
  9
$USERI3
 70
     0
  9
$USERI4
 70
     0
  9
$USERI5
 70
     0
  9
$USERR1
 40
0.0
  9
$USERR2
 40
0.0
  9
$USERR3
 40
0.0
  9
$USERR4
 40
0.0
  9
$USERR5
 40
0.0
  9
$WORLDVIEW
 70
     1
  9
$SHADEDGE
 70
     3
  9
$SHADEDIF
 70
    70
  9
$TILEMODE
 70
     1
  9
$MAXACTVP
 70
    64
  9
$PLIMCHECK
 70
     0
  9
$PEXTMIN
 10
1.0000000000000000E+020
 20
1.0000000000000000E+020
 30
1.0000000000000000E+020
  9
$PEXTMAX
 10
-1.0000000000000000E+020
 20
-1.0000000000000000E+020
 30
-1.0000000000000000E+020
  9
$PLIMMIN
 10
0.0
 20
0.0
  9
$PLIMMAX
 10
12.0
 20
9.0
  9
$UNITMODE
 70
     0
  9
$VISRETAIN
 70
     1
  9
$PLINEGEN
 70
     0
  9
$PSLTSCALE
 70
     1
  0
ENDSEC
  0
SECTION
  2
TABLES
  0
TABLE
  2
VPORT
 70
     2
  0
VPORT
  2
*ACTIVE
 70
     0
 10
0.0
 20
0.0
 11
1.0
 21
1.0
 12
-213.541548542002
 22
113.46164108974109
 13
0.0
 23
0.0
 14
1.0
 24
1.0
 15
0.0
 25
0.0
 16
0.0
 26
0.0
 36
1.0
 17
0.0
 27
0.0
 37
0.0
 40
8.9999998571572082
 41
2.4144144144144142
 42
50.0
 43
0.0
 44
0.0
 50
0.0
 51
0.0
 71
     0
 72
   100
 73
     1
 74
     1
 75
     0
 76
     0
 77
     0
 78
     0
  0
ENDTAB
  0
TABLE
  2
LTYPE
 70
     9
  0
LTYPE
  2
CONTINUOUS
 70
     0
  3
Solid line
 72
    65
 73
     0
 40
0.0
  0
LTYPE
  2
BORDER
 70
     0
  3
__ __ . __ __ .
 72
    65
 73
     6
 40
20.23633053364042
 49
5.7818087238972629
 49
-2.890904361948631
 49
5.7818087238972629
 49
-2.890904361948631
 49
0.0
 49
-2.890904361948631
  0
LTYPE
  2
CENTER
 70
     0
  3
____ _ ____ _
 72
    65
 73
     4
 40
23.127234895589059
 49
14.454521809743159
 49
-2.890904361948631
 49
2.890904361948631
 49
-2.890904361948631
  0
LTYPE
  2
DASHDOT
 70
     0
  3
__ . __ . __ .
 72
    65
 73
     4
 40
11.563617447794529
 49
5.7818087238972629
 49
-2.890904361948631
 49
0.0
 49
-2.890904361948631
  0
LTYPE
  2
DASHED
 70
     0
  3
__ __ __ __ __
 72
    65
 73
     2
 40
8.6727130858458956
 49
5.7818087238972629
 49
-2.890904361948631
  0
LTYPE
  2
DIVIDE
 70
     0
  3
__ . . __ . . 
 72
    65
 73
     6
 40
14.454521809743159
 49
5.7818087238972629
 49
-2.890904361948631
 49
0.0
 49
-2.890904361948631
 49
0.0
 49
-2.890904361948631
  0
LTYPE
  2
DOT
 70
     0
  3
..............
 72
    65
 73
     4
 40
5.7818087238972629
 49
0.0
 49
-2.890904361948631
 49
0.0
 49
-2.890904361948631
  0
LTYPE
  2
HIDDEN
 70
     0
  3
_ _ _ _ _ _ _
 72
    65
 73
     2
 40
4.3363565429229469
 49
2.890904361948631
 49
-1.445452180974315
  0
LTYPE
  2
PHANTOM
 70
     0
  3
_____ _ _ _____ _ _ 
 72
    65
 73
     6
 40
28.909043619486319
 49
14.454521809743159
 49
-2.890904361948631
 49
2.890904361948631
 49
-2.890904361948631
 49
2.890904361948631
 49
-2.890904361948631
  0
ENDTAB
  0
TABLE
  2
LAYER
 70
     2
  0
LAYER
  2
0
 70
     0
 62
     7
  6
CONTINUOUS
  0
LAYER
  2
1
 70
     0
 62
     7
  6
CONTINUOUS
  0
ENDTAB
  0
TABLE
  2
STYLE
 70
     4
  0
STYLE
  2
STANDARD
 70
     0
 40
0.0
 41
1.0
 50
0.0
 71
     0
 42
3.5
  3
txt
  4

  0
STYLE
  2
SIMPLEX
 70
     0
 40
0.0
 41
1.0
 50
0.0
 71
     0
 42
3.5
  3
simplex
  4

  0
STYLE
  2
COMPLEX
 70
     0
 40
0.0
 41
1.0
 50
0.0
 71
     0
 42
3.5
  3
complex
  4

  0
STYLE
  2
ITALIC
 70
     0
 40
0.0
 41
1.0
 50
0.0
 71
     0
 42
3.5
  3
italic
  4

  0
ENDTAB
  0
TABLE
  2
VIEW
 70
     0
  0
ENDTAB
  0
TABLE
  2
UCS
 70
     0
  0
ENDTAB
  0
TABLE
  2
APPID
 70
     1
  0
APPID
  2
ACAD
 70
     0
  0
ENDTAB
  0
TABLE
  2
DIMSTYLE
 70
     1
  0
DIMSTYLE
  2
STANDARD
 70
     0
  3

  4

  5

  6

  7

 40
1.0
 41
0.18
 42
0.0625
 43
0.38
 44
0.18
 45
0.0
 46
0.0
 47
0.0
 48
0.0
140
0.18
141
0.09
142
0.0
143
25.399999999999999
144
1.0
145
0.0
146
1.0
147
0.09
 71
     0
 72
     0
 73
     1
 74
     1
 75
     0
 76
     0
 77
     0
 78
     0
170
     0
171
     2
172
     0
173
     0
174
     0
175
     0
176
     0
177
     0
178
     0
  0
ENDTAB
  0
ENDSEC
  0
SECTION
  2
BLOCKS
  0
BLOCK
  8
0
  2
$MODEL_SPACE
 70
     0
 10
0.0
 20
0.0
 30
0.0
  3
$MODEL_SPACE
  1

  0
ENDBLK
  5
20
  8
0
  0
BLOCK
 67
     1
  8
0
  2
$PAPER_SPACE
 70
     0
 10
0.0
 20
0.0
 30
0.0
  3
$PAPER_SPACE
  1

  0
ENDBLK
  5
1C
 67
     1
  8
0
  0
ENDSEC
  0
SECTION
  2
ENTITIES
  0
LINE
  5
33
  8
1
 62
     7
 10
-212.50831018795739
 20
40.971042947831812
 30
0.0
 11
-221.49738557112769
 21
56.540578224549208
 31
0.0
  0
LINE
  5
34
  8
1
 62
     7
 10
-117.0
 20
-34.79999999999999
 30
0.0
 11
-117.0
 21
60.0
 31
0.0
  0
LINE
  5
35
  8
1
 62
     7
 10
17.000000000000011
 20
-15.0
 30
0.0
 11
4.0000000000000133
 21
-15.0
 31
0.0
  0
LINE
  5
36
  8
1
 62
     7
 10
17.000000000000011
 20
-27.500000000000011
 30
0.0
 11
4.0000000000000133
 21
-27.500000000000011
 31
0.0
  0
LINE
  5
37
  8
1
 62
     7
 10
4.0000000000000133
 20
-14.30000000000001
 30
0.0
 11
4.0000000000000133
 21
-29.000000000000011
 31
0.0
  0
LINE
  5
38
  8
1
 62
     7
 10
17.000000000000011
 20
-15.0
 30
0.0
 11
17.000000000000011
 21
-27.500000000000011
 31
0.0
  0
LINE
  5
39
  8
1
 62
     7
 10
17.000000000000011
 20
27.500000000000011
 30
0.0
 11
17.000000000000011
 21
15.0
 31
0.0
  0
LINE
  5
3A
  8
1
 62
     7
 10
-113.0000000000001
 20
54.710553526545908
 30
0.0
 11
-113.0000000000001
 21
56.393850076202817
 31
0.0
  0
LINE
  5
3B
  8
1
 62
     7
 10
4.0000000000000133
 20
54.710553526545908
 30
0.0
 11
4.0000000000000133
 21
56.397641396651821
 31
0.0
  0
LINE
  5
3C
  8
1
  6
DASHDOT
 62
     3
 10
179.94902609756659
 20
-8.2972870344453327
 30
0.0
 11
186.23288850739289
 21
-10.900148068681879
 31
0.0
  0
LINE
  5
3D
  8
1
  6
DASHDOT
 62
     3
 10
133.74022832708741
 20
10.84302370304272
 30
0.0
 11
140.19943080460749
 21
8.1675344347400056
 31
0.0
  0
LINE
  5
3E
  8
1
  6
DASHDOT
 62
     3
 10
-204.499859808086
 20
58.360482006714498
 30
0.0
 11
-204.499859808086
 21
49.639517993285523
 31
0.0
  0
LINE
  5
3F
  8
1
  6
DASHDOT
 62
     3
 10
-200.13937780137141
 20
54.0
 30
0.0
 11
-208.86034181480039
 21
54.0
 31
0.0
  0
LINE
  5
40
  8
1
 62
     7
 10
-189.499859808086
 20
31.401273859510908
 30
0.0
 11
-189.499859808086
 21
23.048861143232209
 31
0.0
  0
LINE
  5
41
  8
1
 62
     7
 10
-219.49985980808589
 20
31.401273859510908
 30
0.0
 11
-219.49985980808589
 21
23.048861143232209
 31
0.0
  0
LINE
  5
42
  8
1
  6
DASHDOT
 62
     3
 10
52.641687699759672
 20
25.000000000000011
 30
0.0
 11
67.929305962450371
 21
25.000000000000011
 31
0.0
  0
LINE
  5
43
  8
1
 62
     7
 10
61.999999999999929
 20
22.750000000000011
 30
0.0
 11
66.999999999999929
 21
22.750000000000011
 31
0.0
  0
LINE
  5
44
  8
1
 62
     7
 10
61.999999999999929
 20
27.250000000000011
 30
0.0
 11
66.999999999999929
 21
27.250000000000011
 31
0.0
  0
LINE
  5
45
  8
1
 62
     7
 10
61.999999999999929
 20
21.0
 30
0.0
 11
53.299999999999933
 21
21.0
 31
0.0
  0
LINE
  5
46
  8
1
 62
     7
 10
61.999999999999929
 20
29.000000000000011
 30
0.0
 11
61.999999999999929
 21
21.0
 31
0.0
  0
LINE
  5
47
  8
1
 62
     7
 10
53.299999999999933
 20
29.000000000000011
 30
0.0
 11
61.999999999999929
 21
29.000000000000011
 31
0.0
  0
LINE
  5
48
  8
1
 62
     7
 10
46.499999999999943
 20
34.800000000000011
 30
0.0
 11
2.0
 21
34.800000000000011
 31
0.0
  0
LINE
  5
49
  8
1
 62
     7
 10
46.499999999999943
 20
34.800000000000011
 30
0.0
 11
46.499999999999943
 21
33.0
 31
0.0
  0
LINE
  5
4A
  8
1
 62
     7
 10
46.499999999999943
 20
18.700000000000021
 30
0.0
 11
46.499999999999943
 21
17.700000000000021
 31
0.0
  0
LINE
  5
4B
  8
1
 62
     7
 10
46.499999999999943
 20
17.700000000000021
 30
0.0
 11
17.500000000000011
 21
17.700000000000021
 31
0.0
  0
LINE
  5
4C
  8
1
 62
     7
 10
17.500000000000011
 20
17.700000000000021
 30
0.0
 11
17.500000000000011
 21
23.5
 31
0.0
  0
LINE
  5
4D
  8
1
 62
     7
 10
17.500000000000011
 20
23.5
 30
0.0
 11
17.000000000000011
 21
23.5
 31
0.0
  0
LINE
  5
4E
  8
1
 62
     7
 10
17.000000000000011
 20
27.500000000000011
 30
0.0
 11
4.0000000000000133
 21
27.500000000000011
 31
0.0
  0
LINE
  5
4F
  8
1
 62
     7
 10
12.375
 20
24.49759526419172
 30
0.0
 11
17.000000000000011
 21
24.49759526419172
 31
0.0
  0
LINE
  5
50
  8
1
 62
     7
 10
8.6250000000000124
 20
24.49759526419172
 30
0.0
 11
4.0000000000000133
 21
24.49759526419172
 31
0.0
  0
LINE
  5
51
  8
1
 62
     7
 10
8.6250000000000124
 20
18.002404735808408
 30
0.0
 11
4.0000000000000133
 21
18.002404735808408
 31
0.0
  0
LINE
  5
52
  8
1
 62
     7
 10
12.375
 20
18.002404735808408
 30
0.0
 11
17.000000000000011
 21
18.002404735808408
 31
0.0
  0
LINE
  5
53
  8
1
 62
     7
 10
4.0000000000000133
 20
15.0
 30
0.0
 11
17.000000000000011
 21
15.0
 31
0.0
  0
LINE
  5
54
  8
1
 62
     7
 10
15.700000000000021
 20
17.500000000000011
 30
0.0
 11
15.700000000000021
 21
25.000000000000011
 31
0.0
  0
LINE
  5
55
  8
1
 62
     7
 10
5.2999999999999119
 20
17.500000000000011
 30
0.0
 11
5.2999999999999119
 21
25.000000000000011
 31
0.0
  0
LINE
  5
56
  8
1
 62
     7
 10
4.0000000000000133
 20
29.000000000000011
 30
0.0
 11
2.0
 21
29.000000000000011
 31
0.0
  0
LINE
  5
57
  8
1
 62
     7
 10
2.0
 20
23.900000000000009
 30
0.0
 11
4.0000000000000133
 21
23.900000000000009
 31
0.0
  0
LINE
  5
58
  8
1
 62
     7
 10
4.0000000000000133
 20
29.000000000000011
 30
0.0
 11
4.0000000000000133
 21
14.30000000000001
 31
0.0
  0
LINE
  5
59
  8
1
 62
     7
 10
2.0
 20
27.500000000000011
 30
0.0
 11
0.0
 21
27.500000000000011
 31
0.0
  0
LINE
  5
5A
  8
1
 62
     7
 10
46.499999999999943
 20
33.0
 30
0.0
 11
46.499999999999943
 21
18.700000000000021
 31
0.0
  0
LINE
  5
5B
  8
1
 62
     7
 10
4.0000000000000133
 20
17.800000000000011
 30
0.0
 11
2.3999999999998058
 21
17.800000000000011
 31
0.0
  0
LINE
  5
5C
  8
1
 62
     7
 10
2.3999999999998058
 20
17.800000000000011
 30
0.0
 11
2.3999999999998058
 21
14.30000000000001
 31
0.0
  0
LINE
  5
5D
  8
1
 62
     7
 10
2.3999999999998058
 20
14.30000000000001
 30
0.0
 11
4.0000000000000133
 21
14.30000000000001
 31
0.0
  0
LINE
  5
5E
  8
1
 62
     7
 10
2.3999999999998058
 20
15.0
 30
0.0
 11
0.0
 21
15.0
 31
0.0
  0
LINE
  5
5F
  8
1
 62
     7
 10
51.699999999999932
 20
37.5
 30
0.0
 11
21.0
 21
37.5
 31
0.0
  0
LINE
  5
60
  8
1
 62
     7
 10
51.699999999999932
 20
37.5
 30
0.0
 11
51.699999999999932
 21
35.0
 31
0.0
  0
LINE
  5
61
  8
1
 62
     7
 10
51.699999999999932
 20
35.0
 30
0.0
 11
50.499999999999929
 21
35.0
 31
0.0
  0
LINE
  5
62
  8
1
 62
     7
 10
50.499999999999929
 20
35.0
 30
0.0
 11
50.499999999999929
 21
28.000000000000011
 31
0.0
  0
LINE
  5
63
  8
1
 62
     7
 10
50.499999999999929
 20
28.000000000000011
 30
0.0
 11
51.999999999999929
 21
28.000000000000011
 31
0.0
  0
LINE
  5
64
  8
1
 62
     7
 10
51.999999999999929
 20
28.000000000000011
 30
0.0
 11
51.999999999999929
 21
-28.000000000000011
 31
0.0
  0
LINE
  5
65
  8
1
 62
     7
 10
20.000000000000011
 20
35.5
 30
0.0
 11
20.000000000000011
 21
36.5
 31
0.0
  0
LINE
  5
66
  8
1
 62
     7
 10
20.000000000000011
 20
35.5
 30
0.0
 11
47.499999999999929
 21
35.5
 31
0.0
  0
LINE
  5
67
  8
1
 62
     7
 10
47.499999999999929
 20
35.5
 30
0.0
 11
47.499999999999929
 21
17.000000000000011
 31
0.0
  0
LINE
  5
68
  8
1
 62
     7
 10
47.499999999999929
 20
17.000000000000011
 30
0.0
 11
17.000000000000011
 21
17.000000000000011
 31
0.0
  0
LINE
  5
69
  8
1
 62
     7
 10
20.000000000000011
 20
36.5
 30
0.0
 11
21.0
 21
37.5
 31
0.0
  0
LINE
  5
6A
  8
1
 62
     7
 10
56.999999999999929
 20
34.20000000000001
 30
0.0
 11
63.999999999999943
 21
34.20000000000001
 31
0.0
  0
LINE
  5
6B
  8
1
 62
     7
 10
63.999999999999943
 20
34.20000000000001
 30
0.0
 11
63.999999999999943
 21
31.000000000000011
 31
0.0
  0
LINE
  5
6C
  8
1
 62
     7
 10
63.999999999999943
 20
31.000000000000011
 30
0.0
 11
66.999999999999929
 21
31.000000000000011
 31
0.0
  0
LINE
  5
6D
  8
1
 62
     7
 10
56.999999999999929
 20
19.000000000000011
 30
0.0
 11
66.999999999999929
 21
19.000000000000011
 31
0.0
  0
LINE
  5
6E
  8
1
 62
     7
 10
56.999999999999929
 20
31.500000000000011
 30
0.0
 11
63.999999999999943
 21
31.500000000000011
 31
0.0
  0
LINE
  5
6F
  8
1
 62
     7
 10
63.349999999999902
 20
36.5
 30
0.0
 11
63.349999999999902
 21
31.500000000000011
 31
0.0
  0
LINE
  5
70
  8
1
 62
     7
 10
60.499999999999929
 20
35.0
 30
0.0
 11
60.499999999999929
 21
31.500000000000011
 31
0.0
  0
LINE
  5
71
  8
1
 62
     7
 10
60.499999999999929
 20
35.0
 30
0.0
 11
56.999999999999929
 21
35.0
 31
0.0
  0
LINE
  5
72
  8
1
 62
     7
 10
62.349999999999902
 20
37.5
 30
0.0
 11
52.199999999999932
 21
37.5
 31
0.0
  0
LINE
  5
73
  8
1
 62
     7
 10
52.199999999999932
 20
37.5
 30
0.0
 11
52.199999999999932
 21
35.0
 31
0.0
  0
LINE
  5
74
  8
1
 62
     7
 10
52.199999999999932
 20
35.0
 30
0.0
 11
53.299999999999933
 21
35.0
 31
0.0
  0
LINE
  5
75
  8
1
 62
     7
 10
53.299999999999933
 20
14.500000000000011
 30
0.0
 11
56.999999999999929
 21
14.500000000000011
 31
0.0
  0
LINE
  5
76
  8
1
 62
     3
 10
50.499999999999929
 20
37.5
 30
0.0
 11
50.499999999999929
 21
35.0
 31
0.0
  0
LINE
  5
77
  8
1
 62
     3
 10
53.299999999999933
 20
37.5
 30
0.0
 11
53.299999999999933
 21
35.0
 31
0.0
  0
LINE
  5
78
  8
1
 62
     3
 10
53.299999999999933
 20
-35.0
 30
0.0
 11
53.299999999999933
 21
-37.5
 31
0.0
  0
LINE
  5
79
  8
1
 62
     3
 10
50.499999999999929
 20
-35.0
 30
0.0
 11
50.499999999999929
 21
-37.5
 31
0.0
  0
LINE
  5
7A
  8
1
 62
     7
 10
56.999999999999929
 20
-14.500000000000011
 30
0.0
 11
53.299999999999933
 21
-14.500000000000011
 31
0.0
  0
LINE
  5
7B
  8
1
 62
     7
 10
53.299999999999933
 20
-35.0
 30
0.0
 11
52.199999999999932
 21
-35.0
 31
0.0
  0
LINE
  5
7C
  8
1
 62
     7
 10
52.199999999999932
 20
-35.0
 30
0.0
 11
52.199999999999932
 21
-37.5
 31
0.0
  0
LINE
  5
7D
  8
1
 62
     7
 10
52.199999999999932
 20
-37.5
 30
0.0
 11
62.349999999999902
 21
-37.5
 31
0.0
  0
LINE
  5
7E
  8
1
 62
     7
 10
56.999999999999929
 20
-35.0
 30
0.0
 11
60.499999999999929
 21
-35.0
 31
0.0
  0
LINE
  5
7F
  8
1
 62
     7
 10
60.499999999999929
 20
-31.500000000000011
 30
0.0
 11
60.499999999999929
 21
-35.0
 31
0.0
  0
LINE
  5
80
  8
1
 62
     7
 10
63.349999999999902
 20
-31.500000000000011
 30
0.0
 11
63.349999999999902
 21
-36.5
 31
0.0
  0
LINE
  5
81
  8
1
 62
     7
 10
63.999999999999943
 20
-31.500000000000011
 30
0.0
 11
56.999999999999929
 21
-31.500000000000011
 31
0.0
  0
LINE
  5
82
  8
1
 62
     7
 10
66.999999999999929
 20
-19.000000000000011
 30
0.0
 11
56.999999999999929
 21
-19.000000000000011
 31
0.0
  0
LINE
  5
83
  8
1
 62
     7
 10
66.999999999999929
 20
31.000000000000011
 30
0.0
 11
66.999999999999929
 21
-31.000000000000011
 31
0.0
  0
LINE
  5
84
  8
1
 62
     7
 10
66.999999999999929
 20
-31.000000000000011
 30
0.0
 11
63.999999999999943
 21
-31.000000000000011
 31
0.0
  0
LINE
  5
85
  8
1
 62
     7
 10
63.999999999999943
 20
-31.000000000000011
 30
0.0
 11
63.999999999999943
 21
-34.20000000000001
 31
0.0
  0
LINE
  5
86
  8
1
 62
     7
 10
63.999999999999943
 20
-34.20000000000001
 30
0.0
 11
56.999999999999929
 21
-34.20000000000001
 31
0.0
  0
LINE
  5
87
  8
1
 62
     7
 10
21.0
 20
-37.5
 30
0.0
 11
20.000000000000011
 21
-36.5
 31
0.0
  0
LINE
  5
88
  8
1
 62
     7
 10
17.000000000000011
 20
-17.000000000000011
 30
0.0
 11
47.499999999999929
 21
-17.000000000000011
 31
0.0
  0
LINE
  5
89
  8
1
 62
     7
 10
47.499999999999929
 20
-17.000000000000011
 30
0.0
 11
47.499999999999929
 21
-35.5
 31
0.0
  0
LINE
  5
8A
  8
1
 62
     7
 10
47.499999999999929
 20
-35.5
 30
0.0
 11
20.000000000000011
 21
-35.5
 31
0.0
  0
LINE
  5
8B
  8
1
 62
     7
 10
20.000000000000011
 20
-36.5
 30
0.0
 11
20.000000000000011
 21
-35.5
 31
0.0
  0
LINE
  5
8C
  8
1
 62
     7
 10
51.999999999999929
 20
-28.000000000000011
 30
0.0
 11
50.499999999999929
 21
-28.000000000000011
 31
0.0
  0
LINE
  5
8D
  8
1
 62
     7
 10
50.499999999999929
 20
-28.000000000000011
 30
0.0
 11
50.499999999999929
 21
-35.0
 31
0.0
  0
LINE
  5
8E
  8
1
 62
     7
 10
50.499999999999929
 20
-35.0
 30
0.0
 11
51.699999999999932
 21
-35.0
 31
0.0
  0
LINE
  5
8F
  8
1
 62
     7
 10
51.699999999999932
 20
-35.0
 30
0.0
 11
51.699999999999932
 21
-37.5
 31
0.0
  0
LINE
  5
90
  8
1
 62
     7
 10
21.0
 20
-37.5
 30
0.0
 11
51.699999999999932
 21
-37.5
 31
0.0
  0
LINE
  5
91
  8
1
 62
     7
 10
0.0
 20
-15.0
 30
0.0
 11
2.3999999999998058
 21
-15.0
 31
0.0
  0
LINE
  5
92
  8
1
 62
     7
 10
4.0000000000000133
 20
-14.30000000000001
 30
0.0
 11
2.3999999999998058
 21
-14.30000000000001
 31
0.0
  0
LINE
  5
93
  8
1
 62
     7
 10
2.3999999999998058
 20
-14.30000000000001
 30
0.0
 11
2.3999999999998058
 21
-17.800000000000011
 31
0.0
  0
LINE
  5
94
  8
1
 62
     7
 10
2.3999999999998058
 20
-17.800000000000011
 30
0.0
 11
4.0000000000000133
 21
-17.800000000000011
 31
0.0
  0
LINE
  5
95
  8
1
 62
     7
 10
46.499999999999943
 20
-17.699999999999999
 30
0.0
 11
46.499999999999943
 21
-34.79999999999999
 31
0.0
  0
LINE
  5
96
  8
1
 62
     7
 10
0.0
 20
-27.500000000000011
 30
0.0
 11
2.0
 21
-27.500000000000011
 31
0.0
  0
LINE
  5
97
  8
1
 62
     7
 10
4.0000000000000133
 20
-23.900000000000009
 30
0.0
 11
2.0
 21
-23.900000000000009
 31
0.0
  0
LINE
  5
98
  8
1
 62
     7
 10
2.0
 20
-23.900000000000009
 30
0.0
 11
2.0
 21
-29.000000000000011
 31
0.0
  0
LINE
  5
99
  8
1
 62
     7
 10
2.0
 20
-29.000000000000011
 30
0.0
 11
4.0000000000000133
 21
-29.000000000000011
 31
0.0
  0
LINE
  5
9A
  8
1
 62
     7
 10
5.2999999999999119
 20
-25.000000000000011
 30
0.0
 11
5.2999999999999119
 21
-17.500000000000011
 31
0.0
  0
LINE
  5
9B
  8
1
 62
     7
 10
15.700000000000021
 20
-25.000000000000011
 30
0.0
 11
15.700000000000021
 21
-17.500000000000011
 31
0.0
  0
LINE
  5
9C
  8
1
 62
     7
 10
17.000000000000011
 20
-18.00240473580838
 30
0.0
 11
12.375
 21
-18.002404735808369
 31
0.0
  0
LINE
  5
9D
  8
1
 62
     7
 10
4.0000000000000133
 20
-18.00240473580838
 30
0.0
 11
8.6250000000000124
 21
-18.002404735808369
 31
0.0
  0
LINE
  5
9E
  8
1
 62
     7
 10
4.0000000000000133
 20
-24.497595264191641
 30
0.0
 11
8.6250000000000124
 21
-24.497595264191659
 31
0.0
  0
LINE
  5
9F
  8
1
 62
     7
 10
17.000000000000011
 20
-24.497595264191641
 30
0.0
 11
12.375
 21
-24.497595264191659
 31
0.0
  0
LINE
  5
A0
  8
1
 62
     7
 10
17.000000000000011
 20
-23.5
 30
0.0
 11
17.500000000000011
 21
-23.5
 31
0.0
  0
LINE
  5
A1
  8
1
 62
     7
 10
17.500000000000011
 20
-23.5
 30
0.0
 11
17.500000000000011
 21
-17.699999999999999
 31
0.0
  0
LINE
  5
A2
  8
1
 62
     7
 10
17.500000000000011
 20
-17.699999999999999
 30
0.0
 11
46.499999999999943
 21
-17.699999999999999
 31
0.0
  0
LINE
  5
A3
  8
1
 62
     7
 10
46.499999999999943
 20
-34.79999999999999
 30
0.0
 11
0.0
 21
-34.79999999999999
 31
0.0
  0
LINE
  5
A4
  8
1
 62
     7
 10
0.0
 20
12.000000000000011
 30
0.0
 11
51.999999999999929
 21
12.000000000000011
 31
0.0
  0
LINE
  5
A5
  8
1
 62
     7
 10
0.0
 20
10.0
 30
0.0
 11
51.999999999999929
 21
10.0
 31
0.0
  0
LINE
  5
A6
  8
1
 62
     7
 10
0.0
 20
-10.0
 30
0.0
 11
51.999999999999929
 21
-10.0
 31
0.0
  0
LINE
  5
A7
  8
1
 62
     7
 10
157.4176032081061
 20
9.6824583655185137
 30
0.0
 11
157.4176032081061
 21
12.000000000000011
 31
0.0
  0
LINE
  5
A8
  8
1
 62
     7
 10
157.4176032081061
 20
12.000000000000011
 30
0.0
 11
162.41760320810599
 21
12.000000000000011
 31
0.0
  0
LINE
  5
A9
  8
1
 62
     7
 10
162.41760320810599
 20
12.000000000000011
 30
0.0
 11
162.41760320810599
 21
9.6824583655185137
 31
0.0
  0
LINE
  5
AA
  8
1
 62
     7
 10
0.0
 20
60.0
 30
0.0
 11
2.0
 21
60.0
 31
0.0
  0
LINE
  5
AB
  8
1
 62
     7
 10
0.0
 20
56.75
 30
0.0
 11
2.0
 21
56.75
 31
0.0
  0
LINE
  5
AC
  8
1
  6
DASHDOT
 62
     3
 10
-0.9150384116433938
 20
54.0
 30
0.0
 11
2.7837074359574099
 21
54.0
 31
0.0
  0
LINE
  5
AD
  8
1
 62
     7
 10
0.0
 20
51.25
 30
0.0
 11
2.0
 21
51.25
 31
0.0
  0
LINE
  5
AE
  8
1
 62
     7
 10
0.0
 20
60.0
 30
0.0
 11
0.0
 21
-34.79999999999999
 31
0.0
  0
LINE
  5
AF
  8
1
 62
     7
 10
2.0
 20
60.0
 30
0.0
 11
2.0
 21
23.900000000000009
 31
0.0
  0
LINE
  5
B0
  8
1
 62
     7
 10
56.999999999999929
 20
35.0
 30
0.0
 11
56.999999999999929
 21
-35.0
 31
0.0
  0
LINE
  5
B1
  8
1
  6
DASHED
 62
     3
 10
191.09544404877559
 20
-4.4312965979643044
 30
0.0
 11
191.08676163989239
 21
-4.4805369856149033
 31
0.0
  0
LINE
  5
B2
  8
1
 62
     7
 10
53.299999999999933
 20
-35.0
 30
0.0
 11
53.299999999999933
 21
35.0
 31
0.0
  0
LINE
  5
B3
  8
1
 62
     7
 10
3.1000000000000081
 20
34.800000000000011
 30
0.0
 11
3.1000000000000081
 21
54.710553526545908
 31
0.0
  0
LINE
  5
B4
  8
1
 62
     7
 10
4.8999999999999204
 20
54.710553526545908
 30
0.0
 11
4.8999999999999204
 21
34.800000000000011
 31
0.0
  0
LINE
  5
B5
  8
1
 62
     7
 10
3.1000000000000081
 20
54.710553526545908
 30
0.0
 11
4.8999999999999204
 21
54.710553526545908
 31
0.0
  0
LINE
  5
B6
  8
1
 62
     7
 10
4.3000000000000114
 20
56.434607462189589
 30
0.0
 11
4.3000000000000114
 21
54.710553526545908
 31
0.0
  0
LINE
  5
B7
  8
1
 62
     7
 10
4.6000000000000076
 20
56.387235455631533
 30
0.0
 11
4.6000000000000076
 21
54.710553526545908
 31
0.0
  0
LINE
  5
B8
  8
1
 62
     7
 10
3.3999999999998209
 20
54.710553526545908
 30
0.0
 11
3.3999999999998209
 21
56.387235455631533
 31
0.0
  0
LINE
  5
B9
  8
1
 62
     7
 10
3.6999999999999171
 20
54.710553526545908
 30
0.0
 11
3.6999999999999171
 21
56.434607462189589
 31
0.0
  0
LINE
  5
BA
  8
1
  6
DASHDOT
 62
     3
 10
162.7148079948152
 20
0.0
 30
0.0
 11
157.120398421397
 21
0.0
 31
0.0
  0
LINE
  5
BB
  8
1
  6
DASHDOT
 62
     3
 10
159.9176032081061
 20
2.7972047867091012
 30
0.0
 11
159.9176032081061
 21
-2.7972047867091012
 31
0.0
  0
LINE
  5
BC
  8
1
 62
     7
 10
-191.499859808086
 20
37.113248654051922
 30
0.0
 11
-195.499859808086
 21
39.422649730810399
 31
0.0
  0
LINE
  5
BD
  8
1
 62
     7
 10
-213.49985980808589
 20
39.422649730810399
 30
0.0
 11
-217.49985980808589
 21
37.113248654051922
 31
0.0
  0
LINE
  5
BE
  8
1
 62
     7
 10
-201.999859808086
 20
12.000000000000011
 30
0.0
 11
-201.999859808086
 21
9.6824583655185137
 31
0.0
  0
LINE
  5
BF
  8
1
 62
     7
 10
-206.99985980808589
 20
12.000000000000011
 30
0.0
 11
-201.999859808086
 21
12.000000000000011
 31
0.0
  0
LINE
  5
C0
  8
1
 62
     7
 10
-206.99985980808589
 20
9.6824583655185137
 30
0.0
 11
-206.99985980808589
 21
12.000000000000011
 31
0.0
  0
LINE
  5
C1
  8
1
 62
     7
 10
-210.499859808086
 20
60.0
 30
0.0
 11
-198.499859808086
 21
60.0
 31
0.0
  0
LINE
  5
C2
  8
1
 62
     7
 10
-196.49985980808589
 20
58.0
 30
0.0
 11
-196.49985980808589
 21
41.154700538379288
 31
0.0
  0
LINE
  5
C3
  8
1
  6
DASHDOT
 62
     3
 10
-201.7026550213769
 20
0.0
 30
0.0
 11
-207.2970645947949
 21
0.0
 31
0.0
  0
LINE
  5
C4
  8
1
  6
DASHDOT
 62
     3
 10
-204.499859808086
 20
-2.7972047867091012
 30
0.0
 11
-204.499859808086
 21
2.7972047867091012
 31
0.0
  0
LINE
  5
C5
  8
1
  6
DASHDOT
 62
     3
 10
189.6309821716381
 20
0.0
 30
0.0
 11
180.1905074200231
 21
0.0
 31
0.0
  0
LINE
  5
C6
  8
1
  6
DASHDOT
 62
     3
 10
159.9176032081061
 20
29.713378963532101
 30
0.0
 11
159.9176032081061
 21
20.370428847876799
 31
0.0
  0
LINE
  5
C7
  8
1
  6
DASHDOT
 62
     3
 10
159.9176032081061
 20
-20.25361286651939
 30
0.0
 11
159.9176032081061
 21
-29.713378963532101
 31
0.0
  0
LINE
  5
C8
  8
1
  6
DASHDOT
 62
     3
 10
139.6141628149087
 20
0.0
 30
0.0
 11
130.20422424457391
 21
0.0
 31
0.0
  0
LINE
  5
C9
  8
1
 62
     3
 10
-120.0
 20
0.0
 30
0.0
 11
-117.0
 21
0.0
 31
0.0
  0
LINE
  5
CA
  8
1
 62
     7
 10
-65.300000000000111
 20
37.5
 30
0.0
 11
-96.0
 21
37.5
 31
0.0
  0
LINE
  5
CB
  8
1
 62
     7
 10
-97.0
 20
-36.5
 30
0.0
 11
-97.0
 21
36.5
 31
0.0
  0
LINE
  5
CC
  8
1
 62
     7
 10
-97.0
 20
36.5
 30
0.0
 11
-96.0
 21
37.5
 31
0.0
  0
LINE
  5
CD
  8
1
 62
     7
 10
-53.0
 20
31.000000000000011
 30
0.0
 11
-50.0
 21
31.000000000000011
 31
0.0
  0
LINE
  5
CE
  8
1
 62
     7
 10
-50.0
 20
31.000000000000011
 30
0.0
 11
-50.0
 21
-31.000000000000011
 31
0.0
  0
LINE
  5
CF
  8
1
 62
     7
 10
-53.650000000000091
 20
36.5
 30
0.0
 11
-53.650000000000091
 21
-36.5
 31
0.0
  0
LINE
  5
D0
  8
1
 62
     7
 10
-54.650000000000098
 20
37.5
 30
0.0
 11
-64.800000000000111
 21
37.5
 31
0.0
  0
LINE
  5
D1
  8
1
 62
     3
 10
-66.650000000000091
 20
37.5
 30
0.0
 11
-66.650000000000091
 21
-35.0
 31
0.0
  0
LINE
  5
D2
  8
1
 62
     3
 10
-63.450000000000102
 20
37.5
 30
0.0
 11
-63.450000000000102
 21
-35.0
 31
0.0
  0
LINE
  5
D3
  8
1
 62
     3
 10
-63.800000000000097
 20
-35.0
 30
0.0
 11
-63.800000000000097
 21
-37.5
 31
0.0
  0
LINE
  5
D4
  8
1
 62
     3
 10
-66.300000000000111
 20
-35.0
 30
0.0
 11
-66.300000000000111
 21
-37.5
 31
0.0
  0
LINE
  5
D5
  8
1
 62
     7
 10
-64.800000000000111
 20
-37.5
 30
0.0
 11
-54.650000000000098
 21
-37.5
 31
0.0
  0
LINE
  5
D6
  8
1
 62
     7
 10
-50.0
 20
-31.000000000000011
 30
0.0
 11
-53.0
 21
-31.000000000000011
 31
0.0
  0
LINE
  5
D7
  8
1
 62
     7
 10
-53.0
 20
34.20000000000001
 30
0.0
 11
-53.0
 21
-34.20000000000001
 31
0.0
  0
LINE
  5
D8
  8
1
 62
     7
 10
-53.0
 20
-34.20000000000001
 30
0.0
 11
-53.650000000000091
 21
-34.20000000000001
 31
0.0
  0
LINE
  5
D9
  8
1
 62
     7
 10
-96.0
 20
-37.5
 30
0.0
 11
-97.0
 21
-36.5
 31
0.0
  0
LINE
  5
DA
  8
1
 62
     7
 10
-96.0
 20
-37.5
 30
0.0
 11
-65.300000000000111
 21
-37.5
 31
0.0
  0
LINE
  5
DB
  8
1
 62
     7
 10
-117.0
 20
-34.79999999999999
 30
0.0
 11
-97.0
 21
-34.79999999999999
 31
0.0
  0
LINE
  5
DC
  8
1
 62
     7
 10
-117.0
 20
60.0
 30
0.0
 11
-115.0
 21
60.0
 31
0.0
  0
LINE
  5
DD
  8
1
 62
     7
 10
-115.0
 20
60.0
 30
0.0
 11
-115.0
 21
34.800000000000011
 31
0.0
  0
LINE
  5
DE
  8
1
 62
     7
 10
-113.90000000000001
 20
34.800000000000011
 30
0.0
 11
-113.90000000000001
 21
54.710553526545908
 31
0.0
  0
LINE
  5
DF
  8
1
 62
     7
 10
-112.09999999999989
 20
54.710553526545908
 30
0.0
 11
-112.09999999999989
 21
34.800000000000011
 31
0.0
  0
LINE
  5
E0
  8
1
 62
     7
 10
-113.90000000000001
 20
54.710553526545908
 30
0.0
 11
-112.09999999999989
 21
54.710553526545908
 31
0.0
  0
LINE
  5
E1
  8
1
 62
     7
 10
-112.7
 20
56.434607462189589
 30
0.0
 11
-112.7
 21
54.710553526545908
 31
0.0
  0
LINE
  5
E2
  8
1
 62
     7
 10
-112.40000000000001
 20
56.387235455631533
 30
0.0
 11
-112.40000000000001
 21
54.710553526545908
 31
0.0
  0
LINE
  5
E3
  8
1
 62
     7
 10
-113.60000000000009
 20
54.710553526545908
 30
0.0
 11
-113.60000000000009
 21
56.387235455631533
 31
0.0
  0
LINE
  5
E4
  8
1
 62
     7
 10
-113.3
 20
54.710553526545908
 30
0.0
 11
-113.3
 21
56.434607462189589
 31
0.0
  0
LINE
  5
E5
  8
1
 62
     7
 10
-97.0
 20
34.800000000000011
 30
0.0
 11
-117.0
 21
34.800000000000011
 31
0.0
  0
LINE
  5
E6
  8
1
 62
     7
 10
-96.0
 20
37.5
 30
0.0
 11
-96.0
 21
-37.5
 31
0.0
  0
LINE
  5
E7
  8
1
 62
     7
 10
-53.650000000000091
 20
34.20000000000001
 30
0.0
 11
-53.0
 21
34.20000000000001
 31
0.0
  0
LINE
  5
E8
  8
1
 62
     7
 10
-64.800000000000111
 20
-37.5
 30
0.0
 11
-64.800000000000111
 21
37.5
 31
0.0
  0
LINE
  5
E9
  8
1
 62
     7
 10
-65.300000000000111
 20
-37.5
 30
0.0
 11
-65.300000000000111
 21
37.5
 31
0.0
  0
LINE
  5
EA
  8
1
 62
     3
 10
-50.0
 20
0.0
 30
0.0
 11
-47.0
 21
0.0
 31
0.0
  0
LINE
  5
EB
  8
1
 62
     3
 10
66.999999999999929
 20
0.0
 30
0.0
 11
69.999999999999915
 21
0.0
 31
0.0
  0
LINE
  5
EC
  8
1
 62
     3
 10
-3.0000000000000848
 20
0.0
 30
0.0
 11
0.0
 21
0.0
 31
0.0
  0
LINE
  5
ED
  8
1
 62
     7
 10
-198.6998598080859
 20
31.329999999999998
 30
0.0
 11
-198.6998598080859
 21
30.670000000000009
 31
0.0
  0
LINE
  5
EE
  8
1
 62
     7
 10
-196.82985980808581
 20
28.800000000000001
 30
0.0
 11
-196.16985980808599
 21
28.800000000000001
 31
0.0
  0
LINE
  5
EF
  8
1
 62
     7
 10
-194.29985980808601
 20
30.670000000000009
 30
0.0
 11
-194.29985980808601
 21
31.329999999999998
 31
0.0
  0
LINE
  5
F0
  8
1
 62
     7
 10
-196.16985980808599
 20
33.200000000000017
 30
0.0
 11
-196.82985980808581
 21
33.200000000000017
 31
0.0
  0
LINE
  5
F1
  8
1
 62
     7
 10
-214.6998598080859
 20
31.329999999999998
 30
0.0
 11
-214.6998598080859
 21
30.670000000000009
 31
0.0
  0
LINE
  5
F2
  8
1
 62
     7
 10
-212.8298598080859
 20
28.800000000000001
 30
0.0
 11
-212.16985980808599
 21
28.800000000000001
 31
0.0
  0
LINE
  5
F3
  8
1
 62
     7
 10
-210.29985980808601
 20
30.670000000000009
 30
0.0
 11
-210.29985980808601
 21
31.329999999999998
 31
0.0
  0
LINE
  5
F4
  8
1
 62
     7
 10
-212.16985980808599
 20
33.200000000000017
 30
0.0
 11
-212.8298598080859
 21
33.200000000000017
 31
0.0
  0
LINE
  5
F5
  8
1
 62
     7
 10
-216.499859808086
 20
26.000000000000011
 30
0.0
 11
-192.499859808086
 21
26.000000000000011
 31
0.0
  0
LINE
  5
F6
  8
1
 62
     7
 10
-190.499859808086
 20
35.381197846483019
 30
0.0
 11
-190.499859808086
 21
28.000000000000011
 31
0.0
  0
LINE
  5
F7
  8
1
 62
     7
 10
-218.499859808086
 20
35.381197846483019
 30
0.0
 11
-218.499859808086
 21
28.000000000000011
 31
0.0
  0
LINE
  5
F8
  8
1
 62
     7
 10
161.96380893344841
 20
37.444132279031109
 30
0.0
 11
173.97064259828079
 21
58.240578224549211
 31
0.0
  0
LINE
  5
F9
  8
1
 62
     7
 10
173.97064259828079
 20
58.240578224549211
 30
0.0
 11
176.91512897114791
 21
56.540578224549208
 31
0.0
  0
LINE
  5
FA
  8
1
 62
     7
 10
176.91512897114791
 20
56.540578224549208
 30
0.0
 11
165.6661473402138
 21
37.056770506362419
 31
0.0
  0
LINE
  5
FB
  8
1
 62
     7
 10
163.84027723669399
 20
37.294270719045286
 30
0.0
 11
175.44288578471429
 21
57.390578224549209
 31
0.0
  0
LINE
  5
FC
  8
1
  6
DASHDOT
 62
     3
 10
159.9176032081061
 20
58.360482006714498
 30
0.0
 11
159.9176032081061
 21
49.639517993285523
 31
0.0
  0
LINE
  5
FD
  8
1
  6
DASHDOT
 62
     3
 10
164.27808521482061
 20
54.0
 30
0.0
 11
155.5571212013916
 21
54.0
 31
0.0
  0
LINE
  5
FE
  8
1
 62
     7
 10
172.91760320810599
 20
37.113248654051922
 30
0.0
 11
168.9176032081061
 21
39.422649730810399
 31
0.0
  0
LINE
  5
FF
  8
1
 62
     7
 10
173.91760320810599
 20
34.788647573597899
 30
0.0
 11
173.91760320810599
 21
35.381197846483019
 31
0.0
  0
LINE
  5
100
  8
1
 62
     7
 10
150.91760320810599
 20
39.422649730810399
 30
0.0
 11
146.91760320810599
 21
37.113248654051922
 31
0.0
  0
LINE
  5
101
  8
1
 62
     7
 10
145.91760320810599
 20
35.381197846483019
 30
0.0
 11
145.91760320810599
 21
34.788647573597899
 31
0.0
  0
LINE
  5
102
  8
1
 62
     7
 10
153.91760320810599
 20
60.0
 30
0.0
 11
165.9176032081061
 21
60.0
 31
0.0
  0
LINE
  5
103
  8
1
 62
     7
 10
167.9176032081061
 20
58.0
 30
0.0
 11
167.9176032081061
 21
47.756406460551013
 31
0.0
  0
LINE
  5
104
  8
1
 62
     7
 10
151.9176032081061
 20
41.153573893845113
 30
0.0
 11
151.9176032081061
 21
58.0
 31
0.0
  0
LINE
  5
105
  8
1
 62
     7
 10
175.7360234280826
 20
59.598307516474222
 30
0.0
 11
174.70676419149751
 21
57.815578224549213
 31
0.0
  0
LINE
  5
106
  8
1
 62
     7
 10
175.47621580694729
 20
59.748307516474199
 30
0.0
 11
174.4469565703622
 21
57.965578224549212
 31
0.0
  0
LINE
  5
107
  8
1
 62
     7
 10
175.2164081858119
 20
59.898307516474198
 30
0.0
 11
174.18714894922689
 21
58.115578224549331
 31
0.0
  0
LINE
  5
108
  8
1
 62
     7
 10
175.995831049218
 20
59.448307516474223
 30
0.0
 11
174.96657181263291
 21
57.665578224549307
 31
0.0
  0
LINE
  5
109
  8
1
 62
     7
 10
176.25563867035331
 20
59.29830751647421
 30
0.0
 11
175.2263794337681
 21
57.515578224549287
 31
0.0
  0
LINE
  5
10A
  8
1
 62
     7
 10
177.20826661451611
 20
58.748307516474199
 30
0.0
 11
176.1790073779311
 21
56.965578224549198
 31
0.0
  0
LINE
  5
10B
  8
1
 62
     7
 10
176.9484589933808
 20
58.89830751647419
 30
0.0
 11
175.91919975679579
 21
57.115578224549211
 31
0.0
  0
LINE
  5
10C
  8
1
 62
     7
 10
176.68865137224549
 20
59.04830751647421
 30
0.0
 11
175.65939213566051
 21
57.265578224549209
 31
0.0
  0
LINE
  5
10D
  8
1
 62
     7
 10
177.4680742356515
 20
58.598307516474222
 30
0.0
 11
176.4388149990663
 21
56.815578224549199
 31
0.0
  0
LINE
  5
10E
  8
1
 62
     7
 10
177.72788185678689
 20
58.448307516474209
 30
0.0
 11
176.6986226202018
 21
56.665578224549222
 31
0.0
  0
LINE
  5
10F
  8
1
 62
     7
 10
-218.55289919826049
 20
58.240578224549211
 30
0.0
 11
-212.499859808086
 21
47.756406460551112
 31
0.0
  0
LINE
  5
110
  8
1
 62
     7
 10
-220.02514238469411
 20
57.390578224549209
 30
0.0
 11
-212.499859808086
 21
44.356406460551099
 31
0.0
  0
LINE
  5
111
  8
1
 62
     7
 10
-221.49738557112769
 20
56.540578224549208
 30
0.0
 11
-218.55289919826049
 21
58.240578224549211
 31
0.0
  0
LINE
  5
112
  8
1
 62
     7
 10
-219.28902079147741
 20
57.815578224549213
 30
0.0
 11
-220.3182800280625
 21
59.598307516474222
 31
0.0
  0
LINE
  5
113
  8
1
 62
     7
 10
-219.02921317034199
 20
57.965578224549212
 30
0.0
 11
-220.05847240692719
 21
59.748307516474199
 31
0.0
  0
LINE
  5
114
  8
1
 62
     7
 10
-218.7694055492066
 20
58.115578224549331
 30
0.0
 11
-219.7986647857918
 21
59.898307516474198
 31
0.0
  0
LINE
  5
115
  8
1
 62
     7
 10
-219.54882841261269
 20
57.665578224549307
 30
0.0
 11
-220.5780876491977
 21
59.448307516474223
 31
0.0
  0
LINE
  5
116
  8
1
 62
     7
 10
-219.808636033748
 20
57.515578224549287
 30
0.0
 11
-220.83789527033309
 21
59.29830751647421
 31
0.0
  0
LINE
  5
117
  8
1
 62
     7
 10
-220.76126397791089
 20
56.965578224549198
 30
0.0
 11
-221.79052321449601
 21
58.748307516474199
 31
0.0
  0
LINE
  5
118
  8
1
 62
     7
 10
-220.50145635677549
 20
57.115578224549211
 30
0.0
 11
-221.53071559336061
 21
58.89830751647419
 31
0.0
  0
LINE
  5
119
  8
1
 62
     7
 10
-220.2416487356403
 20
57.265578224549209
 30
0.0
 11
-221.27090797222539
 21
59.04830751647421
 31
0.0
  0
LINE
  5
11A
  8
1
 62
     7
 10
-221.02107159904631
 20
56.815578224549199
 30
0.0
 11
-222.0503308356314
 21
58.598307516474222
 31
0.0
  0
LINE
  5
11B
  8
1
 62
     7
 10
-221.28087922018159
 20
56.665578224549222
 30
0.0
 11
-222.31013845676671
 21
58.448307516474209
 31
0.0
  0
LINE
  5
11C
  8
1
 62
     7
 10
-212.499859808086
 20
41.154700538379288
 30
0.0
 11
-212.499859808086
 21
58.0
 31
0.0
  0
LINE
  5
11D
  8
1
 62
     7
 10
62.349999999999902
 20
37.5
 30
0.0
 11
63.349999999999902
 21
36.5
 31
0.0
  0
LINE
  5
11E
  8
1
 62
     7
 10
63.349999999999902
 20
-36.5
 30
0.0
 11
62.349999999999902
 21
-37.5
 31
0.0
  0
LINE
  5
11F
  8
1
 62
     7
 10
-54.650000000000098
 20
37.5
 30
0.0
 11
-53.650000000000091
 21
36.5
 31
0.0
  0
LINE
  5
120
  8
1
 62
     7
 10
-53.650000000000091
 20
-36.5
 30
0.0
 11
-54.650000000000098
 21
-37.5
 31
0.0
  0
LINE
  5
121
  8
1
 62
     7
 10
-54.650000000000098
 20
37.5
 30
0.0
 11
-54.650000000000098
 21
-37.5
 31
0.0
  0
LINE
  5
122
  8
1
  6
DASHDOT
 62
     3
 10
-114.3790255363263
 20
54.0
 30
0.0
 11
-117.94485200438319
 21
54.0
 31
0.0
  0
ARC
  5
123
  8
1
 62
     7
 10
-192.499859808086
 20
35.381197846483019
 30
0.0
 40
2.0
 50
0.0
 51
60.000000000000391
  0
ARC
  5
124
  8
1
 62
     7
 10
-216.499859808086
 20
35.381197846483019
 30
0.0
 40
2.0000000000000231
 50
119.9999999999996
 51
180.0
  0
ARC
  5
125
  8
1
 62
     7
 10
-198.499859808086
 20
58.0
 30
0.0
 40
2.0
 50
0.0
 51
90.0
  0
ARC
  5
126
  8
1
 62
     7
 10
-210.499859808086
 20
58.0
 30
0.0
 40
2.0
 50
90.0
 51
180.0
  0
ARC
  5
127
  8
1
 62
     7
 10
-192.499859808086
 20
28.000000000000011
 30
0.0
 40
2.0
 50
270.0
 51
0.0
  0
ARC
  5
128
  8
1
 62
     7
 10
-216.499859808086
 20
28.000000000000011
 30
0.0
 40
2.0
 50
180.0
 51
270.0
  0
ARC
  5
129
  8
1
 62
     7
 10
171.91760320810599
 20
35.381197846483019
 30
0.0
 40
2.0
 50
0.0
 51
60.000000000000391
  0
ARC
  5
12A
  8
1
 62
     7
 10
147.9176032081061
 20
35.381197846483019
 30
0.0
 40
2.0000000000000231
 50
119.9999999999996
 51
180.0
  0
ARC
  5
12B
  8
1
 62
     7
 10
165.9176032081061
 20
58.0
 30
0.0
 40
2.0
 50
0.0
 51
90.0
  0
ARC
  5
12C
  8
1
 62
     7
 10
153.91760320810599
 20
58.0
 30
0.0
 40
2.0
 50
90.0
 51
180.0
  0
ARC
  5
12D
  8
1
  6
DASHDOT
 62
     3
 10
159.9176032081061
 20
0.0
 30
0.0
 40
25.000000000000011
 50
330.09286915078792
 51
344.90129262556871
  0
ARC
  5
12E
  8
1
  6
DASHDOT
 62
     3
 10
159.9176032081061
 20
0.0
 30
0.0
 40
24.999999999999918
 50
149.2718365719106
 51
166.64757271955401
  0
ARC
  5
12F
  8
1
 62
     7
 10
159.9176032081061
 20
0.0
 30
0.0
 40
9.9999999999999485
 50
104.4775121859295
 51
75.522487814070047
  0
ARC
  5
130
  8
1
 62
     7
 10
-204.499859808086
 20
0.0
 30
0.0
 40
9.9999999999999734
 50
104.47751218593
 51
180.0
  0
ARC
  5
131
  8
1
 62
     7
 10
-204.499859808086
 20
0.0
 30
0.0
 40
10.0
 50
180.0
 51
75.522487814070047
  0
ARC
  5
132
  8
1
  6
DASHDOT
 62
     3
 10
159.9176032081061
 20
0.0
 30
0.0
 40
24.999999999999961
 50
78.969771578580563
 51
101.2514041575479
  0
ARC
  5
133
  8
1
  6
DASHDOT
 62
     3
 10
159.9176032081061
 20
0.0
 30
0.0
 40
24.99999999999994
 50
168.96977157858041
 51
191.25140415754791
  0
ARC
  5
134
  8
1
  6
DASHDOT
 62
     3
 10
159.9176032081061
 20
0.0
 30
0.0
 40
24.999999999999989
 50
258.96977157858061
 51
281.25140415754811
  0
ARC
  5
135
  8
1
  6
DASHDOT
 62
     3
 10
159.9176032081061
 20
0.0
 30
0.0
 40
25.000000000000028
 50
348.96977157858038
 51
11.251404157547929
  0
ARC
  5
136
  8
1
 62
     7
 10
-198.6998598080859
 20
33.200000000000017
 30
0.0
 40
1.8700000000000081
 50
270.0
 51
0.0
  0
ARC
  5
137
  8
1
 62
     7
 10
-198.6998598080859
 20
28.800000000000001
 30
0.0
 40
1.8700000000000041
 50
0.0
 51
90.0
  0
ARC
  5
138
  8
1
 62
     7
 10
-194.29985980808601
 20
28.800000000000001
 30
0.0
 40
1.8700000000000081
 50
90.0
 51
180.0
  0
ARC
  5
139
  8
1
 62
     7
 10
-194.29985980808601
 20
33.200000000000017
 30
0.0
 40
1.869999999999975
 50
180.0
 51
270.0
  0
ARC
  5
13A
  8
1
 62
     7
 10
-214.6998598080859
 20
33.200000000000017
 30
0.0
 40
1.8700000000000081
 50
270.0
 51
0.0
  0
ARC
  5
13B
  8
1
 62
     7
 10
-214.6998598080859
 20
28.800000000000001
 30
0.0
 40
1.8700000000000041
 50
0.0
 51
90.0
  0
ARC
  5
13C
  8
1
 62
     7
 10
-210.29985980808601
 20
28.800000000000001
 30
0.0
 40
1.8700000000000081
 50
90.0
 51
180.0
  0
ARC
  5
13D
  8
1
 62
     7
 10
-210.29985980808601
 20
33.200000000000017
 30
0.0
 40
1.869999999999975
 50
180.0
 51
270.0
  0
ARC
  5
13E
  8
1
 62
     7
 10
-204.499859808086
 20
0.0
 30
0.0
 40
37.5
 50
180.0
 51
68.078659938454948
  0
ARC
  5
13F
  8
1
 62
     7
 10
-204.499859808086
 20
0.0
 30
0.0
 40
37.499999999999993
 50
111.921340061545
 51
180.0
  0
ARC
  5
140
  8
1
 62
     7
 10
-204.499859808086
 20
0.0
 30
0.0
 40
34.800000000000011
 50
180.0
 51
66.278030392964709
  0
ARC
  5
141
  8
1
 62
     7
 10
-204.499859808086
 20
0.0
 30
0.0
 40
34.800000000000011
 50
113.72196960703531
 51
180.0
  0
ARC
  5
142
  8
1
 62
     7
 10
-204.499859808086
 20
0.0
 30
0.0
 40
27.5
 50
180.0
 51
70.98873473986265
  0
ARC
  5
143
  8
1
 62
     7
 10
-204.499859808086
 20
0.0
 30
0.0
 40
27.500000000000011
 50
109.01126526013699
 51
180.0
  0
ARC
  5
144
  8
1
 62
     7
 10
169.9175892892963
 20
41.146112322621718
 30
0.0
 40
2.0
 50
179.7862412343035
 51
180.0
  0
ARC
  5
145
  8
1
 62
     7
 10
169.9175892892963
 20
41.146112322621718
 30
0.0
 40
2.0
 50
180.0
 51
239.86802804152759
  0
ARC
  5
146
  8
1
 62
     7
 10
149.91761712691559
 20
41.146112322652201
 30
0.0
 40
2.0
 50
359.9999999991266
 51
0.2137587648233007
  0
ARC
  5
147
  8
1
 62
     7
 10
149.91761712691579
 20
41.146112322621718
 30
0.0
 40
1.999999999999952
 50
300.1319719584738
 51
0.0
  0
CIRCLE
  5
148
  8
1
 62
     7
 10
183.0145915208883
 20
-9.5670858091272368
 30
0.0
 40
2.4000000000000901
  0
CIRCLE
  5
149
  8
1
 62
     7
 10
136.82061489532401
 20
9.5670858091272066
 30
0.0
 40
2.3999999999999768
  0
CIRCLE
  5
14A
  8
1
  6
DASHED
 62
     7
 10
184.91760320810599
 20
0.0
 30
0.0
 40
4.0
  0
CIRCLE
  5
14B
  8
1
  6
DASHED
 62
     7
 10
159.9176032081061
 20
-24.999999999999989
 30
0.0
 40
3.9999999999998859
  0
CIRCLE
  5
14C
  8
1
  6
DASHED
 62
     7
 10
134.9176032081061
 20
0.0
 30
0.0
 40
4.0
  0
CIRCLE
  5
14D
  8
1
 62
     7
 10
184.91760320810599
 20
0.0
 30
0.0
 40
2.25
  0
CIRCLE
  5
14E
  8
1
 62
     7
 10
159.9176032081061
 20
-24.999999999999989
 30
0.0
 40
2.249999999999885
  0
CIRCLE
  5
14F
  8
1
 62
     7
 10
134.9176032081061
 20
0.0
 30
0.0
 40
2.25
  0
CIRCLE
  5
150
  8
1
  6
DASHED
 62
     7
 10
159.9176032081061
 20
25.000000000000011
 30
0.0
 40
4.0
  0
CIRCLE
  5
151
  8
1
 62
     7
 10
159.9176032081061
 20
25.000000000000011
 30
0.0
 40
2.25
  0
CIRCLE
  5
152
  8
1
 62
     7
 10
10.5
 20
21.250000000000011
 30
0.0
 40
3.75
  0
CIRCLE
  5
153
  8
1
 62
     7
 10
10.5
 20
-21.250000000000011
 30
0.0
 40
3.75
  0
CIRCLE
  5
154
  8
1
 62
     7
 10
159.9176032081061
 20
0.0
 30
0.0
 40
37.5
  0
CIRCLE
  5
155
  8
1
 62
     7
 10
159.9176032081061
 20
0.0
 30
0.0
 40
31.0
  0
CIRCLE
  5
156
  8
1
 62
     7
 10
159.9176032081061
 20
0.0
 30
0.0
 40
19.0
  0
CIRCLE
  5
157
  8
1
 62
     7
 10
159.9176032081061
 20
0.0
 30
0.0
 40
14.5
  0
CIRCLE
  5
158
  8
1
 62
     7
 10
159.9176032081061
 20
0.0
 30
0.0
 40
34.199999999999989
  0
CIRCLE
  5
159
  8
1
 62
     7
 10
177.59527273776979
 20
17.67766952966371
 30
0.0
 40
4.5
  0
CIRCLE
  5
15A
  8
1
 62
     7
 10
177.59527273776979
 20
17.67766952966371
 30
0.0
 40
5.0
  0
CIRCLE
  5
15B
  8
1
 62
     7
 10
142.23993367844241
 20
17.67766952966371
 30
0.0
 40
5.0
  0
CIRCLE
  5
15C
  8
1
 62
     7
 10
142.23993367844241
 20
-17.677669529663689
 30
0.0
 40
4.9999999999998863
  0
CIRCLE
  5
15D
  8
1
 62
     7
 10
177.59527273776979
 20
-17.677669529663689
 30
0.0
 40
5.0
  0
CIRCLE
  5
15E
  8
1
 62
     7
 10
142.23993367844241
 20
17.67766952966371
 30
0.0
 40
4.5
  0
CIRCLE
  5
15F
  8
1
 62
     7
 10
142.23993367844241
 20
-17.677669529663689
 30
0.0
 40
4.4999999999998863
  0
CIRCLE
  5
160
  8
1
 62
     7
 10
177.59527273776979
 20
-17.677669529663689
 30
0.0
 40
4.5
  0
CIRCLE
  5
161
  8
1
 62
     7
 10
-204.499859808086
 20
0.0
 30
0.0
 40
14.5
  0
CIRCLE
  5
162
  8
1
 62
     7
 10
-204.499859808086
 20
54.0
 30
0.0
 40
2.75
  0
CIRCLE
  5
163
  8
1
 62
     7
 10
-196.49985980808589
 20
31.000000000000011
 30
0.0
 40
4.0
  0
CIRCLE
  5
164
  8
1
 62
     7
 10
-212.499859808086
 20
31.000000000000011
 30
0.0
 40
4.0
  0
CIRCLE
  5
165
  8
1
 62
     7
 10
159.9176032081061
 20
54.0
 30
0.0
 40
2.75
  0
ARC
  5
166
  8
1
 62
     7
 10
-214.499859808086
 20
41.154700538379288
 30
0.0
 40
2.0000000000000102
 50
299.99999999999977
 51
0.0
  0
ARC
  5
167
  8
1
 62
     7
 10
-194.49985980808589
 20
41.154700538379288
 30
0.0
 40
2.0
 50
180.0
 51
240.0000000000002
  0
TEXT
  5
169
  8
1
 62
     7
 10
-218.55239146808529
 20
114.06948626009471
 30
0.0
 40
5.0
  1
MZ 2.5
 41
0.9
  7
SIMPLEX
  0
ENDSEC
  0
EOF
