  0
SECTION
  2
HEADER
  9
$ACADVER
  1
AC1009
  9
$INSBASE
 10
0
 20
0
  9
$EXTMIN
 10
-312.2163838619317
 20
-60
  9
$EXTMAX
 10
258.5127834469872
 20
126.9557504800793
  9
$LIMMIN
 10
-312.2163838619317
 20
-60
  9
$LIMMAX
 10
258.5127834469872
 20
126.9557504800793
  9
$VIEWCTR
 10
10
 20
10
  9
$VIEWSIZE
 40
10
  9
$SNAPMODE
 70
0
  9
$SNAPUNIT
 10
1
 20
1
  9
$SNAPBASE
 10
0
 20
0
  9
$SNAPANG
 50
0
  9
$SNAPSTYLE
 70
0
  9
$SNAPISOPAIR
 70
0
  9
$GRIDMODE
 70
0
  9
$GRIDUNIT
 10
0
 20
0
  9
$ORTHOMODE
 70
0
  9
$REGENMODE
 70
1
  9
$FILLMODE
 70
1
  9
$QTEXTMODE
 70
0
  9
$DRAGMODE
 70
2
  9
$LTSCALE
 40
1
  9
$OSMODE
 70
0
  9
$ATTMODE
 70
1
  9
$TEXTSIZE
 40
3.5
  9
$TRACEWID
 40
0.5
  9
$TEXTSTYLE
  7
STANDARD
  9
$CLAYER
  8
0
  9
$CELTYPE
  6
BYLAYER
  9
$CECOLOR
 62
256
  9
$DIMSCALE
 40
1
  9
$DIMASZ
 40
0.18
  9
$DIMEXO
 40
0.0625
  9
$DIMDLI
 40
0.38
  9
$DIMRND
 40
0
  9
$DIMDLE
 40
0
  9
$DIMEXE
 40
0.18
  9
$DIMTP
 40
0
  9
$DIMTM
 40
0
  9
$DIMTXT
 40
0.18
  9
$DIMCEN
 40
0.09
  9
$DIMTSZ
 40
0
  9
$DIMTOL
 70
0
  9
$DIMLIM
 70
0
  9
$DIMTIH
 70
1
  9
$DIMTOH
 70
1
  9
$DIMSE1
 70
0
  9
$DIMSE2
 70
0
  9
$DIMTAD
 70
0
  9
$DIMZIN
 70
0
  9
$DIMBLK
  1

  9
$DIMASO
 70
1
  9
$DIMSHO
 70
1
  9
$DIMPOST
  1

  9
$DIMAPOST
  1

  9
$DIMALT
 70
0
  9
$DIMALTD
 70
2
  9
$DIMALTF
 40
25.4
  9
$DIMLFAC
 40
1
  9
$DIMTOFL
 70
0
  9
$DIMTVP
 40
0
  9
$DIMTIX
 70
0
  9
$DIMSOXD
 70
0
  9
$DIMSAH
 70
0
  9
$DIMBLK1
  1

  9
$DIMBLK2
  1

  9
$DIMSTYLE
  2
*UNNAMED
  9
$DIMCLRD
 70
0
  9
$DIMCLRE
 70
0
  9
$DIMCLRT
 70
0
  9
$DIMTFAC
 40
1
  9
$DIMGAP
 40
0.09
  9
$LUNITS
 70
2
  9
$LUPREC
 70
4
  9
$AXISMODE
 70
0
  9
$AXISUNIT
 10
0
 20
0
  9
$SKETCHINC
 40
0.1
  9
$FILLETRAD
 40
2
  9
$AUNITS
 70
0
  9
$AUPREC
 70
0
  9
$MENU
  1
ACAD
  9
$ELEVATION
 40
0
  9
$THICKNESS
 40
0
  9
$VIEWDIR
 10
0
 20
0
 30
1
  9
$LIMCHECK
 70
0
  9
$BLIPMODE
 70
1
  9
$CHAMFERA
 40
0
  9
$CHAMFERB
 40
0
  9
$FASTZOOM
 70
1
  9
$SKPOLY
 70
0
  9
$ANGBASE
 50
0
  9
$ANGDIR
 70
0
  9
$PDMODE
 70
0
  9
$PDSIZE
 40
0
  9
$PLINEWID
 40
0
  9
$COORDS
 70
2
  0
ENDSEC
  0
SECTION
  2
TABLES
  0
TABLE
  2
DIMSTYLE
 70
0
  0
ENDTAB
  0
TABLE
  2
LTYPE
 70
9
  0
LTYPE
  2
CONTINUOUS
 70
64
  3
Solid line
 72
65
 73
0
 40
0
  0
LTYPE
  2
BORDER
 70
64
  3
__ __ . __ __ .
 72
65
 73
6
 40
26.28358007343706
 49
7.509594306696302
 49
-3.754797153348151
 49
7.509594306696302
 49
-3.754797153348151
 49
0
 49
-3.754797153348151
  0
LTYPE
  2
CENTER
 70
64
  3
____ _ ____ _
 72
65
 73
4
 40
30.03837722678521
 49
18.77398576674075
 49
-3.754797153348151
 49
3.754797153348151
 49
-3.754797153348151
  0
LTYPE
  2
DASHDOT
 70
64
  3
__ . __ . __ .
 72
65
 73
4
 40
15.0191886133926
 49
7.509594306696302
 49
-3.754797153348151
 49
0
 49
-3.754797153348151
  0
LTYPE
  2
DASHED
 70
64
  3
__ __ __ __ __
 72
65
 73
2
 40
11.26439146004445
 49
7.509594306696302
 49
-3.754797153348151
  0
LTYPE
  2
DIVIDE
 70
64
  3
__ . . __ . . 
 72
65
 73
6
 40
18.77398576674075
 49
7.509594306696302
 49
-3.754797153348151
 49
0
 49
-3.754797153348151
 49
0
 49
-3.754797153348151
  0
LTYPE
  2
DOT
 70
64
  3
..............
 72
65
 73
4
 40
7.509594306696302
 49
0
 49
-3.754797153348151
 49
0
 49
-3.754797153348151
  0
LTYPE
  2
HIDDEN
 70
64
  3
_ _ _ _ _ _ _
 72
65
 73
2
 40
5.632195730022227
 49
3.754797153348151
 49
-1.877398576674076
  0
LTYPE
  2
PHANTOM
 70
64
  3
_____ _ _ _____ _ _ 
 72
65
 73
6
 40
37.54797153348151
 49
18.77398576674075
 49
-3.754797153348151
 49
3.754797153348151
 49
-3.754797153348151
 49
3.754797153348151
 49
-3.754797153348151
  0
ENDTAB
  0
TABLE
  2
LAYER
 70
3
  0
LAYER
  2
1
 70
0
 62
7
  6
CONTINUOUS
  0
LAYER
  2
0
 70
0
 62
7
  6
CONTINUOUS
  0
ENDTAB
  0
TABLE
  2
STYLE
 70
4
  0
STYLE
  2
STANDARD
 70
0
 40
0
 41
1
 50
0
 71
0
 42
3.5
  3
txt
  4

  0
STYLE
  2
SIMPLEX
 70
0
 40
0
 41
1
 50
0
 71
0
 42
3.5
  3
simplex
  4

  0
STYLE
  2
COMPLEX
 70
0
 40
0
 41
1
 50
0
 71
0
 42
3.5
  3
complex
  4

  0
STYLE
  2
ITALIC
 70
0
 40
0
 41
1
 50
0
 71
0
 42
3.5
  3
italic
  4

  0
ENDTAB
  0
TABLE
  2
VIEW
 70
0
  0
ENDTAB
  0
ENDSEC
  0
SECTION
  2
BLOCKS
  0
ENDSEC
  0
SECTION
  2
ENTITIES
  0
LINE
  8
1
 62
7
 10
-142.2735399592389
 20
53.69999999999999
 30
0
 11
-142.2735399592389
 21
-53.69999999999999
 31
0
  0
LINE
  8
1
 62
7
 10
1
 20
53.69999999999999
 30
0
 11
0
 21
53.69999999999999
 31
0
  0
LINE
  8
1
 62
7
 10
3.000000000000014
 20
53.69999999999999
 30
0
 11
58.49999999999999
 21
53.69999999999999
 31
0
  0
LINE
  8
1
 62
7
 10
0
 20
53.69999999999999
 30
0
 11
0
 21
-53.69999999999999
 31
0
  0
LINE
  8
1
 62
7
 10
71.80000000000004
 20
53.99999999999999
 30
0
 11
70.39999999999998
 21
53.99999999999999
 31
0
  0
LINE
  8
1
 62
7
 10
70.25
 20
27.49999999999999
 30
0
 11
77.25
 21
27.49999999999999
 31
0
  0
LINE
  8
1
 62
3
  6
DASHDOT
 10
73.75
 20
34.2328386678288
 30
0
 11
73.75
 21
26.68348853316201
 31
0
  0
LINE
  8
1
 62
7
 10
77.25
 20
33.49999999999999
 30
0
 11
70.25
 21
33.49999999999999
 31
0
  0
LINE
  8
1
 62
3
 10
166.6411695721296
 20
-18.40108485015689
 30
0
 11
159.4323442648804
 21
-22.5631020818382
 31
0
  0
LINE
  8
1
 62
3
 10
159.4323442648804
 20
22.56310208183818
 30
0
 11
166.6411695721296
 21
18.40108485015687
 31
0
  0
LINE
  8
1
 62
3
 10
237.593222629094
 20
-22.5631020818382
 30
0
 11
230.3843973218448
 21
-18.40108485015689
 31
0
  0
LINE
  8
1
 62
3
 10
230.3843973218448
 20
18.40108485015687
 30
0
 11
237.593222629094
 21
22.56310208183818
 31
0
  0
LINE
  8
1
 62
7
 10
79.60000000000004
 20
54.99999999999999
 30
0
 11
79.60000000000004
 21
-55
 31
0
  0
LINE
  8
1
 62
7
 10
79.60000000000004
 20
43.39999999999999
 30
0
 11
92.00000000000003
 21
43.39999999999999
 31
0
  0
LINE
  8
1
 62
7
 10
79.60000000000004
 20
38.59999999999998
 30
0
 11
92.00000000000003
 21
38.59999999999998
 31
0
  0
LINE
  8
1
 62
3
  6
DASHDOT
 10
76.39999999999998
 20
40.99999999999999
 30
0
 11
94.60000000000002
 21
40.99999999999999
 31
0
  0
LINE
  8
1
 62
3
 10
79.60000000000004
 20
43.99999999999999
 30
0
 11
92.00000000000003
 21
43.99999999999999
 31
0
  0
LINE
  8
1
 62
3
 10
79.60000000000004
 20
37.99999999999999
 30
0
 11
92.00000000000003
 21
37.99999999999999
 31
0
  0
LINE
  8
1
 62
7
 10
0
 20
-20
 30
0
 11
69.99999999999999
 21
-20
 31
0
  0
LINE
  8
1
 62
7
 10
0
 20
20
 30
0
 11
69.99999999999999
 21
20
 31
0
  0
LINE
  8
1
 62
7
 10
0
 20
23.5
 30
0
 11
69.99999999999999
 21
23.5
 31
0
  0
LINE
  8
1
 62
7
 10
1
 20
70.25
 30
0
 11
3.000000000000014
 21
70.25
 31
0
  0
LINE
  8
1
 62
3
  6
DASHDOT
 10
-0.389175936270675
 20
73
 30
0
 11
4.293168791497408
 21
73
 31
0
  0
LINE
  8
1
 62
7
 10
1
 20
75.75
 30
0
 11
3.000000000000014
 21
75.75
 31
0
  0
LINE
  8
1
 62
7
 10
3.000000000000014
 20
79
 30
0
 11
3.000000000000014
 21
44.99999999999999
 31
0
  0
LINE
  8
1
 62
7
 10
1
 20
79
 30
0
 11
3.000000000000014
 21
79
 31
0
  0
LINE
  8
1
 62
7
 10
1
 20
79
 30
0
 11
1
 21
44.99999999999999
 31
0
  0
LINE
  8
1
 62
7
 10
204.5127834469872
 20
79
 30
0
 11
192.5127834469872
 21
79
 31
0
  0
LINE
  8
1
 62
7
 10
190.5127834469872
 20
59.46427498927397
 30
0
 11
190.5127834469872
 21
77
 31
0
  0
LINE
  8
1
 62
7
 10
203.5127834469872
 20
23.5
 30
0
 11
203.5127834469872
 21
19.36491673103708
 31
0
  0
LINE
  8
1
 62
7
 10
193.5127834469872
 20
23.5
 30
0
 11
203.5127834469872
 21
23.5
 31
0
  0
LINE
  8
1
 62
7
 10
193.5127834469872
 20
19.36491673103708
 30
0
 11
193.5127834469872
 21
23.5
 31
0
  0
LINE
  8
1
 62
7
 10
58.5
 20
-32.8
 30
0
 11
58.5
 21
-53.69999999999999
 31
0
  0
LINE
  8
1
 62
7
 10
58.5
 20
-53.69999999999999
 30
0
 11
0
 21
-53.69999999999999
 31
0
  0
LINE
  8
1
 62
7
 10
25.00000000000001
 20
-39
 30
0
 11
25.00000000000001
 21
-32.8
 31
0
  0
LINE
  8
1
 62
7
 10
24.00000000000001
 20
-39
 30
0
 11
25.00000000000001
 21
-39
 31
0
  0
LINE
  8
1
 62
7
 10
0
 20
-45
 30
0
 11
3.000000000000014
 21
-45
 31
0
  0
LINE
  8
1
 62
7
 10
59.99999999999999
 20
-32
 30
0
 11
24.00000000000001
 21
-32
 31
0
  0
LINE
  8
1
 62
7
 10
58.5
 20
-32.8
 30
0
 11
25.00000000000001
 21
-32.8
 31
0
  0
LINE
  8
1
 62
7
 10
59.99999999999999
 20
-54.5
 30
0
 11
59.99999999999999
 21
-32
 31
0
  0
LINE
  8
1
 62
7
 10
27.00000000000001
 20
-54.5
 30
0
 11
59.99999999999999
 21
-54.5
 31
0
  0
LINE
  8
1
 62
7
 10
27.00000000000001
 20
-57.5
 30
0
 11
27.00000000000001
 21
-54.5
 31
0
  0
LINE
  8
1
 62
7
 10
29.5
 20
-60
 30
0
 11
69.69999999999999
 21
-60
 31
0
  0
LINE
  8
1
 62
7
 10
69.69999999999999
 20
-54
 30
0
 11
69.69999999999999
 21
-60
 31
0
  0
LINE
  8
1
 62
7
 10
65.99999999999999
 20
-54
 30
0
 11
69.69999999999999
 21
-54
 31
0
  0
LINE
  8
1
 62
7
 10
65.99999999999999
 20
-45
 30
0
 11
65.99999999999999
 21
-54
 31
0
  0
LINE
  8
1
 62
7
 10
69.99999999999999
 20
-45
 30
0
 11
65.99999999999999
 21
-45
 31
0
  0
LINE
  8
1
 62
7
 10
69.99999999999999
 20
27
 30
0
 11
69.99999999999999
 21
-45
 31
0
  0
LINE
  8
1
 62
7
 10
0
 20
-27.5
 30
0
 11
4.000000000000014
 21
-27.5
 31
0
  0
LINE
  8
1
 62
7
 10
27.00000000000001
 20
-57.5
 30
0
 11
29.5
 21
-60
 31
0
  0
LINE
  8
1
 62
7
 10
89.00000000000003
 20
-53.59999999999999
 30
0
 11
79.60000000000004
 21
-53.59999999999999
 31
0
  0
LINE
  8
1
 62
7
 10
89.00000000000003
 20
-49
 30
0
 11
89.00000000000003
 21
-53.59999999999999
 31
0
  0
LINE
  8
1
 62
7
 10
92.00000000000003
 20
-49
 30
0
 11
89.00000000000003
 21
-49
 31
0
  0
LINE
  8
1
 62
7
 10
92.00000000000003
 20
48.99999999999999
 30
0
 11
92.00000000000003
 21
-49
 31
0
  0
LINE
  8
1
 62
7
 10
92.00000000000003
 20
-32.5
 30
0
 11
79.60000000000004
 21
-32.5
 31
0
  0
LINE
  8
1
 62
7
 10
89.00000000000003
 20
-50
 30
0
 11
79.60000000000004
 21
-50
 31
0
  0
LINE
  8
1
 62
7
 10
88.35000000000002
 20
-60
 30
0
 11
70.39999999999998
 21
-60
 31
0
  0
LINE
  8
1
 62
7
 10
88.35000000000002
 20
-50
 30
0
 11
88.35000000000002
 21
-60
 31
0
  0
LINE
  8
1
 62
7
 10
82.5
 20
-55
 30
0
 11
79.60000000000004
 21
-55
 31
0
  0
LINE
  8
1
 62
7
 10
82.5
 20
-50
 30
0
 11
82.5
 21
-55
 31
0
  0
LINE
  8
1
 62
3
 10
68.24999999999999
 20
-54
 30
0
 11
68.24999999999999
 21
-60
 31
0
  0
LINE
  8
1
 62
7
 10
70.39999999999998
 20
-54
 30
0
 11
70.39999999999998
 21
-60
 31
0
  0
LINE
  8
1
 62
7
 10
71.80000000000004
 20
-54
 30
0
 11
70.39999999999998
 21
-54
 31
0
  0
LINE
  8
1
 62
7
 10
71.80000000000004
 20
27.49999999999999
 30
0
 11
71.80000000000004
 21
-54
 31
0
  0
LINE
  8
1
 62
7
 10
79.60000000000004
 20
-25.5
 30
0
 11
71.80000000000004
 21
-25.5
 31
0
  0
LINE
  8
1
 62
7
 10
71.80000000000004
 20
25.5
 30
0
 11
79.60000000000004
 21
25.5
 31
0
  0
LINE
  8
1
 62
7
 10
71.80000000000004
 20
53.99999999999999
 30
0
 11
71.80000000000004
 21
33.49999999999999
 31
0
  0
LINE
  8
1
 62
7
 10
70.39999999999998
 20
60
 30
0
 11
70.39999999999998
 21
53.99999999999999
 31
0
  0
LINE
  8
1
 62
3
 10
68.24999999999999
 20
60
 30
0
 11
68.24999999999999
 21
53.99999999999999
 31
0
  0
LINE
  8
1
 62
7
 10
82.5
 20
54.99999999999999
 30
0
 11
82.5
 21
49.99999999999999
 31
0
  0
LINE
  8
1
 62
7
 10
79.60000000000004
 20
54.99999999999999
 30
0
 11
82.5
 21
54.99999999999999
 31
0
  0
LINE
  8
1
 62
7
 10
88.35000000000002
 20
60
 30
0
 11
88.35000000000002
 21
49.99999999999999
 31
0
  0
LINE
  8
1
 62
7
 10
70.39999999999998
 20
60
 30
0
 11
88.35000000000002
 21
60
 31
0
  0
LINE
  8
1
 62
7
 10
79.60000000000004
 20
49.99999999999999
 30
0
 11
89.00000000000003
 21
49.99999999999999
 31
0
  0
LINE
  8
1
 62
7
 10
79.60000000000004
 20
32.49999999999999
 30
0
 11
92.00000000000003
 21
32.49999999999999
 31
0
  0
LINE
  8
1
 62
7
 10
89.00000000000003
 20
48.99999999999999
 30
0
 11
92.00000000000003
 21
48.99999999999999
 31
0
  0
LINE
  8
1
 62
7
 10
89.00000000000003
 20
53.59999999999998
 30
0
 11
89.00000000000003
 21
48.99999999999999
 31
0
  0
LINE
  8
1
 62
7
 10
79.60000000000004
 20
53.59999999999998
 30
0
 11
89.00000000000003
 21
53.59999999999998
 31
0
  0
LINE
  8
1
 62
3
 10
92.00000000000003
 20
0
 30
0
 11
96.2650836164384
 21
0
 31
0
  0
LINE
  8
1
 62
7
 10
29.5
 20
60
 30
0
 11
27.00000000000001
 21
57.5
 31
0
  0
LINE
  8
1
 62
7
 10
4.000000000000014
 20
26
 30
0
 11
6.000000000000014
 21
26
 31
0
  0
LINE
  8
1
 62
7
 10
4.000000000000014
 20
30.99999999999999
 30
0
 11
4.000000000000014
 21
26
 31
0
  0
LINE
  8
1
 62
7
 10
6.000000000000014
 20
30.99999999999999
 30
0
 11
4.000000000000014
 21
30.99999999999999
 31
0
  0
LINE
  8
1
 62
7
 10
69.99999999999999
 20
44.99999999999999
 30
0
 11
69.99999999999999
 21
33.99999999999999
 31
0
  0
LINE
  8
1
 62
7
 10
65.99999999999999
 20
44.99999999999999
 30
0
 11
69.99999999999999
 21
44.99999999999999
 31
0
  0
LINE
  8
1
 62
7
 10
65.99999999999999
 20
53.99999999999999
 30
0
 11
65.99999999999999
 21
44.99999999999999
 31
0
  0
LINE
  8
1
 62
7
 10
69.69999999999999
 20
53.99999999999999
 30
0
 11
65.99999999999999
 21
53.99999999999999
 31
0
  0
LINE
  8
1
 62
7
 10
69.69999999999999
 20
60
 30
0
 11
69.69999999999999
 21
53.99999999999999
 31
0
  0
LINE
  8
1
 62
7
 10
69.69999999999999
 20
60
 30
0
 11
29.5
 21
60
 31
0
  0
LINE
  8
1
 62
7
 10
27.00000000000001
 20
54.49999999999999
 30
0
 11
27.00000000000001
 21
57.5
 31
0
  0
LINE
  8
1
 62
7
 10
59.99999999999999
 20
54.49999999999999
 30
0
 11
27.00000000000001
 21
54.49999999999999
 31
0
  0
LINE
  8
1
 62
7
 10
59.99999999999999
 20
31.99999999999999
 30
0
 11
59.99999999999999
 21
54.49999999999999
 31
0
  0
LINE
  8
1
 62
7
 10
25.00000000000001
 20
32.79999999999998
 30
0
 11
58.5
 21
32.79999999999998
 31
0
  0
LINE
  8
1
 62
7
 10
25.00000000000001
 20
38.99999999999999
 30
0
 11
25.00000000000001
 21
32.79999999999998
 31
0
  0
LINE
  8
1
 62
7
 10
24.00000000000001
 20
31.99999999999999
 30
0
 11
59.99999999999999
 21
31.99999999999999
 31
0
  0
LINE
  8
1
 62
7
 10
3.000000000000014
 20
39.14999999999999
 30
0
 11
6.000000000000014
 21
39.14999999999999
 31
0
  0
LINE
  8
1
 62
7
 10
3.000000000000014
 20
46.74999999999999
 30
0
 11
3.000000000000014
 21
39.14999999999999
 31
0
  0
LINE
  8
1
 62
7
 10
6.000000000000014
 20
46.74999999999999
 30
0
 11
3.000000000000014
 21
46.74999999999999
 31
0
  0
LINE
  8
1
 62
7
 10
25.00000000000001
 20
38.99999999999999
 30
0
 11
24.00000000000001
 21
38.99999999999999
 31
0
  0
LINE
  8
1
 62
7
 10
58.49999999999999
 20
53.69999999999999
 30
0
 11
58.5
 21
32.79999999999998
 31
0
  0
LINE
  8
1
 62
7
 10
69.99999999999999
 20
33.99999999999999
 30
0
 11
68.39999999999999
 21
33.99999999999999
 31
0
  0
LINE
  8
1
 62
7
 10
68.39999999999999
 20
33.99999999999999
 30
0
 11
68.39999999999999
 21
27
 31
0
  0
LINE
  8
1
 62
7
 10
68.39999999999999
 20
27
 30
0
 11
69.99999999999999
 21
27
 31
0
  0
LINE
  8
1
 62
7
 10
77.25
 20
33.49999999999999
 30
0
 11
77.25
 21
27.49999999999999
 31
0
  0
LINE
  8
1
 62
7
 10
70.25
 20
33.49999999999999
 30
0
 11
70.25
 21
27.49999999999999
 31
0
  0
LINE
  8
1
 62
7
 10
4.15000000000002
 20
74.92573070537659
 30
0
 11
4.15000000000002
 21
53.69999999999999
 31
0
  0
LINE
  8
1
 62
7
 10
5.850000000000009
 20
53.69999999999999
 30
0
 11
5.850000000000009
 21
74.92573070537659
 31
0
  0
LINE
  8
1
 62
7
 10
4.15000000000002
 20
74.92573070537659
 30
0
 11
5.850000000000009
 21
74.92573070537659
 31
0
  0
LINE
  8
1
 62
7
 10
4.450000000000117
 20
77.17935767922208
 30
0
 11
4.450000000000117
 21
74.92573070537659
 31
0
  0
LINE
  8
1
 62
7
 10
4.750000000000114
 20
77.17935767922208
 30
0
 11
4.750000000000114
 21
74.92573070537659
 31
0
  0
LINE
  8
1
 62
7
 10
5.250000000000014
 20
77.17935767922208
 30
0
 11
5.250000000000014
 21
74.92573070537659
 31
0
  0
LINE
  8
1
 62
7
 10
5.550000000000011
 20
77.17935767922208
 30
0
 11
5.550000000000011
 21
74.92573070537659
 31
0
  0
LINE
  8
1
 62
7
 10
3.000000000000014
 20
44.99999999999999
 30
0
 11
0
 21
44.99999999999999
 31
0
  0
LINE
  8
1
 62
7
 10
4.000000000000014
 20
27.49999999999999
 30
0
 11
0
 21
27.49999999999999
 31
0
  0
LINE
  8
1
 62
7
 10
24.00000000000001
 20
44.99999999999999
 30
0
 11
6.000000000000014
 21
44.99999999999999
 31
0
  0
LINE
  8
1
 62
7
 10
6.000000000000014
 20
46.74999999999999
 30
0
 11
6.000000000000014
 21
26
 31
0
  0
LINE
  8
1
 62
7
 10
6.000000000000014
 20
27.49999999999999
 30
0
 11
24.00000000000001
 21
27.49999999999999
 31
0
  0
LINE
  8
1
 62
7
 10
24.00000000000001
 20
27.49999999999999
 30
0
 11
24.00000000000001
 21
44.99999999999999
 31
0
  0
LINE
  8
1
 62
7
 10
12.37500000000001
 20
31.70336663013168
 30
0
 11
6.000000000000014
 21
31.70336663013168
 31
0
  0
LINE
  8
1
 62
7
 10
17.62500000000001
 20
31.70336663013168
 30
0
 11
24.00000000000001
 21
31.70336663013168
 31
0
  0
LINE
  8
1
 62
7
 10
17.62500000000001
 20
40.7966333698683
 30
0
 11
24.00000000000001
 21
40.7966333698683
 31
0
  0
LINE
  8
1
 62
7
 10
12.37500000000001
 20
40.7966333698683
 30
0
 11
6.000000000000014
 21
40.7966333698683
 31
0
  0
LINE
  8
1
 62
7
 10
7.800000000000111
 20
41.49999999999999
 30
0
 11
7.800000000000111
 21
30.99999999999999
 31
0
  0
LINE
  8
1
 62
7
 10
22.20000000000002
 20
41.49999999999999
 30
0
 11
22.20000000000002
 21
30.99999999999999
 31
0
  0
LINE
  8
1
 62
7
 10
6.000000000000014
 20
-26
 30
0
 11
4.000000000000014
 21
-26
 31
0
  0
LINE
  8
1
 62
7
 10
4.000000000000014
 20
-26
 30
0
 11
4.000000000000014
 21
-31
 31
0
  0
LINE
  8
1
 62
7
 10
4.000000000000014
 20
-31
 30
0
 11
6.000000000000014
 21
-31
 31
0
  0
LINE
  8
1
 62
7
 10
6.000000000000014
 20
-39.14999999999999
 30
0
 11
3.000000000000014
 21
-39.14999999999999
 31
0
  0
LINE
  8
1
 62
7
 10
6.000000000000014
 20
-45
 30
0
 11
24.00000000000001
 21
-45
 31
0
  0
LINE
  8
1
 62
7
 10
6.000000000000014
 20
-26
 30
0
 11
6.000000000000014
 21
-46.75
 31
0
  0
LINE
  8
1
 62
7
 10
24.00000000000001
 20
-27.5
 30
0
 11
6.000000000000014
 21
-27.5
 31
0
  0
LINE
  8
1
 62
7
 10
24.00000000000001
 20
-45
 30
0
 11
24.00000000000001
 21
-27.5
 31
0
  0
LINE
  8
1
 62
7
 10
6.000000000000014
 20
-31.7033666301317
 30
0
 11
12.37500000000001
 21
-31.7033666301317
 31
0
  0
LINE
  8
1
 62
7
 10
24.00000000000001
 20
-31.7033666301317
 30
0
 11
17.62500000000001
 21
-31.7033666301317
 31
0
  0
LINE
  8
1
 62
7
 10
24.00000000000001
 20
-40.7966333698683
 30
0
 11
17.62500000000001
 21
-40.7966333698683
 31
0
  0
LINE
  8
1
 62
7
 10
6.000000000000014
 20
-40.7966333698683
 30
0
 11
12.37500000000001
 21
-40.7966333698683
 31
0
  0
LINE
  8
1
 62
7
 10
7.800000000000111
 20
-31
 30
0
 11
7.800000000000111
 21
-41.5
 31
0
  0
LINE
  8
1
 62
7
 10
22.20000000000002
 20
-31
 30
0
 11
22.20000000000002
 21
-41.5
 31
0
  0
LINE
  8
1
 62
7
 10
3.000000000000014
 20
-39.14999999999999
 30
0
 11
3.000000000000014
 21
-46.75
 31
0
  0
LINE
  8
1
 62
7
 10
3.000000000000014
 20
-46.75
 30
0
 11
6.000000000000014
 21
-46.75
 31
0
  0
LINE
  8
1
 62
3
  6
DASHDOT
 10
202.5535871590471
 20
73
 30
0
 11
194.4719797349273
 21
73
 31
0
  0
LINE
  8
1
 62
3
  6
DASHDOT
 10
198.5127834469872
 20
77.04080371205993
 30
0
 11
198.5127834469872
 21
68.95919628794007
 31
0
  0
LINE
  8
1
 62
3
  6
DASHDOT
 10
205.2044457857555
 20
0
 30
0
 11
191.8211211082189
 21
0
 31
0
  0
LINE
  8
1
 62
3
  6
DASHDOT
 10
198.5127834469872
 20
6.69166233876831
 30
0
 11
198.5127834469872
 21
-6.69166233876831
 31
0
  0
LINE
  8
1
 62
3
  6
DASHDOT
 10
198.5127834469872
 20
36.43992536182169
 30
0
 11
198.5127834469872
 21
45.56151541557269
 31
0
  0
LINE
  8
1
 62
3
  6
DASHDOT
 10
198.5127834469872
 20
-45.5615154155727
 30
0
 11
198.5127834469872
 21
-36.43992536182169
 31
0
  0
LINE
  8
1
 62
3
 10
0
 20
0
 30
0
 11
-3.932986568667673
 21
0
 31
0
  0
LINE
  8
1
 62
7
 10
-142.2735399592389
 20
53.69999999999999
 30
0
 11
-115.2735399592388
 21
53.69999999999999
 31
0
  0
LINE
  8
1
 62
7
 10
-139.2735399592389
 20
79
 30
0
 11
-139.2735399592389
 21
53.69999999999999
 31
0
  0
LINE
  8
1
 62
7
 10
-141.2735399592389
 20
79
 30
0
 11
-139.2735399592389
 21
79
 31
0
  0
LINE
  8
1
 62
7
 10
-141.2735399592389
 20
79
 30
0
 11
-141.2735399592389
 21
53.69999999999999
 31
0
  0
LINE
  8
1
 62
7
 10
-115.2735399592388
 20
-57.5
 30
0
 11
-115.2735399592388
 21
57.5
 31
0
  0
LINE
  8
1
 62
7
 10
-112.7735399592388
 20
-60
 30
0
 11
-72.5735399592389
 21
-60
 31
0
  0
LINE
  8
1
 62
7
 10
-72.5735399592389
 20
-60
 30
0
 11
-72.5735399592389
 21
60
 31
0
  0
LINE
  8
1
 62
7
 10
-115.2735399592388
 20
-57.5
 30
0
 11
-112.7735399592388
 21
-60
 31
0
  0
LINE
  8
1
 62
7
 10
-53.27353995923878
 20
-53.59999999999999
 30
0
 11
-53.27353995923878
 21
53.59999999999998
 31
0
  0
LINE
  8
1
 62
7
 10
-50.27353995923878
 20
-49
 30
0
 11
-53.27353995923878
 21
-49
 31
0
  0
LINE
  8
1
 62
7
 10
-50.27353995923878
 20
48.99999999999999
 30
0
 11
-50.27353995923878
 21
-49
 31
0
  0
LINE
  8
1
 62
7
 10
-54.1235399592388
 20
-60
 30
0
 11
-71.87353995923888
 21
-60
 31
0
  0
LINE
  8
1
 62
3
 10
-70.3235399592389
 20
60
 30
0
 11
-70.3235399592389
 21
-60
 31
0
  0
LINE
  8
1
 62
7
 10
-71.87353995923888
 20
60
 30
0
 11
-71.87353995923888
 21
-60
 31
0
  0
LINE
  8
1
 62
3
 10
-74.12353995923877
 20
60
 30
0
 11
-74.12353995923877
 21
-60
 31
0
  0
LINE
  8
1
 62
7
 10
-71.87353995923888
 20
60
 30
0
 11
-54.1235399592388
 21
60
 31
0
  0
LINE
  8
1
 62
7
 10
-53.27353995923878
 20
48.99999999999999
 30
0
 11
-50.27353995923878
 21
48.99999999999999
 31
0
  0
LINE
  8
1
 62
3
 10
-50.27353995923878
 20
0
 30
0
 11
-46.00845634280049
 21
0
 31
0
  0
LINE
  8
1
 62
7
 10
-112.7735399592388
 20
60
 30
0
 11
-115.2735399592388
 21
57.5
 31
0
  0
LINE
  8
1
 62
7
 10
-72.5735399592389
 20
60
 30
0
 11
-112.7735399592388
 21
60
 31
0
  0
LINE
  8
1
 62
7
 10
-138.1235399592389
 20
74.92573070537659
 30
0
 11
-138.1235399592389
 21
53.69999999999999
 31
0
  0
LINE
  8
1
 62
7
 10
-136.4235399592389
 20
53.69999999999999
 30
0
 11
-136.4235399592389
 21
74.92573070537659
 31
0
  0
LINE
  8
1
 62
7
 10
-138.1235399592389
 20
74.92573070537659
 30
0
 11
-136.4235399592389
 21
74.92573070537659
 31
0
  0
LINE
  8
1
 62
7
 10
-137.8235399592387
 20
77.17935767922208
 30
0
 11
-137.8235399592387
 21
74.92573070537659
 31
0
  0
LINE
  8
1
 62
7
 10
-137.5235399592388
 20
77.17935767922208
 30
0
 11
-137.5235399592388
 21
74.92573070537659
 31
0
  0
LINE
  8
1
 62
7
 10
-137.0235399592388
 20
77.17935767922208
 30
0
 11
-137.0235399592388
 21
74.92573070537659
 31
0
  0
LINE
  8
1
 62
7
 10
-136.7235399592388
 20
77.17935767922208
 30
0
 11
-136.7235399592388
 21
74.92573070537659
 31
0
  0
LINE
  8
1
 62
3
 10
-142.2735399592389
 20
0
 30
0
 11
-146.2065265279065
 21
0
 31
0
  0
LINE
  8
1
 62
7
 10
-53.27353995923878
 20
53.59999999999998
 30
0
 11
-53.92353995923878
 21
53.59999999999998
 31
0
  0
LINE
  8
1
 62
7
 10
-53.27353995923878
 20
-53.59999999999999
 30
0
 11
-53.92353995923878
 21
-53.59999999999999
 31
0
  0
LINE
  8
1
 62
7
 10
-53.92353995923878
 20
60
 30
0
 11
-53.92353995923878
 21
-60
 31
0
  0
LINE
  8
1
 62
7
 10
-112.7735399592388
 20
60
 30
0
 11
-112.7735399592388
 21
-60
 31
0
  0
LINE
  8
1
 62
7
 10
-115.2735399592388
 20
-53.69999999999999
 30
0
 11
-142.2735399592389
 21
-53.69999999999999
 31
0
  0
LINE
  8
1
 62
7
 10
-246.2163838619317
 20
79
 30
0
 11
-258.2163838619317
 21
79
 31
0
  0
LINE
  8
1
 62
7
 10
-260.2163838619317
 20
77
 30
0
 11
-260.2163838619317
 21
60.15470053837925
 31
0
  0
LINE
  8
1
 62
7
 10
-247.2163838619317
 20
23.5
 30
0
 11
-247.2163838619317
 21
19.36491673103708
 31
0
  0
LINE
  8
1
 62
7
 10
-257.2163838619317
 20
23.5
 30
0
 11
-247.2163838619317
 21
23.5
 31
0
  0
LINE
  8
1
 62
7
 10
-257.2163838619317
 20
19.36491673103708
 30
0
 11
-257.2163838619317
 21
23.5
 31
0
  0
LINE
  8
1
 62
3
  6
DASHDOT
 10
-248.1755801498717
 20
73
 30
0
 11
-256.2571875739916
 21
73
 31
0
  0
LINE
  8
1
 62
3
  6
DASHDOT
 10
-252.2163838619317
 20
77.04080371205993
 30
0
 11
-252.2163838619317
 21
68.95919628794007
 31
0
  0
LINE
  8
1
 62
3
  6
DASHDOT
 10
-245.5247215231634
 20
0
 30
0
 11
-258.9080462007
 21
0
 31
0
  0
LINE
  8
1
 62
3
  6
DASHDOT
 10
-252.2163838619317
 20
6.69166233876831
 30
0
 11
-252.2163838619317
 21
-6.69166233876831
 31
0
  0
LINE
  8
1
 62
7
 10
-267.2163838619317
 20
51.56248636363456
 30
0
 11
-267.2163838619317
 21
42.42640687119285
 31
0
  0
LINE
  8
1
 62
7
 10
-237.2163838619317
 20
42.42640687119285
 30
0
 11
-237.2163838619317
 21
51.56248636363456
 31
0
  0
LINE
  8
1
 62
7
 10
-264.2163838619317
 20
45
 30
0
 11
-240.2163838619317
 21
45
 31
0
  0
LINE
  8
1
 62
7
 10
-266.2163838619317
 20
47
 30
0
 11
-266.2163838619317
 21
54.38119784648299
 31
0
  0
LINE
  8
1
 62
7
 10
-265.2163838619317
 20
56.11324865405187
 30
0
 11
-261.2163838619317
 21
58.42264973081038
 31
0
  0
LINE
  8
1
 62
7
 10
-238.2163838619317
 20
47
 30
0
 11
-238.2163838619317
 21
54.38119784648299
 31
0
  0
LINE
  8
1
 62
7
 10
-239.2163838619317
 20
56.11324865405187
 30
0
 11
-243.2163838619317
 21
58.42264973081038
 31
0
  0
LINE
  8
1
 62
7
 10
-244.2163838619317
 20
60.15470053837925
 30
0
 11
-244.2163838619317
 21
77
 31
0
  0
LINE
  8
1
 62
7
 10
-243.8863838619317
 20
52.2
 30
0
 11
-244.5463838619317
 21
52.2
 31
0
  0
LINE
  8
1
 62
7
 10
-246.4163838619317
 20
50.33
 30
0
 11
-246.4163838619317
 21
49.67
 31
0
  0
LINE
  8
1
 62
7
 10
-244.5463838619317
 20
47.8
 30
0
 11
-243.8863838619317
 21
47.8
 31
0
  0
LINE
  8
1
 62
7
 10
-242.0163838619317
 20
49.67
 30
0
 11
-242.0163838619317
 21
50.33
 31
0
  0
LINE
  8
1
 62
7
 10
-260.5463838619317
 20
47.8
 30
0
 11
-259.8863838619317
 21
47.8
 31
0
  0
LINE
  8
1
 62
7
 10
-258.0163838619317
 20
49.67
 30
0
 11
-258.0163838619317
 21
50.33
 31
0
  0
LINE
  8
1
 62
7
 10
-259.8863838619317
 20
52.2
 30
0
 11
-260.5463838619317
 21
52.2
 31
0
  0
LINE
  8
1
 62
7
 10
-262.4163838619317
 20
50.33
 30
0
 11
-262.4163838619317
 21
49.67
 31
0
  0
LINE
  8
1
 62
7
 10
-137.2735399592389
 20
77.17935767922208
 30
0
 11
-137.2735399592389
 21
74.92573070537659
 31
0
  0
LINE
  8
1
 62
7
 10
203.0884422231375
 20
59.8252734783907
 30
0
 11
213.8174428810011
 21
78.40844773225044
 31
0
  0
LINE
  8
1
 62
7
 10
213.8174428810011
 20
78.40844773225044
 30
0
 11
216.7619292538682
 21
76.70844773225046
 31
0
  0
LINE
  8
1
 62
7
 10
216.7619292538682
 20
76.70844773225046
 30
0
 11
206.7845288401691
 21
59.4270832882649
 31
0
  0
LINE
  8
1
 62
7
 10
204.9522281684351
 20
59.65344543007902
 30
0
 11
215.2896860674347
 21
77.55844773225044
 31
0
  0
LINE
  8
1
 62
7
 10
214.5535644742179
 20
77.98344773225044
 30
0
 11
215.9292526769403
 21
80.36620959473866
 31
0
  0
LINE
  8
1
 62
7
 10
217.4014958633738
 20
79.51620959473868
 30
0
 11
216.0258076606515
 21
77.13344773225045
 31
0
  0
LINE
  8
1
 62
7
 10
214.2937568530826
 20
78.13344773225045
 30
0
 11
215.6694450558049
 21
80.51620959473867
 31
0
  0
LINE
  8
1
 62
7
 10
214.0339492319472
 20
78.28344773225044
 30
0
 11
215.4096374346696
 21
80.66620959473868
 31
0
  0
LINE
  8
1
 62
7
 10
214.8133720953533
 20
77.83344773225045
 30
0
 11
216.1890602980756
 21
80.21620959473867
 31
0
  0
LINE
  8
1
 62
7
 10
215.0731797164886
 20
77.68344773225044
 30
0
 11
216.448867919211
 21
80.06620959473867
 31
0
  0
LINE
  8
1
 62
7
 10
217.1416882422385
 20
79.66620959473869
 30
0
 11
215.7660000395161
 21
77.28344773225045
 31
0
  0
LINE
  8
1
 62
7
 10
216.8818806211031
 20
79.81620959473869
 30
0
 11
215.5061924183808
 21
77.43344773225046
 31
0
  0
LINE
  8
1
 62
7
 10
217.6613034845091
 20
79.36620959473869
 30
0
 11
216.2856152817868
 21
76.98344773225045
 31
0
  0
LINE
  8
1
 62
7
 10
217.9211111056445
 20
79.21620959473869
 30
0
 11
216.5454229029221
 21
76.83344773225045
 31
0
  0
LINE
  8
1
 62
7
 10
206.5127834469872
 20
65.75640646055102
 30
0
 11
206.5127834469872
 21
77
 31
0
  0
LINE
  8
1
 62
7
 10
-267.5210432959456
 20
78.40844773225044
 30
0
 11
-260.2163838619317
 21
65.75640646055096
 31
0
  0
LINE
  8
1
 62
7
 10
-268.9932864823792
 20
77.55844773225044
 30
0
 11
-260.2163838619317
 21
62.35640646055096
 31
0
  0
LINE
  8
1
 62
7
 10
-260.407318623294
 20
59.30189167213033
 30
0
 11
-270.4655296688127
 21
76.70844773225046
 31
0
  0
LINE
  8
1
 62
7
 10
-270.4655296688127
 20
76.70844773225046
 30
0
 11
-267.5210432959456
 21
78.40844773225044
 31
0
  0
LINE
  8
1
 62
7
 10
-269.6328530918848
 20
80.36620959473866
 30
0
 11
-268.2571648891624
 21
77.98344773225044
 31
0
  0
LINE
  8
1
 62
7
 10
-269.7294080755959
 20
77.13344773225045
 30
0
 11
-271.1050962783183
 21
79.51620959473868
 31
0
  0
LINE
  8
1
 62
7
 10
-269.3730454707495
 20
80.51620959473867
 30
0
 11
-267.9973572680271
 21
78.13344773225045
 31
0
  0
LINE
  8
1
 62
7
 10
-269.1132378496141
 20
80.66620959473868
 30
0
 11
-267.7375496468918
 21
78.28344773225044
 31
0
  0
LINE
  8
1
 62
7
 10
-269.8926607130201
 20
80.21620959473867
 30
0
 11
-268.5169725102978
 21
77.83344773225045
 31
0
  0
LINE
  8
1
 62
7
 10
-270.1524683341555
 20
80.06620959473867
 30
0
 11
-268.7767801314331
 21
77.68344773225044
 31
0
  0
LINE
  8
1
 62
7
 10
-269.4696004544607
 20
77.28344773225045
 30
0
 11
-270.845288657183
 21
79.66620959473869
 31
0
  0
LINE
  8
1
 62
7
 10
-269.2097928333253
 20
77.43344773225046
 30
0
 11
-270.5854810360476
 21
79.81620959473869
 31
0
  0
LINE
  8
1
 62
7
 10
-269.9892156967313
 20
76.98344773225045
 30
0
 11
-271.3649038994536
 21
79.36620959473869
 31
0
  0
LINE
  8
1
 62
7
 10
-270.2490233178666
 20
76.83344773225045
 30
0
 11
-271.624711520589
 21
79.21620959473869
 31
0
  0
LINE
  8
1
 62
3
  6
DASHDOT
 10
-142.6627158955096
 20
73
 30
0
 11
-137.9803711677415
 21
73
 31
0
  0
LINE
  8
1
 62
3
 10
71.80000000000004
 20
60
 30
0
 11
71.80000000000004
 21
53.99999999999999
 31
0
  0
LINE
  8
1
 62
3
 10
71.80000000000004
 20
-54
 30
0
 11
71.80000000000004
 21
-60
 31
0
  0
ARC
  8
1
 62
7
 10
198.5127834469872
 20
0
 30
0
 40
19.99999999999999
 50
104.4775121859299
 51
75.52248781407008
  0
ARC
  8
1
 62
3
 10
198.5127834469872
 20
0
 30
0
 40
40.99999999999999
 50
143.5769338046937
 51
156.6154831990168
  0
ARC
  8
1
 62
3
 10
198.5127834469872
 20
0
 30
0
 40
41.00000000000002
 50
203.5120142537623
 51
216.3042943876688
  0
ARC
  8
1
 62
3
 10
198.5127834469872
 20
0
 30
0
 40
40.99999999999996
 50
263.1882894143921
 51
276.6537028055331
  0
ARC
  8
1
 62
3
 10
198.5127834469872
 20
0
 30
0
 40
40.99999999999997
 50
323.5603984552988
 51
336.4825658117407
  0
ARC
  8
1
 62
3
 10
198.5127834469872
 20
0
 30
0
 40
41.00000000000001
 50
84.38523744096997
 51
95.64070460007299
  0
ARC
  8
1
 62
3
 10
198.5127834469872
 20
0
 30
0
 40
41.00000000000002
 50
23.74772441517099
 51
35.66579646651623
  0
ARC
  8
1
 62
7
 10
-252.2163838619317
 20
0
 30
0
 40
20
 50
104.47751218593
 51
75.52248781407008
  0
ARC
  8
1
 62
7
 10
-252.2163838619317
 20
0
 30
0
 40
53.70000000000002
 50
105.1120548357245
 51
106.2201977596978
  0
ARC
  8
1
 62
7
 10
-252.2163838619317
 20
0
 30
0
 40
53.7
 50
106.2201977596978
 51
73.77980224030227
  0
ARC
  8
1
 62
7
 10
-252.2163838619317
 20
0
 30
0
 40
53.7
 50
73.77980224030227
 51
74.88794516427551
  0
ARC
  8
1
 62
7
 10
-242.0163838619317
 20
52.2
 30
0
 40
1.870000000000005
 50
180
 51
270
  0
ARC
  8
1
 62
7
 10
-246.4163838619317
 20
52.2
 30
0
 40
1.870000000000005
 50
270
 51
0
  0
ARC
  8
1
 62
7
 10
-246.4163838619317
 20
47.8
 30
0
 40
1.870000000000005
 50
0
 51
90
  0
ARC
  8
1
 62
7
 10
-242.0163838619317
 20
47.8
 30
0
 40
1.870000000000005
 50
90
 51
180
  0
ARC
  8
1
 62
7
 10
-262.4163838619317
 20
47.8
 30
0
 40
1.870000000000005
 50
0
 51
90
  0
ARC
  8
1
 62
7
 10
-258.0163838619317
 20
47.8
 30
0
 40
1.870000000000005
 50
90
 51
180
  0
ARC
  8
1
 62
7
 10
-258.0163838619317
 20
52.2
 30
0
 40
1.870000000000005
 50
180
 51
270
  0
ARC
  8
1
 62
7
 10
-262.4163838619317
 20
52.2
 30
0
 40
1.870000000000005
 50
270
 51
0
  0
ARC
  8
1
 62
7
 10
-252.2163838619317
 20
0
 30
0
 40
59.99999999999999
 50
97.91661432302813
 51
0
  0
ARC
  8
1
 62
7
 10
-252.2163838619317
 20
0
 30
0
 40
60
 50
0
 51
82.21294246879404
  0
ARC
  8
1
 62
7
 10
192.5127834469872
 20
77
 30
0
 40
2
 50
90
 51
180
  0
ARC
  8
1
 62
7
 10
204.5127834469872
 20
77
 30
0
 40
2
 50
0
 51
90
  0
ARC
  8
1
 62
7
 10
-258.2163838619317
 20
77
 30
0
 40
2
 50
90
 51
180
  0
ARC
  8
1
 62
7
 10
-246.2163838619317
 20
77
 30
0
 40
2
 50
0
 51
90
  0
ARC
  8
1
 62
7
 10
-264.2163838619317
 20
54.38119784648299
 30
0
 40
2.000000000000004
 50
119.9999999999999
 51
180
  0
ARC
  8
1
 62
7
 10
-262.2163838619317
 20
60.15470053837925
 30
0
 40
1.999999999999998
 50
300.0000000000001
 51
0
  0
ARC
  8
1
 62
7
 10
-242.2163838619317
 20
60.15470053837925
 30
0
 40
2
 50
180
 51
240
  0
ARC
  8
1
 62
7
 10
-240.2163838619317
 20
54.38119784648299
 30
0
 40
2
 50
0
 51
60.00000000000007
  0
ARC
  8
1
 62
7
 10
-264.2163838619317
 20
47
 30
0
 40
2
 50
180
 51
270
  0
ARC
  8
1
 62
7
 10
-240.2163838619317
 20
47
 30
0
 40
2
 50
270
 51
0
  0
CIRCLE
  8
1
 62
7
 10
234.0198250021492
 20
20.49999999999997
 30
0
 40
2.400000000000006
  0
CIRCLE
  8
1
 62
3
 10
234.0198250021492
 20
20.49999999999997
 30
0
 40
3
  0
CIRCLE
  8
1
 62
7
 10
234.0198250021491
 20
-20.50000000000001
 30
0
 40
2.400000000000006
  0
CIRCLE
  8
1
 62
3
 10
234.0198250021491
 20
-20.50000000000001
 30
0
 40
3
  0
CIRCLE
  8
1
 62
7
 10
198.5127834469872
 20
-41
 30
0
 40
2.399999999999977
  0
CIRCLE
  8
1
 62
3
 10
198.5127834469872
 20
-41
 30
0
 40
3
  0
CIRCLE
  8
1
 62
7
 10
163.0057418918252
 20
-20.49999999999999
 30
0
 40
2.399999999999977
  0
CIRCLE
  8
1
 62
3
 10
163.0057418918252
 20
-20.49999999999999
 30
0
 40
3
  0
CIRCLE
  8
1
 62
7
 10
163.0057418918252
 20
20.5
 30
0
 40
2.400000000000091
  0
CIRCLE
  8
1
 62
3
 10
163.0057418918252
 20
20.5
 30
0
 40
3
  0
CIRCLE
  8
1
 62
3
 10
198.5127834469872
 20
40.99999999999999
 30
0
 40
3
  0
CIRCLE
  8
1
 62
7
 10
198.5127834469872
 20
40.99999999999999
 30
0
 40
2.399999999999977
  0
CIRCLE
  8
1
 62
7
 10
198.5127834469872
 20
73
 30
0
 40
2.75
  0
CIRCLE
  8
1
 62
7
 10
172.1584914498391
 20
-31.40782216787809
 30
0
 40
5.499999999999915
  0
CIRCLE
  8
1
 62
7
 10
172.1584914498391
 20
-31.40782216787809
 30
0
 40
5.999999999999915
  0
CIRCLE
  8
1
 62
7
 10
224.8670754441353
 20
-31.40782216787809
 30
0
 40
6.000000000000085
  0
CIRCLE
  8
1
 62
7
 10
224.8670754441353
 20
-31.40782216787809
 30
0
 40
5.5
  0
CIRCLE
  8
1
 62
7
 10
172.1584914498391
 20
31.40782216787808
 30
0
 40
5.499999999999915
  0
CIRCLE
  8
1
 62
7
 10
172.1584914498391
 20
31.40782216787808
 30
0
 40
5.999999999999915
  0
CIRCLE
  8
1
 62
7
 10
224.8670754441353
 20
31.40782216787808
 30
0
 40
6.000000000000085
  0
CIRCLE
  8
1
 62
7
 10
224.8670754441353
 20
31.40782216787808
 30
0
 40
5.5
  0
CIRCLE
  8
1
 62
7
 10
198.5127834469872
 20
0
 30
0
 40
53.59999999999999
  0
CIRCLE
  8
1
 62
7
 10
198.5127834469872
 20
0
 30
0
 40
25.5
  0
CIRCLE
  8
1
 62
7
 10
198.5127834469872
 20
0
 30
0
 40
32.5
  0
CIRCLE
  8
1
 62
7
 10
198.5127834469872
 20
0
 30
0
 40
49
  0
CIRCLE
  8
1
 62
7
 10
198.5127834469872
 20
0
 30
0
 40
60
  0
CIRCLE
  8
1
 62
7
 10
15.00000000000001
 20
36.24999999999999
 30
0
 40
5.25
  0
CIRCLE
  8
1
 62
7
 10
15.00000000000001
 20
-36.25
 30
0
 40
5.25
  0
CIRCLE
  8
1
 62
7
 10
-252.2163838619317
 20
73
 30
0
 40
2.75
  0
CIRCLE
  8
1
 62
7
 10
-252.2163838619317
 20
0
 30
0
 40
27.5
  0
CIRCLE
  8
1
 62
7
 10
-252.2163838619317
 20
0
 30
0
 40
45
  0
CIRCLE
  8
1
 62
7
 10
-244.2163838619317
 20
50
 30
0
 40
4
  0
CIRCLE
  8
1
 62
7
 10
-260.2163838619317
 20
50
 30
0
 40
4
  0
TEXT
  8
1
 62
7
 10
-267.035584768775
 20
119.9557504800793
 30
0
 40
7
  1
MZS 25
 41
0.9
  7
SIMPLEX
  0
TEXT
  8
1
 62
7
 10
-267.035584768775
 20
109.4557504800793
 30
0
 40
7
  1
DC5205
 41
0.9
  7
SIMPLEX
  0
ENDSEC
  0
EOF
