  0
SECTION
  2
HEADER
  9
$ACADVER
  1
AC1009
  9
$INSBASE
 10
0.0
 20
0.0
 30
0.0
  9
$EXTMIN
 10
-245.624367044726
 20
-37.5
 30
0.0
  9
$EXTMAX
 10
197.4176032081061
 20
119.06948626009481
 30
0.0
  9
$LIMMIN
 10
-240.29985980808601
 20
-37.5
  9
$LIMMAX
 10
197.41760320810599
 20
119.06948626009471
  9
$ORTHOMODE
 70
     0
  9
$REGENMODE
 70
     1
  9
$FILLMODE
 70
     1
  9
$QTEXTMODE
 70
     0
  9
$MIRRTEXT
 70
     1
  9
$DRAGMODE
 70
     2
  9
$LTSCALE
 40
1.0
  9
$OSMODE
 70
    37
  9
$ATTMODE
 70
     1
  9
$TEXTSIZE
 40
3.5
  9
$TRACEWID
 40
0.5
  9
$TEXTSTYLE
  7
STANDARD
  9
$CLAYER
  8
0
  9
$CELTYPE
  6
BYLAYER
  9
$CECOLOR
 62
   256
  9
$DIMSCALE
 40
1.0
  9
$DIMASZ
 40
0.18
  9
$DIMEXO
 40
0.0625
  9
$DIMDLI
 40
0.38
  9
$DIMRND
 40
0.0
  9
$DIMDLE
 40
0.0
  9
$DIMEXE
 40
0.18
  9
$DIMTP
 40
0.0
  9
$DIMTM
 40
0.0
  9
$DIMTXT
 40
0.18
  9
$DIMCEN
 40
0.09
  9
$DIMTSZ
 40
0.0
  9
$DIMTOL
 70
     0
  9
$DIMLIM
 70
     0
  9
$DIMTIH
 70
     1
  9
$DIMTOH
 70
     1
  9
$DIMSE1
 70
     0
  9
$DIMSE2
 70
     0
  9
$DIMTAD
 70
     0
  9
$DIMZIN
 70
     0
  9
$DIMBLK
  1

  9
$DIMASO
 70
     1
  9
$DIMSHO
 70
     1
  9
$DIMPOST
  1

  9
$DIMAPOST
  1

  9
$DIMALT
 70
     0
  9
$DIMALTD
 70
     2
  9
$DIMALTF
 40
25.399999999999999
  9
$DIMLFAC
 40
1.0
  9
$DIMTOFL
 70
     0
  9
$DIMTVP
 40
0.0
  9
$DIMTIX
 70
     0
  9
$DIMSOXD
 70
     0
  9
$DIMSAH
 70
     0
  9
$DIMBLK1
  1

  9
$DIMBLK2
  1

  9
$DIMSTYLE
  2
STANDARD
  9
$DIMCLRD
 70
     0
  9
$DIMCLRE
 70
     0
  9
$DIMCLRT
 70
     0
  9
$DIMTFAC
 40
1.0
  9
$DIMGAP
 40
0.09
  9
$LUNITS
 70
     2
  9
$LUPREC
 70
     4
  9
$SKETCHINC
 40
0.1
  9
$FILLETRAD
 40
2.0
  9
$AUNITS
 70
     0
  9
$AUPREC
 70
     0
  9
$MENU
  1
ACAD
  9
$ELEVATION
 40
0.0
  9
$PELEVATION
 40
0.0
  9
$THICKNESS
 40
0.0
  9
$LIMCHECK
 70
     0
  9
$BLIPMODE
 70
     0
  9
$CHAMFERA
 40
0.0
  9
$CHAMFERB
 40
0.0
  9
$SKPOLY
 70
     0
  9
$TDCREATE
 40
2452098.6900204858
  9
$TDUPDATE
 40
2452098.690763657
  9
$TDINDWG
 40
0.0007444444
  9
$TDUSRTIMER
 40
0.0007444444
  9
$USRTIMER
 70
     1
  9
$ANGBASE
 50
0.0
  9
$ANGDIR
 70
     0
  9
$PDMODE
 70
     0
  9
$PDSIZE
 40
0.0
  9
$PLINEWID
 40
0.0
  9
$COORDS
 70
     1
  9
$SPLFRAME
 70
     0
  9
$SPLINETYPE
 70
     6
  9
$SPLINESEGS
 70
     8
  9
$ATTDIA
 70
     0
  9
$ATTREQ
 70
     1
  9
$HANDLING
 70
 10241
  9
$HANDSEED
  5
177
  9
$SURFTAB1
 70
     6
  9
$SURFTAB2
 70
     6
  9
$SURFTYPE
 70
     6
  9
$SURFU
 70
     6
  9
$SURFV
 70
     6
  9
$UCSNAME
  2

  9
$UCSORG
 10
0.0
 20
0.0
 30
0.0
  9
$UCSXDIR
 10
1.0
 20
0.0
 30
0.0
  9
$UCSYDIR
 10
0.0
 20
1.0
 30
0.0
  9
$PUCSNAME
  2

  9
$PUCSORG
 10
0.0
 20
0.0
 30
0.0
  9
$PUCSXDIR
 10
1.0
 20
0.0
 30
0.0
  9
$PUCSYDIR
 10
0.0
 20
1.0
 30
0.0
  9
$USERI1
 70
     0
  9
$USERI2
 70
     0
  9
$USERI3
 70
     0
  9
$USERI4
 70
     0
  9
$USERI5
 70
     0
  9
$USERR1
 40
0.0
  9
$USERR2
 40
0.0
  9
$USERR3
 40
0.0
  9
$USERR4
 40
0.0
  9
$USERR5
 40
0.0
  9
$WORLDVIEW
 70
     1
  9
$SHADEDGE
 70
     3
  9
$SHADEDIF
 70
    70
  9
$TILEMODE
 70
     1
  9
$MAXACTVP
 70
    64
  9
$PLIMCHECK
 70
     0
  9
$PEXTMIN
 10
1.0000000000000000E+020
 20
1.0000000000000000E+020
 30
1.0000000000000000E+020
  9
$PEXTMAX
 10
-1.0000000000000000E+020
 20
-1.0000000000000000E+020
 30
-1.0000000000000000E+020
  9
$PLIMMIN
 10
0.0
 20
0.0
  9
$PLIMMAX
 10
12.0
 20
9.0
  9
$UNITMODE
 70
     0
  9
$VISRETAIN
 70
     1
  9
$PLINEGEN
 70
     0
  9
$PSLTSCALE
 70
     1
  0
ENDSEC
  0
SECTION
  2
TABLES
  0
TABLE
  2
VPORT
 70
     2
  0
VPORT
  2
*ACTIVE
 70
     0
 10
0.0
 20
0.0
 11
1.0
 21
1.0
 12
-210.31044357550579
 22
110.1779202046929
 13
0.0
 23
0.0
 14
1.0
 24
1.0
 15
0.0
 25
0.0
 16
0.0
 26
0.0
 36
1.0
 17
0.0
 27
0.0
 37
0.0
 40
8.9999999724602731
 41
1.853118712273641
 42
50.0
 43
0.0
 44
0.0
 50
0.0
 51
0.0
 71
     0
 72
   100
 73
     1
 74
     1
 75
     0
 76
     0
 77
     0
 78
     0
  0
ENDTAB
  0
TABLE
  2
LTYPE
 70
     9
  0
LTYPE
  2
CONTINUOUS
 70
     0
  3
Solid line
 72
    65
 73
     0
 40
0.0
  0
LTYPE
  2
BORDER
 70
     0
  3
__ __ . __ __ .
 72
    65
 73
     6
 40
20.158041059956211
 49
5.7594403028446344
 49
-2.8797201514223172
 49
5.7594403028446344
 49
-2.8797201514223172
 49
0.0
 49
-2.8797201514223172
  0
LTYPE
  2
CENTER
 70
     0
  3
____ _ ____ _
 72
    65
 73
     4
 40
23.03776121137853
 49
14.398600757111581
 49
-2.8797201514223172
 49
2.8797201514223172
 49
-2.8797201514223172
  0
LTYPE
  2
DASHDOT
 70
     0
  3
__ . __ . __ .
 72
    65
 73
     4
 40
11.518880605689271
 49
5.7594403028446344
 49
-2.8797201514223172
 49
0.0
 49
-2.8797201514223172
  0
LTYPE
  2
DASHED
 70
     0
  3
__ __ __ __ __
 72
    65
 73
     2
 40
8.6391604542669498
 49
5.7594403028446344
 49
-2.8797201514223172
  0
LTYPE
  2
DIVIDE
 70
     0
  3
__ . . __ . . 
 72
    65
 73
     6
 40
14.398600757111581
 49
5.7594403028446344
 49
-2.8797201514223172
 49
0.0
 49
-2.8797201514223172
 49
0.0
 49
-2.8797201514223172
  0
LTYPE
  2
DOT
 70
     0
  3
..............
 72
    65
 73
     4
 40
5.7594403028446344
 49
0.0
 49
-2.8797201514223172
 49
0.0
 49
-2.8797201514223172
  0
LTYPE
  2
HIDDEN
 70
     0
  3
_ _ _ _ _ _ _
 72
    65
 73
     2
 40
4.319580227133474
 49
2.8797201514223172
 49
-1.4398600757111579
  0
LTYPE
  2
PHANTOM
 70
     0
  3
_____ _ _ _____ _ _ 
 72
    65
 73
     6
 40
28.797201514223168
 49
14.398600757111581
 49
-2.8797201514223172
 49
2.8797201514223172
 49
-2.8797201514223172
 49
2.8797201514223172
 49
-2.8797201514223172
  0
ENDTAB
  0
TABLE
  2
LAYER
 70
     2
  0
LAYER
  2
0
 70
     0
 62
     7
  6
CONTINUOUS
  0
LAYER
  2
1
 70
     0
 62
     7
  6
CONTINUOUS
  0
ENDTAB
  0
TABLE
  2
STYLE
 70
     4
  0
STYLE
  2
STANDARD
 70
     0
 40
0.0
 41
1.0
 50
0.0
 71
     0
 42
3.5
  3
txt
  4

  0
STYLE
  2
SIMPLEX
 70
     0
 40
0.0
 41
1.0
 50
0.0
 71
     0
 42
3.5
  3
simplex
  4

  0
STYLE
  2
COMPLEX
 70
     0
 40
0.0
 41
1.0
 50
0.0
 71
     0
 42
3.5
  3
complex
  4

  0
STYLE
  2
ITALIC
 70
     0
 40
0.0
 41
1.0
 50
0.0
 71
     0
 42
3.5
  3
italic
  4

  0
ENDTAB
  0
TABLE
  2
VIEW
 70
     0
  0
ENDTAB
  0
TABLE
  2
UCS
 70
     0
  0
ENDTAB
  0
TABLE
  2
APPID
 70
     1
  0
APPID
  2
ACAD
 70
     0
  0
ENDTAB
  0
TABLE
  2
DIMSTYLE
 70
     1
  0
DIMSTYLE
  2
STANDARD
 70
     0
  3

  4

  5

  6

  7

 40
1.0
 41
0.18
 42
0.0625
 43
0.38
 44
0.18
 45
0.0
 46
0.0
 47
0.0
 48
0.0
140
0.18
141
0.09
142
0.0
143
25.399999999999999
144
1.0
145
0.0
146
1.0
147
0.09
 71
     0
 72
     0
 73
     1
 74
     1
 75
     0
 76
     0
 77
     0
 78
     0
170
     0
171
     2
172
     0
173
     0
174
     0
175
     0
176
     0
177
     0
178
     0
  0
ENDTAB
  0
ENDSEC
  0
SECTION
  2
BLOCKS
  0
BLOCK
  8
0
  2
$MODEL_SPACE
 70
     0
 10
0.0
 20
0.0
 30
0.0
  3
$MODEL_SPACE
  1

  0
ENDBLK
  5
20
  8
0
  0
BLOCK
 67
     1
  8
0
  2
$PAPER_SPACE
 70
     0
 10
0.0
 20
0.0
 30
0.0
  3
$PAPER_SPACE
  1

  0
ENDBLK
  5
1C
 67
     1
  8
0
  0
ENDSEC
  0
SECTION
  2
ENTITIES
  0
LINE
  5
33
  8
1
 62
     7
 10
17.000000000000011
 20
-27.500000000000011
 30
0.0
 11
4.0000000000000133
 21
-27.500000000000011
 31
0.0
  0
LINE
  5
34
  8
1
 62
     7
 10
17.000000000000011
 20
-15.0
 30
0.0
 11
4.0000000000000133
 21
-15.0
 31
0.0
  0
LINE
  5
35
  8
1
 62
     7
 10
17.000000000000011
 20
-15.0
 30
0.0
 11
17.000000000000011
 21
-27.500000000000011
 31
0.0
  0
LINE
  5
36
  8
1
 62
     7
 10
4.0000000000000133
 20
-14.30000000000001
 30
0.0
 11
4.0000000000000133
 21
-29.000000000000011
 31
0.0
  0
LINE
  5
37
  8
1
 62
     7
 10
4.0000000000000133
 20
29.000000000000011
 30
0.0
 11
4.0000000000000133
 21
14.30000000000001
 31
0.0
  0
LINE
  5
38
  8
1
 62
     7
 10
17.000000000000011
 20
27.500000000000011
 30
0.0
 11
17.000000000000011
 21
15.0
 31
0.0
  0
LINE
  5
39
  8
1
 62
     7
 10
17.000000000000011
 20
15.0
 30
0.0
 11
4.0000000000000133
 21
15.0
 31
0.0
  0
LINE
  5
3A
  8
1
 62
     7
 10
17.000000000000011
 20
27.500000000000011
 30
0.0
 11
4.0000000000000133
 21
27.500000000000011
 31
0.0
  0
LINE
  5
3B
  8
1
 62
     3
 10
-117.91503841164339
 20
54.0
 30
0.0
 11
-114.2162925640425
 21
54.0
 31
0.0
  0
LINE
  5
3C
  8
1
 62
     7
 10
-53.150000000000098
 20
37.5
 30
0.0
 11
-53.150000000000098
 21
-37.5
 31
0.0
  0
LINE
  5
3D
  8
1
 62
     7
 10
-53.150000000000098
 20
-37.5
 30
0.0
 11
-52.150000000000098
 21
-36.5
 31
0.0
  0
LINE
  5
3E
  8
1
 62
     7
 10
-52.150000000000098
 20
36.5
 30
0.0
 11
-53.150000000000098
 21
37.5
 31
0.0
  0
LINE
  5
3F
  8
1
 62
     7
 10
64.84999999999998
 20
36.5
 30
0.0
 11
63.84999999999998
 21
37.5
 31
0.0
  0
LINE
  5
40
  8
1
 62
     7
 10
63.84999999999998
 20
-37.5
 30
0.0
 11
64.84999999999998
 21
-36.5
 31
0.0
  0
LINE
  5
41
  8
1
  6
DASHDOT
 62
     3
 10
187.38976722849691
 20
-0.0000000000000142
 30
0.0
 11
182.30696288152791
 21
-0.0000000000000142
 31
0.0
  0
LINE
  5
42
  8
1
  6
DASHDOT
 62
     3
 10
159.9176032081061
 20
-27.47216402039081
 30
0.0
 11
159.9176032081061
 21
-22.389359673421801
 31
0.0
  0
LINE
  5
43
  8
1
  6
DASHDOT
 62
     3
 10
132.44543918771521
 20
0.0
 30
0.0
 11
137.52824353468421
 21
0.0
 31
0.0
  0
LINE
  5
44
  8
1
  6
DASHDOT
 62
     3
 10
159.9176032081061
 20
27.47216402039081
 30
0.0
 11
159.9176032081061
 21
22.389359673421801
 31
0.0
  0
LINE
  5
45
  8
1
 62
     7
 10
53.299999999999933
 20
24.500000000000011
 30
0.0
 11
53.299999999999933
 21
35.0
 31
0.0
  0
LINE
  5
46
  8
1
  6
DASHDOT
 62
     3
 10
54.924999999999933
 20
25.292880609650808
 30
0.0
 11
54.924999999999933
 21
18.71238138361781
 31
0.0
  0
LINE
  5
47
  8
1
 62
     7
 10
52.199999999999932
 20
24.500000000000011
 30
0.0
 11
52.199999999999932
 21
19.500000000000011
 31
0.0
  0
LINE
  5
48
  8
1
 62
     7
 10
57.649999999999949
 20
24.500000000000011
 30
0.0
 11
57.649999999999949
 21
19.500000000000011
 31
0.0
  0
LINE
  5
49
  8
1
 62
     7
 10
52.199999999999932
 20
19.500000000000011
 30
0.0
 11
57.649999999999949
 21
19.500000000000011
 31
0.0
  0
LINE
  5
4A
  8
1
 62
     7
 10
52.199999999999932
 20
24.500000000000011
 30
0.0
 11
57.649999999999949
 21
24.500000000000011
 31
0.0
  0
LINE
  5
4B
  8
1
 62
     7
 10
50.599999999999923
 20
19.000000000000011
 30
0.0
 11
51.999999999999929
 21
19.000000000000011
 31
0.0
  0
LINE
  5
4C
  8
1
 62
     7
 10
50.599999999999923
 20
25.000000000000011
 30
0.0
 11
50.599999999999923
 21
19.000000000000011
 31
0.0
  0
LINE
  5
4D
  8
1
 62
     7
 10
50.599999999999923
 20
25.000000000000011
 30
0.0
 11
51.999999999999929
 21
25.000000000000011
 31
0.0
  0
LINE
  5
4E
  8
1
 62
     3
 10
58.499999999999993
 20
23.000000000000011
 30
0.0
 11
68.5
 21
23.000000000000011
 31
0.0
  0
LINE
  5
4F
  8
1
 62
     7
 10
58.499999999999993
 20
23.5
 30
0.0
 11
68.5
 21
23.5
 31
0.0
  0
LINE
  5
50
  8
1
 62
     7
 10
58.499999999999993
 20
26.500000000000011
 30
0.0
 11
68.5
 21
26.500000000000011
 31
0.0
  0
LINE
  5
51
  8
1
 62
     3
 10
58.499999999999993
 20
27.000000000000011
 30
0.0
 11
68.5
 21
27.000000000000011
 31
0.0
  0
LINE
  5
52
  8
1
  6
DASHDOT
 62
     3
 10
57.574620338291901
 20
25.000000000000011
 30
0.0
 11
69.429305962450428
 21
25.000000000000011
 31
0.0
  0
LINE
  5
53
  8
1
 62
     7
 10
150.9176032081061
 20
39.422649730810399
 30
0.0
 11
146.9176032081061
 21
37.113248654051922
 31
0.0
  0
LINE
  5
54
  8
1
 62
     7
 10
145.9176032081061
 20
35.381197846483019
 30
0.0
 11
145.9176032081061
 21
34.788647573597899
 31
0.0
  0
LINE
  5
55
  8
1
 62
     7
 10
172.91760320810599
 20
37.113248654051922
 30
0.0
 11
168.9176032081061
 21
39.422649730810399
 31
0.0
  0
LINE
  5
56
  8
1
 62
     7
 10
173.91760320810599
 20
34.788647573597899
 30
0.0
 11
173.91760320810599
 21
35.381197846483019
 31
0.0
  0
LINE
  5
57
  8
1
 62
     7
 10
46.499999999999943
 20
34.800000000000011
 30
0.0
 11
2.0
 21
34.800000000000011
 31
0.0
  0
LINE
  5
58
  8
1
 62
     7
 10
46.499999999999943
 20
34.800000000000011
 30
0.0
 11
46.499999999999943
 21
17.700000000000021
 31
0.0
  0
LINE
  5
59
  8
1
 62
     7
 10
46.499999999999943
 20
17.700000000000021
 30
0.0
 11
17.500000000000011
 21
17.700000000000021
 31
0.0
  0
LINE
  5
5A
  8
1
 62
     7
 10
17.500000000000011
 20
17.700000000000021
 30
0.0
 11
17.500000000000011
 21
23.5
 31
0.0
  0
LINE
  5
5B
  8
1
 62
     7
 10
17.500000000000011
 20
23.5
 30
0.0
 11
17.000000000000011
 21
23.5
 31
0.0
  0
LINE
  5
5C
  8
1
 62
     7
 10
12.375
 20
24.49759526419172
 30
0.0
 11
17.000000000000011
 21
24.49759526419172
 31
0.0
  0
LINE
  5
5D
  8
1
 62
     7
 10
8.6250000000000124
 20
24.49759526419172
 30
0.0
 11
4.0000000000000133
 21
24.49759526419172
 31
0.0
  0
LINE
  5
5E
  8
1
 62
     7
 10
8.6250000000000124
 20
18.002404735808408
 30
0.0
 11
4.0000000000000133
 21
18.002404735808408
 31
0.0
  0
LINE
  5
5F
  8
1
 62
     7
 10
12.375
 20
18.002404735808408
 30
0.0
 11
17.000000000000011
 21
18.002404735808408
 31
0.0
  0
LINE
  5
60
  8
1
 62
     7
 10
15.700000000000021
 20
17.500000000000011
 30
0.0
 11
15.700000000000021
 21
25.000000000000011
 31
0.0
  0
LINE
  5
61
  8
1
 62
     7
 10
5.2999999999999119
 20
17.500000000000011
 30
0.0
 11
5.2999999999999119
 21
25.000000000000011
 31
0.0
  0
LINE
  5
62
  8
1
 62
     7
 10
4.0000000000000133
 20
29.000000000000011
 30
0.0
 11
2.0
 21
29.000000000000011
 31
0.0
  0
LINE
  5
63
  8
1
 62
     7
 10
2.0
 20
23.900000000000009
 30
0.0
 11
4.0000000000000133
 21
23.900000000000009
 31
0.0
  0
LINE
  5
64
  8
1
 62
     7
 10
2.0
 20
27.500000000000011
 30
0.0
 11
0.0
 21
27.500000000000011
 31
0.0
  0
LINE
  5
65
  8
1
 62
     7
 10
4.0000000000000133
 20
17.800000000000011
 30
0.0
 11
2.3999999999998058
 21
17.800000000000011
 31
0.0
  0
LINE
  5
66
  8
1
 62
     7
 10
2.3999999999998058
 20
17.800000000000011
 30
0.0
 11
2.3999999999998058
 21
14.30000000000001
 31
0.0
  0
LINE
  5
67
  8
1
 62
     7
 10
2.3999999999998058
 20
14.30000000000001
 30
0.0
 11
4.0000000000000133
 21
14.30000000000001
 31
0.0
  0
LINE
  5
68
  8
1
 62
     7
 10
2.3999999999998058
 20
15.0
 30
0.0
 11
0.0
 21
15.0
 31
0.0
  0
LINE
  5
69
  8
1
 62
     7
 10
51.699999999999932
 20
37.5
 30
0.0
 11
21.0
 21
37.5
 31
0.0
  0
LINE
  5
6A
  8
1
 62
     7
 10
51.699999999999932
 20
37.5
 30
0.0
 11
51.699999999999932
 21
35.0
 31
0.0
  0
LINE
  5
6B
  8
1
 62
     7
 10
51.699999999999932
 20
35.0
 30
0.0
 11
50.499999999999929
 21
35.0
 31
0.0
  0
LINE
  5
6C
  8
1
 62
     7
 10
50.499999999999929
 20
35.0
 30
0.0
 11
50.499999999999929
 21
28.000000000000011
 31
0.0
  0
LINE
  5
6D
  8
1
 62
     7
 10
50.499999999999929
 20
28.000000000000011
 30
0.0
 11
51.999999999999929
 21
28.000000000000011
 31
0.0
  0
LINE
  5
6E
  8
1
 62
     7
 10
51.999999999999929
 20
28.000000000000011
 30
0.0
 11
51.999999999999929
 21
25.000000000000011
 31
0.0
  0
LINE
  5
6F
  8
1
 62
     7
 10
20.000000000000011
 20
35.5
 30
0.0
 11
20.000000000000011
 21
36.5
 31
0.0
  0
LINE
  5
70
  8
1
 62
     7
 10
20.000000000000011
 20
35.5
 30
0.0
 11
47.499999999999929
 21
35.5
 31
0.0
  0
LINE
  5
71
  8
1
 62
     7
 10
47.499999999999929
 20
35.5
 30
0.0
 11
47.499999999999929
 21
17.000000000000011
 31
0.0
  0
LINE
  5
72
  8
1
 62
     7
 10
47.499999999999929
 20
17.000000000000011
 30
0.0
 11
17.000000000000011
 21
17.000000000000011
 31
0.0
  0
LINE
  5
73
  8
1
 62
     7
 10
20.000000000000011
 20
36.5
 30
0.0
 11
21.0
 21
37.5
 31
0.0
  0
LINE
  5
74
  8
1
 62
     7
 10
58.499999999999993
 20
34.20000000000001
 30
0.0
 11
65.499999999999986
 21
34.20000000000001
 31
0.0
  0
LINE
  5
75
  8
1
 62
     7
 10
65.499999999999986
 20
34.20000000000001
 30
0.0
 11
65.499999999999986
 21
31.000000000000011
 31
0.0
  0
LINE
  5
76
  8
1
 62
     7
 10
65.499999999999986
 20
31.000000000000011
 30
0.0
 11
68.5
 21
31.000000000000011
 31
0.0
  0
LINE
  5
77
  8
1
 62
     7
 10
58.499999999999993
 20
19.000000000000011
 30
0.0
 11
68.5
 21
19.000000000000011
 31
0.0
  0
LINE
  5
78
  8
1
 62
     7
 10
58.499999999999993
 20
31.500000000000011
 30
0.0
 11
65.499999999999986
 21
31.500000000000011
 31
0.0
  0
LINE
  5
79
  8
1
 62
     7
 10
64.84999999999998
 20
36.5
 30
0.0
 11
64.84999999999998
 21
31.500000000000011
 31
0.0
  0
LINE
  5
7A
  8
1
 62
     7
 10
61.999999999999993
 20
35.0
 30
0.0
 11
61.999999999999993
 21
31.500000000000011
 31
0.0
  0
LINE
  5
7B
  8
1
 62
     7
 10
61.999999999999993
 20
35.0
 30
0.0
 11
58.499999999999993
 21
35.0
 31
0.0
  0
LINE
  5
7C
  8
1
 62
     7
 10
63.84999999999998
 20
37.5
 30
0.0
 11
52.199999999999932
 21
37.5
 31
0.0
  0
LINE
  5
7D
  8
1
 62
     7
 10
52.199999999999932
 20
37.5
 30
0.0
 11
52.199999999999932
 21
35.0
 31
0.0
  0
LINE
  5
7E
  8
1
 62
     7
 10
52.199999999999932
 20
35.0
 30
0.0
 11
53.299999999999933
 21
35.0
 31
0.0
  0
LINE
  5
7F
  8
1
 62
     7
 10
53.299999999999933
 20
14.500000000000011
 30
0.0
 11
58.499999999999993
 21
14.500000000000011
 31
0.0
  0
LINE
  5
80
  8
1
 62
     3
 10
50.499999999999929
 20
37.5
 30
0.0
 11
50.499999999999929
 21
35.0
 31
0.0
  0
LINE
  5
81
  8
1
 62
     3
 10
53.299999999999933
 20
37.5
 30
0.0
 11
53.299999999999933
 21
35.0
 31
0.0
  0
LINE
  5
82
  8
1
 62
     3
 10
53.299999999999933
 20
-35.0
 30
0.0
 11
53.299999999999933
 21
-37.5
 31
0.0
  0
LINE
  5
83
  8
1
 62
     3
 10
50.499999999999929
 20
-35.0
 30
0.0
 11
50.499999999999929
 21
-37.5
 31
0.0
  0
LINE
  5
84
  8
1
 62
     7
 10
58.499999999999993
 20
-14.500000000000011
 30
0.0
 11
53.299999999999933
 21
-14.500000000000011
 31
0.0
  0
LINE
  5
85
  8
1
 62
     7
 10
53.299999999999933
 20
-35.0
 30
0.0
 11
52.199999999999932
 21
-35.0
 31
0.0
  0
LINE
  5
86
  8
1
 62
     7
 10
52.199999999999932
 20
-35.0
 30
0.0
 11
52.199999999999932
 21
-37.5
 31
0.0
  0
LINE
  5
87
  8
1
 62
     7
 10
52.199999999999932
 20
-37.5
 30
0.0
 11
63.84999999999998
 21
-37.5
 31
0.0
  0
LINE
  5
88
  8
1
 62
     7
 10
58.499999999999993
 20
35.0
 30
0.0
 11
58.499999999999993
 21
-35.0
 31
0.0
  0
LINE
  5
89
  8
1
 62
     7
 10
58.499999999999993
 20
-35.0
 30
0.0
 11
61.999999999999993
 21
-35.0
 31
0.0
  0
LINE
  5
8A
  8
1
 62
     7
 10
61.999999999999993
 20
-31.500000000000011
 30
0.0
 11
61.999999999999993
 21
-35.0
 31
0.0
  0
LINE
  5
8B
  8
1
 62
     7
 10
64.84999999999998
 20
-31.500000000000011
 30
0.0
 11
64.84999999999998
 21
-36.5
 31
0.0
  0
LINE
  5
8C
  8
1
 62
     7
 10
65.499999999999986
 20
-31.500000000000011
 30
0.0
 11
58.499999999999993
 21
-31.500000000000011
 31
0.0
  0
LINE
  5
8D
  8
1
 62
     7
 10
68.5
 20
-19.000000000000011
 30
0.0
 11
58.499999999999993
 21
-19.000000000000011
 31
0.0
  0
LINE
  5
8E
  8
1
 62
     7
 10
68.5
 20
31.000000000000011
 30
0.0
 11
68.5
 21
-31.000000000000011
 31
0.0
  0
LINE
  5
8F
  8
1
 62
     7
 10
68.5
 20
-31.000000000000011
 30
0.0
 11
65.499999999999986
 21
-31.000000000000011
 31
0.0
  0
LINE
  5
90
  8
1
 62
     7
 10
65.499999999999986
 20
-31.000000000000011
 30
0.0
 11
65.499999999999986
 21
-34.20000000000001
 31
0.0
  0
LINE
  5
91
  8
1
 62
     7
 10
65.499999999999986
 20
-34.20000000000001
 30
0.0
 11
58.499999999999993
 21
-34.20000000000001
 31
0.0
  0
LINE
  5
92
  8
1
 62
     7
 10
21.0
 20
-37.5
 30
0.0
 11
20.000000000000011
 21
-36.5
 31
0.0
  0
LINE
  5
93
  8
1
 62
     7
 10
17.000000000000011
 20
-17.000000000000011
 30
0.0
 11
47.499999999999929
 21
-17.000000000000011
 31
0.0
  0
LINE
  5
94
  8
1
 62
     7
 10
47.499999999999929
 20
-17.000000000000011
 30
0.0
 11
47.499999999999929
 21
-35.5
 31
0.0
  0
LINE
  5
95
  8
1
 62
     7
 10
47.499999999999929
 20
-35.5
 30
0.0
 11
20.000000000000011
 21
-35.5
 31
0.0
  0
LINE
  5
96
  8
1
 62
     7
 10
20.000000000000011
 20
-36.5
 30
0.0
 11
20.000000000000011
 21
-35.5
 31
0.0
  0
LINE
  5
97
  8
1
 62
     7
 10
51.999999999999929
 20
-28.000000000000011
 30
0.0
 11
50.499999999999929
 21
-28.000000000000011
 31
0.0
  0
LINE
  5
98
  8
1
 62
     7
 10
50.499999999999929
 20
-28.000000000000011
 30
0.0
 11
50.499999999999929
 21
-35.0
 31
0.0
  0
LINE
  5
99
  8
1
 62
     7
 10
50.499999999999929
 20
-35.0
 30
0.0
 11
51.699999999999932
 21
-35.0
 31
0.0
  0
LINE
  5
9A
  8
1
 62
     7
 10
51.699999999999932
 20
-35.0
 30
0.0
 11
51.699999999999932
 21
-37.5
 31
0.0
  0
LINE
  5
9B
  8
1
 62
     7
 10
21.0
 20
-37.5
 30
0.0
 11
51.699999999999932
 21
-37.5
 31
0.0
  0
LINE
  5
9C
  8
1
 62
     7
 10
0.0
 20
-15.0
 30
0.0
 11
2.3999999999998058
 21
-15.0
 31
0.0
  0
LINE
  5
9D
  8
1
 62
     7
 10
4.0000000000000133
 20
-14.30000000000001
 30
0.0
 11
2.3999999999998058
 21
-14.30000000000001
 31
0.0
  0
LINE
  5
9E
  8
1
 62
     7
 10
2.3999999999998058
 20
-14.30000000000001
 30
0.0
 11
2.3999999999998058
 21
-17.800000000000011
 31
0.0
  0
LINE
  5
9F
  8
1
 62
     7
 10
2.3999999999998058
 20
-17.800000000000011
 30
0.0
 11
4.0000000000000133
 21
-17.800000000000011
 31
0.0
  0
LINE
  5
A0
  8
1
 62
     7
 10
0.0
 20
-27.500000000000011
 30
0.0
 11
2.0
 21
-27.500000000000011
 31
0.0
  0
LINE
  5
A1
  8
1
 62
     7
 10
4.0000000000000133
 20
-23.900000000000009
 30
0.0
 11
2.0
 21
-23.900000000000009
 31
0.0
  0
LINE
  5
A2
  8
1
 62
     7
 10
2.0
 20
-23.900000000000009
 30
0.0
 11
2.0
 21
-29.000000000000011
 31
0.0
  0
LINE
  5
A3
  8
1
 62
     7
 10
2.0
 20
-29.000000000000011
 30
0.0
 11
4.0000000000000133
 21
-29.000000000000011
 31
0.0
  0
LINE
  5
A4
  8
1
 62
     7
 10
5.2999999999999119
 20
-25.000000000000011
 30
0.0
 11
5.2999999999999119
 21
-17.500000000000011
 31
0.0
  0
LINE
  5
A5
  8
1
 62
     7
 10
15.700000000000021
 20
-25.000000000000011
 30
0.0
 11
15.700000000000021
 21
-17.500000000000011
 31
0.0
  0
LINE
  5
A6
  8
1
 62
     7
 10
17.000000000000011
 20
-18.00240473580838
 30
0.0
 11
12.375
 21
-18.002404735808369
 31
0.0
  0
LINE
  5
A7
  8
1
 62
     7
 10
4.0000000000000133
 20
-18.00240473580838
 30
0.0
 11
8.6250000000000124
 21
-18.002404735808369
 31
0.0
  0
LINE
  5
A8
  8
1
 62
     7
 10
4.0000000000000133
 20
-24.497595264191641
 30
0.0
 11
8.6250000000000124
 21
-24.497595264191659
 31
0.0
  0
LINE
  5
A9
  8
1
 62
     7
 10
17.000000000000011
 20
-24.497595264191641
 30
0.0
 11
12.375
 21
-24.497595264191659
 31
0.0
  0
LINE
  5
AA
  8
1
 62
     7
 10
17.000000000000011
 20
-23.5
 30
0.0
 11
17.500000000000011
 21
-23.5
 31
0.0
  0
LINE
  5
AB
  8
1
 62
     7
 10
17.500000000000011
 20
-23.5
 30
0.0
 11
17.500000000000011
 21
-17.699999999999999
 31
0.0
  0
LINE
  5
AC
  8
1
 62
     7
 10
46.499999999999943
 20
-17.699999999999999
 30
0.0
 11
17.500000000000011
 21
-17.699999999999999
 31
0.0
  0
LINE
  5
AD
  8
1
 62
     7
 10
46.499999999999943
 20
-17.699999999999999
 30
0.0
 11
46.499999999999943
 21
-34.79999999999999
 31
0.0
  0
LINE
  5
AE
  8
1
 62
     7
 10
46.499999999999943
 20
-34.79999999999999
 30
0.0
 11
0.0
 21
-34.79999999999999
 31
0.0
  0
LINE
  5
AF
  8
1
 62
     7
 10
0.0
 20
12.000000000000011
 30
0.0
 11
51.999999999999929
 21
12.000000000000011
 31
0.0
  0
LINE
  5
B0
  8
1
 62
     7
 10
0.0
 20
10.0
 30
0.0
 11
51.999999999999929
 21
10.0
 31
0.0
  0
LINE
  5
B1
  8
1
 62
     7
 10
0.0
 20
-10.0
 30
0.0
 11
51.999999999999929
 21
-10.0
 31
0.0
  0
LINE
  5
B2
  8
1
 62
     7
 10
157.4176032081061
 20
9.6824583655185137
 30
0.0
 11
157.4176032081061
 21
12.000000000000011
 31
0.0
  0
LINE
  5
B3
  8
1
 62
     7
 10
157.4176032081061
 20
12.000000000000011
 30
0.0
 11
162.41760320810599
 21
12.000000000000011
 31
0.0
  0
LINE
  5
B4
  8
1
 62
     7
 10
162.41760320810599
 20
12.000000000000011
 30
0.0
 11
162.41760320810599
 21
9.6824583655185137
 31
0.0
  0
LINE
  5
B5
  8
1
 62
     7
 10
153.9176032081061
 20
60.0
 30
0.0
 11
165.9176032081061
 21
60.0
 31
0.0
  0
LINE
  5
B6
  8
1
 62
     7
 10
167.9176032081061
 20
58.0
 30
0.0
 11
167.9176032081061
 21
47.769260869874223
 31
0.0
  0
LINE
  5
B7
  8
1
 62
     7
 10
0.0
 20
60.0
 30
0.0
 11
2.0
 21
60.0
 31
0.0
  0
LINE
  5
B8
  8
1
 62
     7
 10
0.0
 20
56.75
 30
0.0
 11
2.0
 21
56.75
 31
0.0
  0
LINE
  5
B9
  8
1
 62
     3
 10
-0.9150384116433938
 20
54.0
 30
0.0
 11
2.7837074359574099
 21
54.0
 31
0.0
  0
LINE
  5
BA
  8
1
 62
     7
 10
0.0
 20
51.25
 30
0.0
 11
2.0
 21
51.25
 31
0.0
  0
LINE
  5
BB
  8
1
 62
     7
 10
0.0
 20
60.0
 30
0.0
 11
0.0
 21
-34.79999999999999
 31
0.0
  0
LINE
  5
BC
  8
1
 62
     7
 10
2.0
 20
60.0
 30
0.0
 11
2.0
 21
23.900000000000009
 31
0.0
  0
LINE
  5
BD
  8
1
  6
DASHED
 62
     3
 10
191.09544404877559
 20
-4.4312965979643044
 30
0.0
 11
191.08676163989239
 21
-4.4805369856149033
 31
0.0
  0
LINE
  5
BE
  8
1
 62
     7
 10
53.299999999999933
 20
-35.0
 30
0.0
 11
53.299999999999933
 21
19.500000000000011
 31
0.0
  0
LINE
  5
BF
  8
1
 62
     7
 10
3.1000000000000081
 20
34.800000000000011
 30
0.0
 11
3.1000000000000081
 21
54.710553526545908
 31
0.0
  0
LINE
  5
C0
  8
1
 62
     7
 10
4.8999999999999204
 20
54.710553526545908
 30
0.0
 11
4.8999999999999204
 21
34.800000000000011
 31
0.0
  0
LINE
  5
C1
  8
1
 62
     7
 10
3.1000000000000081
 20
54.710553526545908
 30
0.0
 11
4.8999999999999204
 21
54.710553526545908
 31
0.0
  0
LINE
  5
C2
  8
1
 62
     7
 10
4.3000000000000114
 20
56.434607462189589
 30
0.0
 11
4.3000000000000114
 21
54.710553526545908
 31
0.0
  0
LINE
  5
C3
  8
1
 62
     7
 10
4.6000000000000076
 20
56.387235455631533
 30
0.0
 11
4.6000000000000076
 21
54.710553526545908
 31
0.0
  0
LINE
  5
C4
  8
1
 62
     7
 10
3.3999999999998209
 20
54.710553526545908
 30
0.0
 11
3.3999999999998209
 21
56.387235455631533
 31
0.0
  0
LINE
  5
C5
  8
1
 62
     7
 10
3.6999999999999171
 20
54.710553526545908
 30
0.0
 11
3.6999999999999171
 21
56.434607462189589
 31
0.0
  0
LINE
  5
C6
  8
1
 62
     7
 10
51.999999999999929
 20
19.000000000000011
 30
0.0
 11
51.999999999999929
 21
-28.000000000000011
 31
0.0
  0
LINE
  5
C7
  8
1
  6
DASHDOT
 62
     3
 10
163.9803401197091
 20
54.0
 30
0.0
 11
155.85486629650319
 21
54.0
 31
0.0
  0
LINE
  5
C8
  8
1
  6
DASHDOT
 62
     3
 10
162.7148079948152
 20
0.0
 30
0.0
 11
157.120398421397
 21
0.0
 31
0.0
  0
LINE
  5
C9
  8
1
  6
DASHDOT
 62
     3
 10
159.9176032081061
 20
2.7972047867091012
 30
0.0
 11
159.9176032081061
 21
-2.7972047867091012
 31
0.0
  0
LINE
  5
CA
  8
1
 62
     7
 10
-189.79985980808601
 20
37.113248654051922
 30
0.0
 11
-193.79985980808601
 21
39.422649730810399
 31
0.0
  0
LINE
  5
CB
  8
1
 62
     7
 10
-211.7998598080859
 20
39.422649730810399
 30
0.0
 11
-215.79985980808601
 21
37.113248654051922
 31
0.0
  0
LINE
  5
CC
  8
1
 62
     7
 10
-200.29985980808601
 20
12.000000000000011
 30
0.0
 11
-200.29985980808601
 21
9.6824583655185137
 31
0.0
  0
LINE
  5
CD
  8
1
 62
     7
 10
-205.29985980808601
 20
12.000000000000011
 30
0.0
 11
-200.29985980808601
 21
12.000000000000011
 31
0.0
  0
LINE
  5
CE
  8
1
 62
     7
 10
-205.29985980808601
 20
9.6824583655185137
 30
0.0
 11
-205.29985980808601
 21
12.000000000000011
 31
0.0
  0
LINE
  5
CF
  8
1
 62
     7
 10
-208.79985980808601
 20
60.0
 30
0.0
 11
-196.79985980808601
 21
60.0
 31
0.0
  0
LINE
  5
D0
  8
1
 62
     3
 10
-207.1603418148004
 20
54.0
 30
0.0
 11
-198.186671067471
 21
54.0
 31
0.0
  0
LINE
  5
D1
  8
1
 62
     7
 10
-194.7998598080859
 20
58.0
 30
0.0
 11
-194.7998598080859
 21
41.153573893845113
 31
0.0
  0
LINE
  5
D2
  8
1
  6
DASHDOT
 62
     3
 10
-198.73712289648299
 20
54.0
 30
0.0
 11
-206.8625967196889
 21
54.0
 31
0.0
  0
LINE
  5
D3
  8
1
  6
DASHDOT
 62
     3
 10
-202.79985980808601
 20
49.937263088397003
 30
0.0
 11
-202.79985980808601
 21
58.062736911602897
 31
0.0
  0
LINE
  5
D4
  8
1
  6
DASHDOT
 62
     3
 10
-200.00265502137691
 20
0.0
 30
0.0
 11
-205.597064594795
 21
0.0
 31
0.0
  0
LINE
  5
D5
  8
1
  6
DASHDOT
 62
     3
 10
-202.79985980808601
 20
-2.7972047867091012
 30
0.0
 11
-202.79985980808601
 21
2.7972047867091012
 31
0.0
  0
LINE
  5
D6
  8
1
 62
     3
 10
-120.0
 20
0.0
 30
0.0
 11
-117.0
 21
0.0
 31
0.0
  0
LINE
  5
D7
  8
1
 62
     7
 10
-65.300000000000111
 20
37.5
 30
0.0
 11
-96.0
 21
37.5
 31
0.0
  0
LINE
  5
D8
  8
1
 62
     7
 10
-97.0
 20
36.5
 30
0.0
 11
-96.0
 21
37.5
 31
0.0
  0
LINE
  5
D9
  8
1
 62
     7
 10
-51.5
 20
31.000000000000011
 30
0.0
 11
-48.5
 21
31.000000000000011
 31
0.0
  0
LINE
  5
DA
  8
1
 62
     7
 10
-53.150000000000098
 20
37.5
 30
0.0
 11
-64.800000000000111
 21
37.5
 31
0.0
  0
LINE
  5
DB
  8
1
 62
     3
 10
-66.650000000000091
 20
37.5
 30
0.0
 11
-66.650000000000091
 21
-35.0
 31
0.0
  0
LINE
  5
DC
  8
1
 62
     3
 10
-63.450000000000102
 20
37.5
 30
0.0
 11
-63.450000000000102
 21
-35.0
 31
0.0
  0
LINE
  5
DD
  8
1
 62
     3
 10
-63.800000000000097
 20
-35.0
 30
0.0
 11
-63.800000000000097
 21
-37.5
 31
0.0
  0
LINE
  5
DE
  8
1
 62
     3
 10
-66.300000000000111
 20
-35.0
 30
0.0
 11
-66.300000000000111
 21
-37.5
 31
0.0
  0
LINE
  5
DF
  8
1
 62
     7
 10
-64.800000000000111
 20
-37.5
 30
0.0
 11
-53.150000000000098
 21
-37.5
 31
0.0
  0
LINE
  5
E0
  8
1
 62
     7
 10
-48.5
 20
31.000000000000011
 30
0.0
 11
-48.5
 21
-31.000000000000011
 31
0.0
  0
LINE
  5
E1
  8
1
 62
     7
 10
-48.5
 20
-31.000000000000011
 30
0.0
 11
-51.5
 21
-31.000000000000011
 31
0.0
  0
LINE
  5
E2
  8
1
 62
     7
 10
-51.5
 20
-34.20000000000001
 30
0.0
 11
-52.150000000000098
 21
-34.20000000000001
 31
0.0
  0
LINE
  5
E3
  8
1
 62
     7
 10
-96.0
 20
-37.5
 30
0.0
 11
-97.0
 21
-36.5
 31
0.0
  0
LINE
  5
E4
  8
1
 62
     7
 10
-96.0
 20
-37.5
 30
0.0
 11
-65.300000000000111
 21
-37.5
 31
0.0
  0
LINE
  5
E5
  8
1
 62
     7
 10
-117.0
 20
-34.79999999999999
 30
0.0
 11
-97.0
 21
-34.79999999999999
 31
0.0
  0
LINE
  5
E6
  8
1
 62
     7
 10
-117.0
 20
60.0
 30
0.0
 11
-115.0
 21
60.0
 31
0.0
  0
LINE
  5
E7
  8
1
 62
     7
 10
-115.0
 20
60.0
 30
0.0
 11
-115.0
 21
34.800000000000011
 31
0.0
  0
LINE
  5
E8
  8
1
 62
     7
 10
-113.90000000000001
 20
34.800000000000011
 30
0.0
 11
-113.90000000000001
 21
54.710553526545908
 31
0.0
  0
LINE
  5
E9
  8
1
 62
     7
 10
-112.09999999999989
 20
54.710553526545908
 30
0.0
 11
-112.09999999999989
 21
34.800000000000011
 31
0.0
  0
LINE
  5
EA
  8
1
 62
     7
 10
-113.90000000000001
 20
54.710553526545908
 30
0.0
 11
-112.09999999999989
 21
54.710553526545908
 31
0.0
  0
LINE
  5
EB
  8
1
 62
     7
 10
-112.7
 20
56.434607462189589
 30
0.0
 11
-112.7
 21
54.710553526545908
 31
0.0
  0
LINE
  5
EC
  8
1
 62
     7
 10
-112.40000000000001
 20
56.387235455631533
 30
0.0
 11
-112.40000000000001
 21
54.710553526545908
 31
0.0
  0
LINE
  5
ED
  8
1
 62
     7
 10
-113.60000000000009
 20
54.710553526545908
 30
0.0
 11
-113.60000000000009
 21
56.387235455631533
 31
0.0
  0
LINE
  5
EE
  8
1
 62
     7
 10
-113.3
 20
54.710553526545908
 30
0.0
 11
-113.3
 21
56.434607462189589
 31
0.0
  0
LINE
  5
EF
  8
1
 62
     7
 10
-117.0
 20
60.0
 30
0.0
 11
-117.0
 21
-34.79999999999999
 31
0.0
  0
LINE
  5
F0
  8
1
 62
     7
 10
-97.0
 20
36.5
 30
0.0
 11
-97.0
 21
-36.5
 31
0.0
  0
LINE
  5
F1
  8
1
 62
     7
 10
-97.0
 20
34.800000000000011
 30
0.0
 11
-117.0
 21
34.800000000000011
 31
0.0
  0
LINE
  5
F2
  8
1
 62
     7
 10
-96.0
 20
37.5
 30
0.0
 11
-96.0
 21
-37.5
 31
0.0
  0
LINE
  5
F3
  8
1
 62
     7
 10
-52.150000000000098
 20
34.20000000000001
 30
0.0
 11
-51.5
 21
34.20000000000001
 31
0.0
  0
LINE
  5
F4
  8
1
 62
     7
 10
-51.5
 20
34.20000000000001
 30
0.0
 11
-51.5
 21
-34.20000000000001
 31
0.0
  0
LINE
  5
F5
  8
1
 62
     7
 10
-52.150000000000098
 20
-36.5
 30
0.0
 11
-52.150000000000098
 21
36.5
 31
0.0
  0
LINE
  5
F6
  8
1
 62
     7
 10
-64.800000000000111
 20
-37.5
 30
0.0
 11
-64.800000000000111
 21
37.5
 31
0.0
  0
LINE
  5
F7
  8
1
 62
     7
 10
-65.300000000000111
 20
-37.5
 30
0.0
 11
-65.300000000000111
 21
37.5
 31
0.0
  0
LINE
  5
F8
  8
1
 62
     3
 10
-48.5
 20
0.0
 30
0.0
 11
-45.499999999999993
 21
0.0
 31
0.0
  0
LINE
  5
F9
  8
1
 62
     3
 10
68.5
 20
0.0
 30
0.0
 11
71.5
 21
0.0
 31
0.0
  0
LINE
  5
FA
  8
1
 62
     3
 10
-3.0000000000000848
 20
0.0
 30
0.0
 11
0.0
 21
0.0
 31
0.0
  0
LINE
  5
FB
  8
1
 62
     7
 10
-210.79985980808601
 20
41.153573893845113
 30
0.0
 11
-210.79985980808601
 21
58.0
 31
0.0
  0
LINE
  5
FC
  8
1
 62
     7
 10
-196.9998598080858
 20
31.329999999999998
 30
0.0
 11
-196.9998598080858
 21
30.670000000000009
 31
0.0
  0
LINE
  5
FD
  8
1
 62
     7
 10
-195.12985980808591
 20
28.800000000000001
 30
0.0
 11
-194.469859808086
 21
28.800000000000001
 31
0.0
  0
LINE
  5
FE
  8
1
 62
     7
 10
-192.59985980808599
 20
30.670000000000009
 30
0.0
 11
-192.59985980808599
 21
31.329999999999998
 31
0.0
  0
LINE
  5
FF
  8
1
 62
     7
 10
-194.469859808086
 20
33.200000000000017
 30
0.0
 11
-195.12985980808591
 21
33.200000000000017
 31
0.0
  0
LINE
  5
100
  8
1
 62
     7
 10
-212.99985980808589
 20
31.329999999999998
 30
0.0
 11
-212.99985980808589
 21
30.670000000000009
 31
0.0
  0
LINE
  5
101
  8
1
 62
     7
 10
-211.12985980808591
 20
28.800000000000001
 30
0.0
 11
-210.469859808086
 21
28.800000000000001
 31
0.0
  0
LINE
  5
102
  8
1
 62
     7
 10
-208.59985980808599
 20
30.670000000000009
 30
0.0
 11
-208.59985980808599
 21
31.329999999999998
 31
0.0
  0
LINE
  5
103
  8
1
 62
     7
 10
-210.469859808086
 20
33.200000000000017
 30
0.0
 11
-211.12985980808591
 21
33.200000000000017
 31
0.0
  0
LINE
  5
104
  8
1
 62
     7
 10
-214.79985980808601
 20
26.000000000000011
 30
0.0
 11
-190.79985980808601
 21
26.000000000000011
 31
0.0
  0
LINE
  5
105
  8
1
 62
     7
 10
-188.79985980808601
 20
35.381197846483019
 30
0.0
 11
-188.79985980808601
 21
28.000000000000011
 31
0.0
  0
LINE
  5
106
  8
1
 62
     7
 10
-216.79985980808601
 20
35.381197846483019
 30
0.0
 11
-216.79985980808601
 21
28.000000000000011
 31
0.0
  0
LINE
  5
107
  8
1
 62
     7
 10
-217.79985980808601
 20
31.401273859510798
 30
0.0
 11
-217.79985980808601
 21
23.048861143232209
 31
0.0
  0
LINE
  5
108
  8
1
 62
     7
 10
-187.79985980808601
 20
23.048861143232319
 30
0.0
 11
-187.79985980808601
 21
31.401273859510908
 31
0.0
  0
LINE
  5
109
  8
1
 62
     7
 10
161.96380893344841
 20
37.444132279031109
 30
0.0
 11
173.2432250375625
 21
56.98065405106739
 31
0.0
  0
LINE
  5
10A
  8
1
 62
     7
 10
173.2432250375625
 20
56.98065405106739
 30
0.0
 11
176.18771141042961
 21
55.280654051067422
 31
0.0
  0
LINE
  5
10B
  8
1
 62
     7
 10
176.18771141042961
 20
55.280654051067422
 30
0.0
 11
165.6661473402138
 21
37.056770506362419
 31
0.0
  0
LINE
  5
10C
  8
1
 62
     7
 10
174.715468223996
 20
56.13065405106741
 30
0.0
 11
163.84027723669399
 21
37.294270719045286
 31
0.0
  0
LINE
  5
10D
  8
1
 62
     7
 10
175.2120701813771
 20
58.690793872389612
 30
0.0
 11
173.97934663077919
 21
56.555654051067421
 31
0.0
  0
LINE
  5
10E
  8
1
 62
     7
 10
176.6843133678106
 20
57.840793872389611
 30
0.0
 11
175.45158981721281
 21
55.705654051067427
 31
0.0
  0
LINE
  5
10F
  8
1
 62
     7
 10
174.95226256024179
 20
58.840793872389611
 30
0.0
 11
173.719539009644
 21
56.70565405106742
 31
0.0
  0
LINE
  5
110
  8
1
 62
     7
 10
174.6924549391064
 20
58.990793872389631
 30
0.0
 11
173.4597313885086
 21
56.85565405106739
 31
0.0
  0
LINE
  5
111
  8
1
 62
     7
 10
175.47187780251249
 20
58.5407938723896
 30
0.0
 11
174.2391542519145
 21
56.405654051067422
 31
0.0
  0
LINE
  5
112
  8
1
 62
     7
 10
175.7316854236478
 20
58.390793872389622
 30
0.0
 11
174.49896187305001
 21
56.255654051067403
 31
0.0
  0
LINE
  5
113
  8
1
 62
     7
 10
176.42450574667541
 20
57.990793872389617
 30
0.0
 11
175.19178219607741
 21
55.855654051067397
 31
0.0
  0
LINE
  5
114
  8
1
 62
     7
 10
176.16469812554001
 20
58.140793872389622
 30
0.0
 11
174.9319745749421
 21
56.00565405106741
 31
0.0
  0
LINE
  5
115
  8
1
 62
     7
 10
176.944120988946
 20
57.690793872389612
 30
0.0
 11
175.7113974383482
 21
55.555654051067421
 31
0.0
  0
LINE
  5
116
  8
1
 62
     7
 10
177.20392861008139
 20
57.540793872389592
 30
0.0
 11
175.9712050594834
 21
55.405654051067422
 31
0.0
  0
LINE
  5
117
  8
1
 62
     7
 10
167.9925413774379
 20
40.612356599439607
 30
0.0
 11
167.92589233271141
 21
40.970763645517607
 31
0.0
  0
LINE
  5
118
  8
1
 62
     7
 10
151.9176032081061
 20
58.0
 30
0.0
 11
151.9176032081061
 21
41.287405075336807
 31
0.0
  0
LINE
  5
119
  8
1
 62
     7
 10
151.9176032081061
 20
41.287405075336807
 30
0.0
 11
151.84266503877441
 21
40.612356599439607
 31
0.0
  0
LINE
  5
11A
  8
1
  6
DASHDOT
 62
     3
 10
163.9803401197091
 20
54.0
 30
0.0
 11
155.85486629650319
 21
54.0
 31
0.0
  0
LINE
  5
11B
  8
1
  6
DASHDOT
 62
     3
 10
159.9176032081061
 20
58.062736911602897
 30
0.0
 11
159.9176032081061
 21
49.937263088397003
 31
0.0
  0
LINE
  5
11C
  8
1
 62
     7
 10
-216.12548163754241
 20
56.98065405106739
 30
0.0
 11
-210.79985980808601
 21
47.756406460551013
 31
0.0
  0
LINE
  5
11D
  8
1
 62
     7
 10
-219.0699680104095
 20
55.280654051067422
 30
0.0
 11
-216.12548163754241
 21
56.98065405106739
 31
0.0
  0
LINE
  5
11E
  8
1
 62
     7
 10
-216.86160323075919
 20
56.555654051067421
 30
0.0
 11
-218.09432678135701
 21
58.690793872389612
 31
0.0
  0
LINE
  5
11F
  8
1
 62
     7
 10
-218.33384641719269
 20
55.705654051067427
 30
0.0
 11
-219.5665699677906
 21
57.840793872389611
 31
0.0
  0
LINE
  5
120
  8
1
 62
     7
 10
-216.60179560962371
 20
56.70565405106742
 30
0.0
 11
-217.83451916022159
 21
58.840793872389611
 31
0.0
  0
LINE
  5
121
  8
1
 62
     7
 10
-216.34198798848851
 20
56.85565405106739
 30
0.0
 11
-217.57471153908639
 21
58.990793872389631
 31
0.0
  0
LINE
  5
122
  8
1
 62
     7
 10
-217.12141085189441
 20
56.405654051067422
 30
0.0
 11
-218.35413440249241
 21
58.5407938723896
 31
0.0
  0
LINE
  5
123
  8
1
 62
     7
 10
-217.3812184730298
 20
56.255654051067403
 30
0.0
 11
-218.61394202362769
 21
58.390793872389622
 31
0.0
  0
LINE
  5
124
  8
1
 62
     7
 10
-218.07403879605741
 20
55.855654051067397
 30
0.0
 11
-219.3067623466552
 21
57.990793872389617
 31
0.0
  0
LINE
  5
125
  8
1
 62
     7
 10
-217.81423117492201
 20
56.00565405106741
 30
0.0
 11
-219.0469547255199
 21
58.140793872389622
 31
0.0
  0
LINE
  5
126
  8
1
 62
     7
 10
-218.593654038328
 20
55.555654051067421
 30
0.0
 11
-219.82637758892579
 21
57.690793872389612
 31
0.0
  0
LINE
  5
127
  8
1
 62
     7
 10
-218.85346165946339
 20
55.405654051067422
 30
0.0
 11
-220.08618521006119
 21
57.540793872389592
 31
0.0
  0
LINE
  5
128
  8
1
 62
     7
 10
-210.79985980808601
 20
44.356406460551007
 30
0.0
 11
-217.59772482397591
 21
56.13065405106741
 31
0.0
  0
LINE
  5
129
  8
1
 62
     7
 10
-210.80762724241359
 20
40.969860051450922
 30
0.0
 11
-219.0699680104095
 21
55.280654051067422
 31
0.0
  0
LINE
  5
12A
  8
1
 62
     7
 10
-113.0000000000001
 20
54.710553526545908
 30
0.0
 11
-113.0000000000001
 21
56.425826036740801
 31
0.0
  0
LINE
  5
12B
  8
1
 62
     7
 10
4.0000000000000133
 20
56.424728643447821
 30
0.0
 11
4.0000000000000133
 21
54.710553526545908
 31
0.0
  0
ARC
  5
12C
  8
1
 62
     7
 10
149.9176032081061
 20
41.154700538379217
 30
0.0
 40
1.9999999999999361
 50
300.00000000000091
 51
344.26598223802011
  0
ARC
  5
12D
  8
1
 62
     7
 10
147.9176032081061
 20
35.381197846483019
 30
0.0
 40
2.0000000000000231
 50
119.9999999999996
 51
180.0
  0
ARC
  5
12E
  8
1
 62
     7
 10
169.91760320810599
 20
41.154700538379217
 30
0.0
 40
2.0000000000000311
 50
195.73401776198
 51
239.99999999999901
  0
ARC
  5
12F
  8
1
 62
     7
 10
171.91760320810599
 20
35.381197846483019
 30
0.0
 40
2.0
 50
0.0
 51
60.000000000000391
  0
ARC
  5
130
  8
1
 62
     7
 10
153.9176032081061
 20
58.0
 30
0.0
 40
2.0
 50
90.0
 51
180.0
  0
ARC
  5
131
  8
1
 62
     7
 10
165.9176032081061
 20
58.0
 30
0.0
 40
2.0
 50
0.0
 51
90.0
  0
ARC
  5
132
  8
1
 62
     7
 10
-190.79985980808601
 20
35.381197846483019
 30
0.0
 40
2.0
 50
0.0
 51
60.000000000000391
  0
ARC
  5
133
  8
1
 62
     7
 10
-214.79985980808601
 20
35.381197846483019
 30
0.0
 40
2.0000000000000231
 50
119.9999999999996
 51
180.0
  0
ARC
  5
134
  8
1
 62
     7
 10
-196.79985980808601
 20
58.0
 30
0.0
 40
2.0
 50
0.0
 51
90.0
  0
ARC
  5
135
  8
1
 62
     7
 10
-208.79985980808601
 20
58.0
 30
0.0
 40
2.0
 50
90.0
 51
180.0
  0
ARC
  5
136
  8
1
 62
     7
 10
-190.79985980808601
 20
28.000000000000011
 30
0.0
 40
2.0
 50
270.0
 51
0.0
  0
ARC
  5
137
  8
1
 62
     7
 10
-214.79985980808601
 20
28.000000000000011
 30
0.0
 40
2.0
 50
180.0
 51
270.0
  0
ARC
  5
138
  8
1
  6
DASHDOT
 62
     3
 10
159.9176032081061
 20
0.0
 30
0.0
 40
25.000000000000071
 50
354.24836795897232
 51
5.7896830626416946
  0
ARC
  5
139
  8
1
  6
DASHDOT
 62
     3
 10
159.9176032081061
 20
0.0
 30
0.0
 40
25.0
 50
264.24836795897278
 51
275.78968306264147
  0
ARC
  5
13A
  8
1
  6
DASHDOT
 62
     3
 10
159.9176032081061
 20
0.0
 30
0.0
 40
24.999999999999979
 50
174.24836795897241
 51
185.78968306264181
  0
ARC
  5
13B
  8
1
  6
DASHDOT
 62
     3
 10
159.9176032081061
 20
0.0
 30
0.0
 40
24.999999999999979
 50
84.24836795897231
 51
95.789683062641714
  0
ARC
  5
13C
  8
1
 62
     7
 10
159.9176032081061
 20
0.0
 30
0.0
 40
9.9999999999999485
 50
104.4775121859295
 51
75.522487814070047
  0
ARC
  5
13D
  8
1
 62
     7
 10
-202.79985980808601
 20
0.0
 30
0.0
 40
9.9999999999999734
 50
104.47751218593
 51
180.0
  0
ARC
  5
13E
  8
1
 62
     7
 10
-202.79985980808601
 20
0.0
 30
0.0
 40
10.0
 50
180.0
 51
270.0
  0
ARC
  5
13F
  8
1
 62
     7
 10
-202.79985980808601
 20
0.0
 30
0.0
 40
10.0
 50
270.0
 51
75.522487814070047
  0
ARC
  5
140
  8
1
 62
     7
 10
-192.79987372689561
 20
41.146112322629349
 30
0.0
 40
2.0
 50
179.78624123452201
 51
180.00000000021851
  0
ARC
  5
141
  8
1
 62
     7
 10
-192.79987372689561
 20
41.146112322621718
 30
0.0
 40
2.0
 50
180.0
 51
239.86802804152759
  0
ARC
  5
142
  8
1
 62
     7
 10
-212.79984588927641
 20
41.146112322652201
 30
0.0
 40
2.0
 50
359.9999999991266
 51
0.2137587648233007
  0
ARC
  5
143
  8
1
 62
     7
 10
-212.7998458892763
 20
41.146112322621718
 30
0.0
 40
1.9999999999999361
 50
300.13197195847312
 51
0.0
  0
ARC
  5
144
  8
1
 62
     7
 10
-196.9998598080858
 20
33.200000000000017
 30
0.0
 40
1.8700000000000081
 50
270.0
 51
0.0
  0
ARC
  5
145
  8
1
 62
     7
 10
-196.9998598080858
 20
28.800000000000001
 30
0.0
 40
1.869999999999975
 50
0.0
 51
90.0
  0
ARC
  5
146
  8
1
 62
     7
 10
-192.59985980808599
 20
28.800000000000001
 30
0.0
 40
1.8700000000000081
 50
90.0
 51
180.0
  0
ARC
  5
147
  8
1
 62
     7
 10
-192.59985980808599
 20
33.200000000000017
 30
0.0
 40
1.8700000000000041
 50
180.0
 51
270.0
  0
ARC
  5
148
  8
1
 62
     7
 10
-212.99985980808589
 20
33.200000000000017
 30
0.0
 40
1.8700000000000081
 50
270.0
 51
0.0
  0
ARC
  5
149
  8
1
 62
     7
 10
-212.99985980808589
 20
28.800000000000001
 30
0.0
 40
1.869999999999975
 50
0.0
 51
90.0
  0
ARC
  5
14A
  8
1
 62
     7
 10
-208.59985980808599
 20
28.800000000000001
 30
0.0
 40
1.8700000000000081
 50
90.0
 51
180.0
  0
ARC
  5
14B
  8
1
 62
     7
 10
-208.59985980808599
 20
33.200000000000017
 30
0.0
 40
1.8700000000000041
 50
180.0
 51
270.0
  0
ARC
  5
14C
  8
1
 62
     7
 10
-202.79985980808601
 20
0.0
 30
0.0
 40
37.5
 50
180.0
 51
68.078659938454948
  0
ARC
  5
14D
  8
1
 62
     7
 10
-202.79985980808601
 20
0.0
 30
0.0
 40
37.499999999999993
 50
111.921340061545
 51
180.0
  0
ARC
  5
14E
  8
1
 62
     7
 10
-202.79985980808601
 20
0.0
 30
0.0
 40
34.799999999999983
 50
180.0
 51
66.278030392964709
  0
ARC
  5
14F
  8
1
 62
     7
 10
-202.79985980808601
 20
0.0
 30
0.0
 40
34.800000000000011
 50
113.72196960703531
 51
180.0
  0
ARC
  5
150
  8
1
 62
     7
 10
-202.79985980808601
 20
0.0
 30
0.0
 40
27.5
 50
180.0
 51
70.988734739862608
  0
ARC
  5
151
  8
1
 62
     7
 10
-202.79985980808601
 20
0.0
 30
0.0
 40
27.499999999999979
 50
109.01126526013699
 51
180.0
  0
CIRCLE
  5
152
  8
1
 62
     7
 10
184.91760320810599
 20
-0.0000000000000142
 30
0.0
 40
1.5
  0
CIRCLE
  5
153
  8
1
 62
     3
 10
184.91760320810599
 20
-0.0000000000000142
 30
0.0
 40
2.0
  0
CIRCLE
  5
154
  8
1
 62
     7
 10
159.9176032081061
 20
-25.000000000000011
 30
0.0
 40
1.5
  0
CIRCLE
  5
155
  8
1
 62
     3
 10
159.9176032081061
 20
-25.000000000000011
 30
0.0
 40
2.0
  0
CIRCLE
  5
156
  8
1
 62
     7
 10
134.9176032081061
 20
0.0
 30
0.0
 40
1.5
  0
CIRCLE
  5
157
  8
1
 62
     3
 10
134.9176032081061
 20
0.0
 30
0.0
 40
2.0
  0
CIRCLE
  5
158
  8
1
 62
     7
 10
159.9176032081061
 20
25.000000000000011
 30
0.0
 40
1.5
  0
CIRCLE
  5
159
  8
1
 62
     3
 10
159.9176032081061
 20
25.000000000000011
 30
0.0
 40
2.0
  0
CIRCLE
  5
15A
  8
1
 62
     7
 10
10.5
 20
21.250000000000011
 30
0.0
 40
3.75
  0
CIRCLE
  5
15B
  8
1
 62
     7
 10
10.5
 20
-21.250000000000011
 30
0.0
 40
3.75
  0
CIRCLE
  5
15C
  8
1
 62
     7
 10
159.9176032081061
 20
0.0
 30
0.0
 40
37.5
  0
CIRCLE
  5
15D
  8
1
 62
     7
 10
159.9176032081061
 20
0.0
 30
0.0
 40
31.0
  0
CIRCLE
  5
15E
  8
1
 62
     7
 10
159.9176032081061
 20
0.0
 30
0.0
 40
19.0
  0
CIRCLE
  5
15F
  8
1
 62
     7
 10
159.9176032081061
 20
0.0
 30
0.0
 40
14.5
  0
CIRCLE
  5
160
  8
1
 62
     7
 10
159.9176032081061
 20
0.0
 30
0.0
 40
34.199999999999989
  0
CIRCLE
  5
161
  8
1
 62
     7
 10
159.9176032081061
 20
54.0
 30
0.0
 40
2.75
  0
CIRCLE
  5
162
  8
1
 62
     7
 10
177.59527273776979
 20
17.67766952966371
 30
0.0
 40
4.5
  0
CIRCLE
  5
163
  8
1
 62
     7
 10
177.59527273776979
 20
17.67766952966371
 30
0.0
 40
5.0
  0
CIRCLE
  5
164
  8
1
 62
     7
 10
142.23993367844241
 20
17.67766952966371
 30
0.0
 40
5.0
  0
CIRCLE
  5
165
  8
1
 62
     7
 10
142.23993367844241
 20
-17.677669529663689
 30
0.0
 40
4.9999999999998863
  0
CIRCLE
  5
166
  8
1
 62
     7
 10
177.59527273776979
 20
-17.677669529663689
 30
0.0
 40
5.0
  0
CIRCLE
  5
167
  8
1
 62
     7
 10
142.23993367844241
 20
17.67766952966371
 30
0.0
 40
4.5
  0
CIRCLE
  5
168
  8
1
 62
     7
 10
142.23993367844241
 20
-17.677669529663689
 30
0.0
 40
4.4999999999998863
  0
CIRCLE
  5
169
  8
1
 62
     7
 10
177.59527273776979
 20
-17.677669529663689
 30
0.0
 40
4.5
  0
CIRCLE
  5
16A
  8
1
 62
     7
 10
-202.79985980808601
 20
0.0
 30
0.0
 40
14.5
  0
CIRCLE
  5
16B
  8
1
 62
     7
 10
-202.79985980808601
 20
54.0
 30
0.0
 40
2.75
  0
CIRCLE
  5
16C
  8
1
 62
     7
 10
-194.7998598080859
 20
31.000000000000011
 30
0.0
 40
4.0
  0
CIRCLE
  5
16D
  8
1
 62
     7
 10
-210.79985980808601
 20
31.000000000000011
 30
0.0
 40
4.0
  0
TEXT
  5
16F
  8
1
 62
     7
 10
-219.1023914680853
 20
114.06948626009471
 30
0.0
 40
5.0
  1
MZS 2.5
 41
0.9
  7
SIMPLEX
  0
ENDSEC
  0
EOF
