  0
SECTION
  2
HEADER
  9
$ACADVER
  1
AC1009
  9
$INSBASE
 10
0.0
 20
0.0
 30
0.0
  9
$EXTMIN
 10
-259.44267809583448
 20
-42.5
 30
0.0
  9
$EXTMAX
 10
206.9997467489975
 20
123.730151618984
 30
0.0
  9
$LIMMIN
 10
-256.99073499878313
 20
-42.5
  9
$LIMMAX
 10
206.9997467489975
 20
123.7301516189839
  9
$ORTHOMODE
 70
     0
  9
$REGENMODE
 70
     1
  9
$FILLMODE
 70
     1
  9
$QTEXTMODE
 70
     0
  9
$MIRRTEXT
 70
     1
  9
$DRAGMODE
 70
     2
  9
$LTSCALE
 40
1.0
  9
$OSMODE
 70
    37
  9
$ATTMODE
 70
     1
  9
$TEXTSIZE
 40
3.5
  9
$TRACEWID
 40
0.5
  9
$TEXTSTYLE
  7
STANDARD
  9
$CLAYER
  8
0
  9
$CELTYPE
  6
BYLAYER
  9
$CECOLOR
 62
   256
  9
$DIMSCALE
 40
1.0
  9
$DIMASZ
 40
0.18
  9
$DIMEXO
 40
0.0625
  9
$DIMDLI
 40
0.38
  9
$DIMRND
 40
0.0
  9
$DIMDLE
 40
0.0
  9
$DIMEXE
 40
0.18
  9
$DIMTP
 40
0.0
  9
$DIMTM
 40
0.0
  9
$DIMTXT
 40
0.18
  9
$DIMCEN
 40
0.09
  9
$DIMTSZ
 40
0.0
  9
$DIMTOL
 70
     0
  9
$DIMLIM
 70
     0
  9
$DIMTIH
 70
     1
  9
$DIMTOH
 70
     1
  9
$DIMSE1
 70
     0
  9
$DIMSE2
 70
     0
  9
$DIMTAD
 70
     0
  9
$DIMZIN
 70
     0
  9
$DIMBLK
  1

  9
$DIMASO
 70
     1
  9
$DIMSHO
 70
     1
  9
$DIMPOST
  1

  9
$DIMAPOST
  1

  9
$DIMALT
 70
     0
  9
$DIMALTD
 70
     2
  9
$DIMALTF
 40
25.399999999999999
  9
$DIMLFAC
 40
1.0
  9
$DIMTOFL
 70
     0
  9
$DIMTVP
 40
0.0
  9
$DIMTIX
 70
     0
  9
$DIMSOXD
 70
     0
  9
$DIMSAH
 70
     0
  9
$DIMBLK1
  1

  9
$DIMBLK2
  1

  9
$DIMSTYLE
  2
STANDARD
  9
$DIMCLRD
 70
     0
  9
$DIMCLRE
 70
     0
  9
$DIMCLRT
 70
     0
  9
$DIMTFAC
 40
1.0
  9
$DIMGAP
 40
0.09
  9
$LUNITS
 70
     2
  9
$LUPREC
 70
     4
  9
$SKETCHINC
 40
0.1
  9
$FILLETRAD
 40
2.0
  9
$AUNITS
 70
     0
  9
$AUPREC
 70
     0
  9
$MENU
  1
ACAD
  9
$ELEVATION
 40
0.0
  9
$PELEVATION
 40
0.0
  9
$THICKNESS
 40
0.0
  9
$LIMCHECK
 70
     0
  9
$BLIPMODE
 70
     0
  9
$CHAMFERA
 40
0.0
  9
$CHAMFERB
 40
0.0
  9
$SKPOLY
 70
     0
  9
$TDCREATE
 40
2452095.0925195599
  9
$TDUPDATE
 40
2452095.093125347
  9
$TDINDWG
 40
0.0006185185
  9
$TDUSRTIMER
 40
0.0006185185
  9
$USRTIMER
 70
     1
  9
$ANGBASE
 50
0.0
  9
$ANGDIR
 70
     0
  9
$PDMODE
 70
     0
  9
$PDSIZE
 40
0.0
  9
$PLINEWID
 40
0.0
  9
$COORDS
 70
     1
  9
$SPLFRAME
 70
     0
  9
$SPLINETYPE
 70
     6
  9
$SPLINESEGS
 70
     8
  9
$ATTDIA
 70
     0
  9
$ATTREQ
 70
     1
  9
$HANDLING
 70
 10241
  9
$HANDSEED
  5
175
  9
$SURFTAB1
 70
     6
  9
$SURFTAB2
 70
     6
  9
$SURFTYPE
 70
     6
  9
$SURFU
 70
     6
  9
$SURFV
 70
     6
  9
$UCSNAME
  2

  9
$UCSORG
 10
0.0
 20
0.0
 30
0.0
  9
$UCSXDIR
 10
1.0
 20
0.0
 30
0.0
  9
$UCSYDIR
 10
0.0
 20
1.0
 30
0.0
  9
$PUCSNAME
  2

  9
$PUCSORG
 10
0.0
 20
0.0
 30
0.0
  9
$PUCSXDIR
 10
1.0
 20
0.0
 30
0.0
  9
$PUCSYDIR
 10
0.0
 20
1.0
 30
0.0
  9
$USERI1
 70
     0
  9
$USERI2
 70
     0
  9
$USERI3
 70
     0
  9
$USERI4
 70
     0
  9
$USERI5
 70
     0
  9
$USERR1
 40
0.0
  9
$USERR2
 40
0.0
  9
$USERR3
 40
0.0
  9
$USERR4
 40
0.0
  9
$USERR5
 40
0.0
  9
$WORLDVIEW
 70
     1
  9
$SHADEDGE
 70
     3
  9
$SHADEDIF
 70
    70
  9
$TILEMODE
 70
     1
  9
$MAXACTVP
 70
    64
  9
$PLIMCHECK
 70
     0
  9
$PEXTMIN
 10
1.0000000000000000E+020
 20
1.0000000000000000E+020
 30
1.0000000000000000E+020
  9
$PEXTMAX
 10
-1.0000000000000000E+020
 20
-1.0000000000000000E+020
 30
-1.0000000000000000E+020
  9
$PLIMMIN
 10
0.0
 20
0.0
  9
$PLIMMAX
 10
12.0
 20
9.0
  9
$UNITMODE
 70
     0
  9
$VISRETAIN
 70
     1
  9
$PLINEGEN
 70
     0
  9
$PSLTSCALE
 70
     1
  0
ENDSEC
  0
SECTION
  2
TABLES
  0
TABLE
  2
VPORT
 70
     2
  0
VPORT
  2
*ACTIVE
 70
     0
 10
0.0
 20
0.0
 11
1.0
 21
1.0
 12
-214.03842701039139
 22
111.36204498622691
 13
0.0
 23
0.0
 14
1.0
 24
1.0
 15
0.0
 25
0.0
 16
0.0
 26
0.0
 36
1.0
 17
0.0
 27
0.0
 37
0.0
 40
9.0000000748467581
 41
2.4144144144144142
 42
50.0
 43
0.0
 44
0.0
 50
0.0
 51
0.0
 71
     0
 72
   100
 73
     1
 74
     1
 75
     0
 76
     0
 77
     0
 78
     0
  0
ENDTAB
  0
TABLE
  2
LTYPE
 70
     9
  0
LTYPE
  2
CONTINUOUS
 70
     0
  3
Solid line
 72
    65
 73
     0
 40
0.0
  0
LTYPE
  2
BORDER
 70
     0
  3
__ __ . __ __ .
 72
    65
 73
     6
 40
21.367982712068859
 49
6.1051379177339564
 49
-3.0525689588669782
 49
6.1051379177339564
 49
-3.0525689588669782
 49
0.0
 49
-3.0525689588669782
  0
LTYPE
  2
CENTER
 70
     0
  3
____ _ ____ _
 72
    65
 73
     4
 40
24.420551670935819
 49
15.262844794334899
 49
-3.0525689588669782
 49
3.0525689588669782
 49
-3.0525689588669782
  0
LTYPE
  2
DASHDOT
 70
     0
  3
__ . __ . __ .
 72
    65
 73
     4
 40
12.21027583546792
 49
6.1051379177339564
 49
-3.0525689588669782
 49
0.0
 49
-3.0525689588669782
  0
LTYPE
  2
DASHED
 70
     0
  3
__ __ __ __ __
 72
    65
 73
     2
 40
9.1577068766009351
 49
6.1051379177339564
 49
-3.0525689588669782
  0
LTYPE
  2
DIVIDE
 70
     0
  3
__ . . __ . . 
 72
    65
 73
     6
 40
15.262844794334899
 49
6.1051379177339564
 49
-3.0525689588669782
 49
0.0
 49
-3.0525689588669782
 49
0.0
 49
-3.0525689588669782
  0
LTYPE
  2
DOT
 70
     0
  3
..............
 72
    65
 73
     4
 40
6.1051379177339564
 49
0.0
 49
-3.0525689588669782
 49
0.0
 49
-3.0525689588669782
  0
LTYPE
  2
HIDDEN
 70
     0
  3
_ _ _ _ _ _ _
 72
    65
 73
     2
 40
4.5788534383004666
 49
3.0525689588669782
 49
-1.5262844794334891
  0
LTYPE
  2
PHANTOM
 70
     0
  3
_____ _ _ _____ _ _ 
 72
    65
 73
     6
 40
30.525689588669788
 49
15.262844794334899
 49
-3.0525689588669782
 49
3.0525689588669782
 49
-3.0525689588669782
 49
3.0525689588669782
 49
-3.0525689588669782
  0
ENDTAB
  0
TABLE
  2
LAYER
 70
     2
  0
LAYER
  2
0
 70
     0
 62
     7
  6
CONTINUOUS
  0
LAYER
  2
1
 70
     0
 62
     7
  6
CONTINUOUS
  0
ENDTAB
  0
TABLE
  2
STYLE
 70
     4
  0
STYLE
  2
STANDARD
 70
     0
 40
0.0
 41
1.0
 50
0.0
 71
     0
 42
3.5
  3
txt
  4

  0
STYLE
  2
SIMPLEX
 70
     0
 40
0.0
 41
1.0
 50
0.0
 71
     0
 42
3.5
  3
simplex
  4

  0
STYLE
  2
COMPLEX
 70
     0
 40
0.0
 41
1.0
 50
0.0
 71
     0
 42
3.5
  3
complex
  4

  0
STYLE
  2
ITALIC
 70
     0
 40
0.0
 41
1.0
 50
0.0
 71
     0
 42
3.5
  3
italic
  4

  0
ENDTAB
  0
TABLE
  2
VIEW
 70
     0
  0
ENDTAB
  0
TABLE
  2
UCS
 70
     0
  0
ENDTAB
  0
TABLE
  2
APPID
 70
     1
  0
APPID
  2
ACAD
 70
     0
  0
ENDTAB
  0
TABLE
  2
DIMSTYLE
 70
     1
  0
DIMSTYLE
  2
STANDARD
 70
     0
  3

  4

  5

  6

  7

 40
1.0
 41
0.18
 42
0.0625
 43
0.38
 44
0.18
 45
0.0
 46
0.0
 47
0.0
 48
0.0
140
0.18
141
0.09
142
0.0
143
25.399999999999999
144
1.0
145
0.0
146
1.0
147
0.09
 71
     0
 72
     0
 73
     1
 74
     1
 75
     0
 76
     0
 77
     0
 78
     0
170
     0
171
     2
172
     0
173
     0
174
     0
175
     0
176
     0
177
     0
178
     0
  0
ENDTAB
  0
ENDSEC
  0
SECTION
  2
BLOCKS
  0
BLOCK
  8
0
  2
$MODEL_SPACE
 70
     0
 10
0.0
 20
0.0
 30
0.0
  3
$MODEL_SPACE
  1

  0
ENDBLK
  5
20
  8
0
  0
BLOCK
 67
     1
  8
0
  2
$PAPER_SPACE
 70
     0
 10
0.0
 20
0.0
 30
0.0
  3
$PAPER_SPACE
  1

  0
ENDBLK
  5
1C
 67
     1
  8
0
  0
ENDSEC
  0
SECTION
  2
ENTITIES
  0
LINE
  5
33
  8
1
 62
     7
 10
-228.49073499878321
 20
39.381197846483062
 30
0.0
 11
-228.49073499878321
 21
32.0
 31
0.0
  0
LINE
  5
34
  8
1
 62
     7
 10
-227.4907349987833
 20
41.113248654051922
 30
0.0
 11
-223.4907349987833
 21
43.422649730810399
 31
0.0
  0
LINE
  5
35
  8
1
 62
     7
 10
-222.49073499878321
 20
45.154700538379288
 30
0.0
 11
-222.49073499878321
 21
62.0
 31
0.0
  0
LINE
  5
36
  8
1
 62
     7
 10
2.0
 20
-28.219503955360882
 30
0.0
 11
2.0
 21
-32.499999999999893
 31
0.0
  0
LINE
  5
37
  8
1
 62
     7
 10
2.5
 20
-16.499999999999879
 30
0.0
 11
2.5
 21
-19.543884464980859
 31
0.0
  0
LINE
  5
38
  8
1
 62
     7
 10
4.1499999999999764
 20
-32.499999999999893
 30
0.0
 11
4.1499999999999764
 21
-16.499999999999879
 31
0.0
  0
LINE
  5
39
  8
1
 62
     7
 10
18.0
 20
-17.49999999999989
 30
0.0
 11
18.0
 21
-30.999999999999879
 31
0.0
  0
LINE
  5
3A
  8
1
 62
     7
 10
18.0
 20
-30.999999999999879
 30
0.0
 11
4.1499999999999764
 21
-30.999999999999879
 31
0.0
  0
LINE
  5
3B
  8
1
 62
     7
 10
18.0
 20
-17.49999999999989
 30
0.0
 11
4.1499999999999764
 21
-17.49999999999989
 31
0.0
  0
LINE
  5
3C
  8
1
 62
     7
 10
2.5
 20
19.54388446498103
 30
0.0
 11
2.5
 21
16.54388446498103
 31
0.0
  0
LINE
  5
3D
  8
1
 62
     7
 10
4.1499999999999764
 20
32.5
 30
0.0
 11
4.1499999999999764
 21
16.5
 31
0.0
  0
LINE
  5
3E
  8
1
 62
     7
 10
18.0
 20
31.0
 30
0.0
 11
18.0
 21
17.5
 31
0.0
  0
LINE
  5
3F
  8
1
 62
     7
 10
18.0
 20
31.0
 30
0.0
 11
4.1499999999999764
 21
31.0
 31
0.0
  0
LINE
  5
40
  8
1
 62
     7
 10
18.0
 20
17.5
 30
0.0
 11
4.1499999999999764
 21
17.5
 31
0.0
  0
LINE
  5
41
  8
1
  6
DASHDOT
 62
     3
 10
-123.1606577174002
 20
58.0
 30
0.0
 11
-118.39551961344409
 21
58.0
 31
0.0
  0
LINE
  5
42
  8
1
 62
     7
 10
-222.49922378026409
 20
44.971109461370411
 30
0.0
 11
-231.98460079800799
 21
61.400264385048722
 31
0.0
  0
LINE
  5
43
  8
1
 62
     7
 10
-222.49073499878321
 20
48.356406460551
 30
0.0
 11
-230.5123576115744
 21
62.250264385048688
 31
0.0
  0
LINE
  5
44
  8
1
 62
     7
 10
-233.38733709775349
 20
64.329874925829245
 30
0.0
 11
-231.76809444706171
 21
61.525264385048722
 31
0.0
  0
LINE
  5
45
  8
1
 62
     7
 10
-233.12752947661821
 20
64.479874925829222
 30
0.0
 11
-231.50828682592649
 21
61.675264385048592
 31
0.0
  0
LINE
  5
46
  8
1
 62
     7
 10
-232.3481066132122
 20
64.929874925829282
 30
0.0
 11
-230.72886396252051
 21
62.125264385048688
 31
0.0
  0
LINE
  5
47
  8
1
 62
     7
 10
-232.6079142343475
 20
64.779874925829176
 30
0.0
 11
-230.98867158365579
 21
61.975264385048732
 31
0.0
  0
LINE
  5
48
  8
1
 62
     7
 10
-230.2958512606283
 20
62.375264385048581
 30
0.0
 11
-231.9150939113199
 21
65.179874925829154
 31
0.0
  0
LINE
  5
49
  8
1
 62
     7
 10
-230.0360436394929
 20
62.525264385048501
 30
0.0
 11
-231.65528629018459
 21
65.329874925829131
 31
0.0
  0
LINE
  5
4A
  8
1
 62
     7
 10
-229.25662077608689
 20
62.975264385048717
 30
0.0
 11
-230.87586342677849
 21
65.77987492582929
 31
0.0
  0
LINE
  5
4B
  8
1
 62
     7
 10
-229.51642839722231
 20
62.825264385048641
 30
0.0
 11
-231.13567104791389
 21
65.629874925829185
 31
0.0
  0
LINE
  5
4C
  8
1
 62
     7
 10
-232.8677218554829
 20
64.629874925829199
 30
0.0
 11
-231.24847920479101
 21
61.825264385048683
 31
0.0
  0
LINE
  5
4D
  8
1
 62
     7
 10
-229.77623601835751
 20
62.675264385048592
 30
0.0
 11
-231.39547866904931
 21
65.479874925829222
 31
0.0
  0
LINE
  5
4E
  8
1
 62
     7
 10
-231.98460079800799
 20
61.400264385048722
 30
0.0
 11
-229.04011442514081
 21
63.100264385048717
 31
0.0
  0
LINE
  5
4F
  8
1
 62
     7
 10
-229.04011442514081
 20
63.100264385048717
 30
0.0
 11
-222.49073499878321
 21
51.756406460551041
 31
0.0
  0
LINE
  5
50
  8
1
 62
     7
 10
181.77710619727611
 20
61.525264385048722
 30
0.0
 11
183.396348847968
 21
64.329874925829245
 31
0.0
  0
LINE
  5
51
  8
1
 62
     7
 10
181.5172985761408
 20
61.675264385048592
 30
0.0
 11
183.13654122683249
 21
64.479874925829222
 31
0.0
  0
LINE
  5
52
  8
1
 62
     7
 10
180.7378757127349
 20
62.125264385048688
 30
0.0
 11
182.35711836342671
 21
64.929874925829282
 31
0.0
  0
LINE
  5
53
  8
1
 62
     7
 10
180.99768333387021
 20
61.975264385048732
 30
0.0
 11
182.6169259845619
 21
64.779874925829176
 31
0.0
  0
LINE
  5
54
  8
1
 62
     7
 10
181.92410566153441
 20
65.179874925829154
 30
0.0
 11
180.30486301084269
 21
62.375264385048581
 31
0.0
  0
LINE
  5
55
  8
1
 62
     7
 10
181.66429804039899
 20
65.329874925829131
 30
0.0
 11
180.04505538970719
 21
62.525264385048501
 31
0.0
  0
LINE
  5
56
  8
1
 62
     7
 10
180.88487517699289
 20
65.77987492582929
 30
0.0
 11
179.26563252630129
 21
62.975264385048717
 31
0.0
  0
LINE
  5
57
  8
1
 62
     7
 10
181.14468279812829
 20
65.629874925829185
 30
0.0
 11
179.5254401474366
 21
62.825264385048641
 31
0.0
  0
LINE
  5
58
  8
1
 62
     7
 10
181.25749095500561
 20
61.825264385048683
 30
0.0
 11
182.8767336056973
 21
64.629874925829199
 31
0.0
  0
LINE
  5
59
  8
1
 62
     7
 10
181.4044904192636
 20
65.479874925829222
 30
0.0
 11
179.78524776857199
 21
62.675264385048592
 31
0.0
  0
LINE
  5
5A
  8
1
 62
     7
 10
180.5213693617888
 20
62.250264385048688
 30
0.0
 11
168.98172187475129
 21
42.26300863606518
 31
0.0
  0
LINE
  5
5B
  8
1
 62
     7
 10
181.9936125482223
 20
61.400264385048722
 30
0.0
 11
170.80960033207879
 21
42.028986994217107
 31
0.0
  0
LINE
  5
5C
  8
1
 62
     7
 10
179.0491261753551
 20
63.100264385048717
 30
0.0
 11
181.9936125482223
 21
61.400264385048722
 31
0.0
  0
LINE
  5
5D
  8
1
 62
     7
 10
167.10926131246731
 20
42.419811807020487
 30
0.0
 11
179.0491261753551
 21
63.100264385048717
 31
0.0
  0
LINE
  5
5E
  8
1
 62
     7
 10
156.4997467489975
 20
45.155182996983392
 30
0.0
 11
156.4997467489975
 21
62.0
 31
0.0
  0
LINE
  5
5F
  8
1
  6
DASHDOT
 62
     3
 10
164.4997467489975
 20
61.674857621224596
 30
0.0
 11
164.4997467489975
 21
54.325142378775411
 31
0.0
  0
LINE
  5
60
  8
1
  6
DASHDOT
 62
     3
 10
168.17460437022211
 20
58.0
 30
0.0
 11
160.82488912777291
 21
58.0
 31
0.0
  0
LINE
  5
61
  8
1
 62
     7
 10
158.49974674899741
 20
64.0
 30
0.0
 11
170.4997467489975
 21
64.0
 31
0.0
  0
LINE
  5
62
  8
1
 62
     7
 10
172.49974674899761
 20
62.0
 30
0.0
 11
172.49974674899761
 21
51.756406460551041
 31
0.0
  0
LINE
  5
63
  8
1
 62
     7
 10
155.4997467489975
 20
43.422649730810399
 30
0.0
 11
151.49974674899741
 21
41.113248654051922
 31
0.0
  0
LINE
  5
64
  8
1
 62
     7
 10
173.49974674899761
 20
43.422649730810399
 30
0.0
 11
177.49974674899761
 21
41.113248654051922
 31
0.0
  0
LINE
  5
65
  8
1
 62
     3
 10
56.499999999999993
 20
-42.499999999999893
 30
0.0
 11
56.499999999999993
 21
-39.499999999999893
 31
0.0
  0
LINE
  5
66
  8
1
 62
     7
 10
55.200000000000003
 20
-39.5
 30
0.0
 11
55.200000000000003
 21
-42.499999999999893
 31
0.0
  0
LINE
  5
67
  8
1
 62
     7
 10
54.700000000000003
 20
-39.5
 30
0.0
 11
54.700000000000003
 21
-42.499999999999893
 31
0.0
  0
LINE
  5
68
  8
1
 62
     3
 10
53.149999999999991
 20
-39.5
 30
0.0
 11
53.149999999999991
 21
-42.5
 31
0.0
  0
LINE
  5
69
  8
1
 62
     3
 10
56.499999999999993
 20
39.5
 30
0.0
 11
56.499999999999993
 21
42.5
 31
0.0
  0
LINE
  5
6A
  8
1
 62
     3
 10
53.149999999999991
 20
42.5
 30
0.0
 11
53.149999999999991
 21
39.5
 31
0.0
  0
LINE
  5
6B
  8
1
 62
     7
 10
55.200000000000003
 20
39.5
 30
0.0
 11
56.499999999999993
 21
39.5
 31
0.0
  0
LINE
  5
6C
  8
1
 62
     7
 10
55.200000000000003
 20
42.5
 30
0.0
 11
55.200000000000003
 21
39.5
 31
0.0
  0
LINE
  5
6D
  8
1
 62
     7
 10
54.700000000000003
 20
42.5
 30
0.0
 11
54.700000000000003
 21
39.5
 31
0.0
  0
LINE
  5
6E
  8
1
 62
     7
 10
4.1499999999999764
 20
-32.499999999999893
 30
0.0
 11
2.0
 21
-32.499999999999893
 31
0.0
  0
LINE
  5
6F
  8
1
 62
     7
 10
-53.150000000000013
 20
42.5
 30
0.0
 11
-53.150000000000013
 21
-42.499999999999893
 31
0.0
  0
LINE
  5
70
  8
1
 62
     7
 10
-199.4907349987831
 20
27.129319932501119
 30
0.0
 11
-199.4907349987831
 21
35.995584457374491
 31
0.0
  0
LINE
  5
71
  8
1
 62
     7
 10
-229.4907349987831
 20
36.270683754238689
 30
0.0
 11
-229.4907349987831
 21
27.129319932501119
 31
0.0
  0
LINE
  5
72
  8
1
 62
     7
 10
5.3499999999999801
 20
-19.742597114672659
 30
0.0
 11
5.3499999999999801
 21
-28.75740288532711
 31
0.0
  0
LINE
  5
73
  8
1
 62
     7
 10
16.800000000000001
 20
-19.742597114673
 30
0.0
 11
16.800000000000001
 21
-28.757402885326769
 31
0.0
  0
LINE
  5
74
  8
1
 62
     7
 10
5.3499999999999801
 20
28.75740288532722
 30
0.0
 11
5.3499999999999801
 21
19.742597114672829
 31
0.0
  0
LINE
  5
75
  8
1
 62
     7
 10
16.800000000000001
 20
28.757402885326869
 30
0.0
 11
16.800000000000001
 21
19.742597114673121
 31
0.0
  0
LINE
  5
76
  8
1
 62
     7
 10
-222.1607349987832
 20
37.199999999999982
 30
0.0
 11
-222.82073499878311
 21
37.199999999999982
 31
0.0
  0
LINE
  5
77
  8
1
 62
     7
 10
-220.29073499878311
 20
34.670000000000009
 30
0.0
 11
-220.29073499878311
 21
35.32999999999997
 31
0.0
  0
LINE
  5
78
  8
1
 62
     7
 10
-222.82073499878311
 20
32.800000000000011
 30
0.0
 11
-222.1607349987832
 21
32.800000000000011
 31
0.0
  0
LINE
  5
79
  8
1
 62
     7
 10
-224.6907349987832
 20
35.32999999999997
 30
0.0
 11
-224.6907349987832
 21
34.670000000000009
 31
0.0
  0
LINE
  5
7A
  8
1
 62
     7
 10
-206.1607349987832
 20
37.199999999999982
 30
0.0
 11
-206.82073499878319
 21
37.199999999999982
 31
0.0
  0
LINE
  5
7B
  8
1
 62
     7
 10
-204.29073499878319
 20
34.670000000000009
 30
0.0
 11
-204.29073499878319
 21
35.32999999999997
 31
0.0
  0
LINE
  5
7C
  8
1
 62
     7
 10
-206.82073499878319
 20
32.800000000000011
 30
0.0
 11
-206.1607349987832
 21
32.800000000000011
 31
0.0
  0
LINE
  5
7D
  8
1
 62
     7
 10
-208.6907349987832
 20
35.32999999999997
 30
0.0
 11
-208.6907349987832
 21
34.670000000000009
 31
0.0
  0
LINE
  5
7E
  8
1
 62
     7
 10
-200.4907349987831
 20
32.0
 30
0.0
 11
-200.4907349987831
 21
39.381197846483062
 31
0.0
  0
LINE
  5
7F
  8
1
 62
     7
 10
-226.49073499878321
 20
30.0
 30
0.0
 11
-202.4907349987831
 21
30.0
 31
0.0
  0
LINE
  5
80
  8
1
 62
     7
 10
-120.0
 20
39.25
 30
0.0
 11
-122.0
 21
39.25
 31
0.0
  0
LINE
  5
81
  8
1
 62
     7
 10
-120.0
 20
64.0
 30
0.0
 11
-120.0
 21
39.25
 31
0.0
  0
LINE
  5
82
  8
1
 62
     3
 10
-48.5
 20
0.0
 30
0.0
 11
-44.5
 21
0.0
 31
0.0
  0
LINE
  5
83
  8
1
 62
     3
 10
-122.0
 20
0.0
 30
0.0
 11
-126.0
 21
0.0
 31
0.0
  0
LINE
  5
84
  8
1
 62
     7
 10
-51.5
 20
-38.699999999999861
 30
0.0
 11
-51.5
 21
38.699999999999989
 31
0.0
  0
LINE
  5
85
  8
1
 62
     3
 10
-65.25
 20
42.5
 30
0.0
 11
-65.25
 21
-42.499999999999893
 31
0.0
  0
LINE
  5
86
  8
1
 62
     3
 10
-68.849999999999994
 20
42.5
 30
0.0
 11
-68.849999999999994
 21
-42.499999999999893
 31
0.0
  0
LINE
  5
87
  8
1
 62
     7
 10
-66.800000000000011
 20
42.5
 30
0.0
 11
-66.800000000000011
 21
-42.499999999999893
 31
0.0
  0
LINE
  5
88
  8
1
 62
     7
 10
-67.300000000000011
 20
42.5
 30
0.0
 11
-67.300000000000011
 21
-42.499999999999893
 31
0.0
  0
LINE
  5
89
  8
1
 62
     7
 10
-101.0
 20
39.25
 30
0.0
 11
-120.0
 21
39.25
 31
0.0
  0
LINE
  5
8A
  8
1
 62
     7
 10
-100.0
 20
42.5
 30
0.0
 11
-100.0
 21
-42.499999999999893
 31
0.0
  0
LINE
  5
8B
  8
1
 62
     7
 10
-52.150000000000013
 20
38.699999999999989
 30
0.0
 11
-51.5
 21
38.699999999999989
 31
0.0
  0
LINE
  5
8C
  8
1
  6
DASHDOT
 62
     3
 10
164.4997467489975
 20
2.8676466153129909
 30
0.0
 11
164.4997467489975
 21
-2.8676466153129909
 31
0.0
  0
LINE
  5
8D
  8
1
  6
DASHDOT
 62
     3
 10
167.3673933643106
 20
0.0
 30
0.0
 11
161.6321001336845
 21
0.0
 31
0.0
  0
LINE
  5
8E
  8
1
 62
     7
 10
160.9997467489975
 20
15.5
 30
0.0
 11
167.9997467489975
 21
15.5
 31
0.0
  0
LINE
  5
8F
  8
1
 62
     7
 10
167.9997467489975
 20
15.5
 30
0.0
 11
167.9997467489975
 21
12.0
 31
0.0
  0
LINE
  5
90
  8
1
 62
     7
 10
160.9997467489975
 20
12.0
 30
0.0
 11
160.9997467489975
 21
15.5
 31
0.0
  0
LINE
  5
91
  8
1
 62
     7
 10
-100.0
 20
-42.499999999999893
 30
0.0
 11
-101.0
 21
-41.499999999999893
 31
0.0
  0
LINE
  5
92
  8
1
 62
     7
 10
-51.5
 20
-34.999999999999893
 30
0.0
 11
-48.5
 21
-34.999999999999893
 31
0.0
  0
LINE
  5
93
  8
1
 62
     7
 10
-53.150000000000013
 20
-42.499999999999893
 30
0.0
 11
-52.150000000000013
 21
-41.499999999999893
 31
0.0
  0
LINE
  5
94
  8
1
 62
     7
 10
-48.5
 20
-34.999999999999893
 30
0.0
 11
-48.5
 21
35.0
 31
0.0
  0
LINE
  5
95
  8
1
 62
     7
 10
-51.5
 20
-38.699999999999861
 30
0.0
 11
-52.150000000000013
 21
-38.699999999999861
 31
0.0
  0
LINE
  5
96
  8
1
 62
     7
 10
-53.150000000000013
 20
-42.499999999999893
 30
0.0
 11
-66.800000000000011
 21
-42.499999999999893
 31
0.0
  0
LINE
  5
97
  8
1
 62
     7
 10
-122.0
 20
-39.249999999999893
 30
0.0
 11
-101.0
 21
-39.249999999999893
 31
0.0
  0
LINE
  5
98
  8
1
 62
     7
 10
-101.0
 20
41.5
 30
0.0
 11
-101.0
 21
-41.499999999999893
 31
0.0
  0
LINE
  5
99
  8
1
 62
     7
 10
-100.0
 20
-42.499999999999893
 30
0.0
 11
-67.300000000000011
 21
-42.499999999999893
 31
0.0
  0
LINE
  5
9A
  8
1
 62
     7
 10
-101.0
 20
41.5
 30
0.0
 11
-100.0
 21
42.5
 31
0.0
  0
LINE
  5
9B
  8
1
 62
     7
 10
-48.5
 20
35.0
 30
0.0
 11
-51.5
 21
35.0
 31
0.0
  0
LINE
  5
9C
  8
1
 62
     7
 10
-52.150000000000013
 20
41.5
 30
0.0
 11
-53.150000000000013
 21
42.5
 31
0.0
  0
LINE
  5
9D
  8
1
 62
     7
 10
-52.150000000000013
 20
41.5
 30
0.0
 11
-52.150000000000013
 21
-41.499999999999893
 31
0.0
  0
LINE
  5
9E
  8
1
 62
     7
 10
-66.800000000000011
 20
42.5
 30
0.0
 11
-53.150000000000013
 21
42.5
 31
0.0
  0
LINE
  5
9F
  8
1
 62
     7
 10
-122.0
 20
-39.249999999999893
 30
0.0
 11
-122.0
 21
64.0
 31
0.0
  0
LINE
  5
A0
  8
1
 62
     7
 10
-122.0
 20
64.0
 30
0.0
 11
-120.0
 21
64.0
 31
0.0
  0
LINE
  5
A1
  8
1
 62
     7
 10
-119.1999999999999
 20
64.27696776878804
 30
0.0
 11
-116.7999999999999
 21
64.27696776878804
 31
0.0
  0
LINE
  5
A2
  8
1
 62
     7
 10
-119.1999999999999
 20
39.25
 30
0.0
 11
-119.1999999999999
 21
64.27696776878804
 31
0.0
  0
LINE
  5
A3
  8
1
 62
     7
 10
-116.7999999999999
 20
64.27696776878804
 30
0.0
 11
-116.7999999999999
 21
39.25
 31
0.0
  0
LINE
  5
A4
  8
1
 62
     7
 10
-100.0
 20
42.5
 30
0.0
 11
-67.300000000000011
 21
42.5
 31
0.0
  0
LINE
  5
A5
  8
1
  6
DASHDOT
 62
     3
 10
-214.4907349987831
 20
61.674857621224596
 30
0.0
 11
-214.4907349987831
 21
54.325142378775411
 31
0.0
  0
LINE
  5
A6
  8
1
  6
DASHDOT
 62
     3
 10
-210.81587737755859
 20
58.0
 30
0.0
 11
-218.1655926200078
 21
58.0
 31
0.0
  0
LINE
  5
A7
  8
1
  6
DASHDOT
 62
     3
 10
-214.4907349987831
 20
2.8676466153129909
 30
0.0
 11
-214.4907349987831
 21
-2.8676466153129909
 31
0.0
  0
LINE
  5
A8
  8
1
  6
DASHDOT
 62
     3
 10
-211.62308838347019
 20
0.0
 30
0.0
 11
-217.35838161409609
 21
0.0
 31
0.0
  0
LINE
  5
A9
  8
1
 62
     3
 10
0.0
 20
0.0
 30
0.0
 11
-4.0
 21
0.0
 31
0.0
  0
LINE
  5
AA
  8
1
 62
     3
 10
73.499999999999986
 20
0.0
 30
0.0
 11
77.499999999999986
 21
0.0
 31
0.0
  0
LINE
  5
AB
  8
1
 62
     7
 10
56.499999999999993
 20
-39.499999999999893
 30
0.0
 11
55.200000000000003
 21
-39.5
 31
0.0
  0
LINE
  5
AC
  8
1
  6
DASHDOT
 62
     3
 10
61.389599054155291
 20
29.0
 30
0.0
 11
74.396736216930591
 21
29.0
 31
0.0
  0
LINE
  5
AD
  8
1
 62
     7
 10
22.0
 20
-42.499999999999893
 30
0.0
 11
21.0
 21
-41.499999999999893
 31
0.0
  0
LINE
  5
AE
  8
1
 62
     7
 10
70.499999999999986
 20
-34.999999999999893
 30
0.0
 11
73.499999999999986
 21
-34.999999999999893
 31
0.0
  0
LINE
  5
AF
  8
1
 62
     7
 10
68.849999999999994
 20
-42.499999999999893
 30
0.0
 11
69.849999999999994
 21
-41.499999999999893
 31
0.0
  0
LINE
  5
B0
  8
1
 62
     7
 10
73.499999999999986
 20
-22.499999999999879
 30
0.0
 11
62.700000000000003
 21
-22.499999999999879
 31
0.0
  0
LINE
  5
B1
  8
1
 62
     7
 10
70.499999999999986
 20
-34.999999999999893
 30
0.0
 11
70.499999999999986
 21
-38.699999999999861
 31
0.0
  0
LINE
  5
B2
  8
1
 62
     7
 10
70.499999999999986
 20
-38.699999999999861
 30
0.0
 11
62.700000000000003
 21
-38.699999999999861
 31
0.0
  0
LINE
  5
B3
  8
1
 62
     7
 10
62.700000000000003
 20
-39.299999999999891
 30
0.0
 11
66.0
 21
-39.299999999999891
 31
0.0
  0
LINE
  5
B4
  8
1
 62
     7
 10
66.0
 20
-39.299999999999891
 30
0.0
 11
66.0
 21
-36.299999999999898
 31
0.0
  0
LINE
  5
B5
  8
1
 62
     7
 10
62.700000000000003
 20
-36.299999999999898
 30
0.0
 11
70.499999999999986
 21
-36.299999999999898
 31
0.0
  0
LINE
  5
B6
  8
1
 62
     7
 10
69.849999999999994
 20
-36.299999999999898
 30
0.0
 11
69.849999999999994
 21
-41.499999999999893
 31
0.0
  0
LINE
  5
B7
  8
1
 62
     7
 10
68.849999999999994
 20
-42.499999999999893
 30
0.0
 11
55.200000000000003
 21
-42.499999999999893
 31
0.0
  0
LINE
  5
B8
  8
1
 62
     7
 10
4.1499999999999764
 20
-19.543884464980859
 30
0.0
 11
2.5
 21
-19.543884464980859
 31
0.0
  0
LINE
  5
B9
  8
1
 62
     7
 10
4.1499999999999764
 20
-28.219503955360882
 30
0.0
 11
2.0
 21
-28.219503955360882
 31
0.0
  0
LINE
  5
BA
  8
1
 62
     7
 10
4.1499999999999764
 20
-27.757402885326769
 30
0.0
 11
9.0499999999999847
 21
-27.757402885326869
 31
0.0
  0
LINE
  5
BB
  8
1
 62
     7
 10
18.0
 20
-27.757402885326769
 30
0.0
 11
13.099999999999991
 21
-27.757402885326869
 31
0.0
  0
LINE
  5
BC
  8
1
 62
     7
 10
18.0
 20
-20.742597114673
 30
0.0
 11
13.099999999999991
 21
-20.74259711467289
 31
0.0
  0
LINE
  5
BD
  8
1
 62
     7
 10
4.1499999999999764
 20
-20.742597114673
 30
0.0
 11
9.0499999999999847
 21
-20.74259711467289
 31
0.0
  0
LINE
  5
BE
  8
1
 62
     7
 10
2.0
 20
-30.999999999999879
 30
0.0
 11
0.0
 21
-30.999999999999879
 31
0.0
  0
LINE
  5
BF
  8
1
 62
     7
 10
-0.0000000000000142
 20
-39.249999999999893
 30
0.0
 11
47.999999999999993
 21
-39.249999999999893
 31
0.0
  0
LINE
  5
C0
  8
1
 62
     7
 10
47.999999999999993
 20
-39.249999999999893
 30
0.0
 11
47.999999999999993
 21
-20.24999999999989
 31
0.0
  0
LINE
  5
C1
  8
1
 62
     7
 10
47.999999999999993
 20
-20.24999999999989
 30
0.0
 11
19.0
 21
-20.24999999999989
 31
0.0
  0
LINE
  5
C2
  8
1
 62
     7
 10
19.0
 20
-20.24999999999989
 30
0.0
 11
19.0
 21
-26.49999999999989
 31
0.0
  0
LINE
  5
C3
  8
1
 62
     7
 10
19.0
 20
-26.49999999999989
 30
0.0
 11
18.0
 21
-26.49999999999989
 31
0.0
  0
LINE
  5
C4
  8
1
 62
     7
 10
0.0
 20
-17.49999999999989
 30
0.0
 11
2.5
 21
-17.49999999999989
 31
0.0
  0
LINE
  5
C5
  8
1
 62
     7
 10
2.5
 20
-16.499999999999879
 30
0.0
 11
4.1499999999999764
 21
-16.499999999999879
 31
0.0
  0
LINE
  5
C6
  8
1
 62
     7
 10
18.0
 20
-19.499999999999879
 30
0.0
 11
49.499999999999993
 21
-19.499999999999879
 31
0.0
  0
LINE
  5
C7
  8
1
 62
     7
 10
49.499999999999993
 20
-19.499999999999879
 30
0.0
 11
49.499999999999993
 21
-39.999999999999893
 31
0.0
  0
LINE
  5
C8
  8
1
 62
     7
 10
49.499999999999993
 20
-39.999999999999893
 30
0.0
 11
21.0
 21
-39.999999999999893
 31
0.0
  0
LINE
  5
C9
  8
1
 62
     7
 10
21.0
 20
-39.999999999999893
 30
0.0
 11
21.0
 21
-41.499999999999893
 31
0.0
  0
LINE
  5
CA
  8
1
 62
     7
 10
22.0
 20
-42.499999999999893
 30
0.0
 11
54.700000000000003
 21
-42.499999999999893
 31
0.0
  0
LINE
  5
CB
  8
1
 62
     7
 10
52.999999999999993
 20
-39.499999999999893
 30
0.0
 11
54.700000000000003
 21
-39.5
 31
0.0
  0
LINE
  5
CC
  8
1
 62
     7
 10
52.999999999999993
 20
-39.499999999999893
 30
0.0
 11
52.999999999999993
 21
-30.999999999999879
 31
0.0
  0
LINE
  5
CD
  8
1
 62
     7
 10
52.999999999999993
 20
-30.999999999999879
 30
0.0
 11
55.0
 21
-30.999999999999879
 31
0.0
  0
LINE
  5
CE
  8
1
 62
     7
 10
21.0
 20
41.5
 30
0.0
 11
22.0
 21
42.5
 31
0.0
  0
LINE
  5
CF
  8
1
 62
     7
 10
73.499999999999986
 20
35.0
 30
0.0
 11
70.499999999999986
 21
35.0
 31
0.0
  0
LINE
  5
D0
  8
1
 62
     7
 10
69.849999999999994
 20
41.5
 30
0.0
 11
68.849999999999994
 21
42.5
 31
0.0
  0
LINE
  5
D1
  8
1
 62
     7
 10
62.700000000000003
 20
22.5
 30
0.0
 11
73.499999999999986
 21
22.5
 31
0.0
  0
LINE
  5
D2
  8
1
 62
     7
 10
73.499999999999986
 20
-34.999999999999893
 30
0.0
 11
73.499999999999986
 21
35.0
 31
0.0
  0
LINE
  5
D3
  8
1
 62
     7
 10
70.499999999999986
 20
38.699999999999989
 30
0.0
 11
70.499999999999986
 21
35.0
 31
0.0
  0
LINE
  5
D4
  8
1
 62
     7
 10
62.700000000000003
 20
38.699999999999989
 30
0.0
 11
70.499999999999986
 21
38.699999999999989
 31
0.0
  0
LINE
  5
D5
  8
1
 62
     7
 10
66.0
 20
39.300000000000011
 30
0.0
 11
62.700000000000003
 21
39.300000000000011
 31
0.0
  0
LINE
  5
D6
  8
1
 62
     7
 10
66.0
 20
36.300000000000011
 30
0.0
 11
66.0
 21
39.300000000000011
 31
0.0
  0
LINE
  5
D7
  8
1
 62
     7
 10
70.499999999999986
 20
36.300000000000011
 30
0.0
 11
62.700000000000003
 21
36.300000000000011
 31
0.0
  0
LINE
  5
D8
  8
1
 62
     7
 10
69.849999999999994
 20
41.5
 30
0.0
 11
69.849999999999994
 21
36.300000000000011
 31
0.0
  0
LINE
  5
D9
  8
1
 62
     7
 10
55.200000000000003
 20
42.5
 30
0.0
 11
68.849999999999994
 21
42.5
 31
0.0
  0
LINE
  5
DA
  8
1
 62
     7
 10
2.5
 20
19.54388446498103
 30
0.0
 11
4.1499999999999764
 21
19.54388446498103
 31
0.0
  0
LINE
  5
DB
  8
1
 62
     7
 10
2.0
 20
28.219503955361009
 30
0.0
 11
4.1499999999999764
 21
28.219503955361009
 31
0.0
  0
LINE
  5
DC
  8
1
 62
     7
 10
9.0499999999999847
 20
27.757402885327
 30
0.0
 11
4.1499999999999764
 21
27.757402885326869
 31
0.0
  0
LINE
  5
DD
  8
1
 62
     7
 10
13.099999999999991
 20
27.757402885327
 30
0.0
 11
18.0
 21
27.757402885326869
 31
0.0
  0
LINE
  5
DE
  8
1
 62
     7
 10
13.099999999999991
 20
20.742597114673
 30
0.0
 11
18.0
 21
20.742597114673121
 31
0.0
  0
LINE
  5
DF
  8
1
 62
     7
 10
9.0499999999999847
 20
20.742597114673
 30
0.0
 11
4.1499999999999764
 21
20.742597114673121
 31
0.0
  0
LINE
  5
E0
  8
1
 62
     7
 10
2.0
 20
32.5
 30
0.0
 11
4.1499999999999764
 21
32.5
 31
0.0
  0
LINE
  5
E1
  8
1
 62
     7
 10
2.0
 20
64.0
 30
0.0
 11
2.0
 21
28.219503955361009
 31
0.0
  0
LINE
  5
E2
  8
1
 62
     7
 10
0.0
 20
64.0
 30
0.0
 11
-0.0000000000000142
 21
-39.249999999999893
 31
0.0
  0
LINE
  5
E3
  8
1
 62
     7
 10
48.0
 20
20.249999999999989
 30
0.0
 11
47.999999999999993
 21
39.25
 31
0.0
  0
LINE
  5
E4
  8
1
 62
     7
 10
19.0
 20
20.249999999999989
 30
0.0
 11
48.0
 21
20.249999999999989
 31
0.0
  0
LINE
  5
E5
  8
1
 62
     7
 10
19.0
 20
26.5
 30
0.0
 11
19.0
 21
20.249999999999989
 31
0.0
  0
LINE
  5
E6
  8
1
 62
     7
 10
18.0
 20
26.5
 30
0.0
 11
19.0
 21
26.5
 31
0.0
  0
LINE
  5
E7
  8
1
 62
     7
 10
2.5
 20
17.5
 30
0.0
 11
0.0
 21
17.5
 31
0.0
  0
LINE
  5
E8
  8
1
 62
     7
 10
4.1499999999999764
 20
16.5
 30
0.0
 11
2.5
 21
16.5
 31
0.0
  0
LINE
  5
E9
  8
1
 62
     7
 10
49.499999999999993
 20
19.5
 30
0.0
 11
18.0
 21
19.5
 31
0.0
  0
LINE
  5
EA
  8
1
 62
     7
 10
49.499999999999993
 20
40.0
 30
0.0
 11
49.499999999999993
 21
19.5
 31
0.0
  0
LINE
  5
EB
  8
1
 62
     7
 10
21.0
 20
40.0
 30
0.0
 11
49.499999999999993
 21
40.0
 31
0.0
  0
LINE
  5
EC
  8
1
 62
     7
 10
21.0
 20
41.5
 30
0.0
 11
21.0
 21
40.0
 31
0.0
  0
LINE
  5
ED
  8
1
 62
     7
 10
52.999999999999993
 20
39.5
 30
0.0
 11
54.700000000000003
 21
39.5
 31
0.0
  0
LINE
  5
EE
  8
1
 62
     7
 10
52.999999999999993
 20
31.0
 30
0.0
 11
52.999999999999993
 21
39.5
 31
0.0
  0
LINE
  5
EF
  8
1
 62
     7
 10
55.0
 20
31.0
 30
0.0
 11
52.999999999999993
 21
31.0
 31
0.0
  0
LINE
  5
F0
  8
1
 62
     7
 10
55.0
 20
-30.999999999999879
 30
0.0
 11
55.0
 21
21.499999999999989
 31
0.0
  0
LINE
  5
F1
  8
1
 62
     7
 10
56.499999999999993
 20
-39.499999999999893
 30
0.0
 11
56.499999999999993
 21
22.0
 31
0.0
  0
LINE
  5
F2
  8
1
 62
     7
 10
-217.99073499878321
 20
15.5
 30
0.0
 11
-210.9907349987831
 21
15.5
 31
0.0
  0
LINE
  5
F3
  8
1
 62
     7
 10
-210.9907349987831
 20
15.5
 30
0.0
 11
-210.9907349987831
 21
12.0
 31
0.0
  0
LINE
  5
F4
  8
1
 62
     7
 10
-217.99073499878321
 20
12.0
 30
0.0
 11
-217.99073499878321
 21
15.5
 31
0.0
  0
LINE
  5
F5
  8
1
 62
     7
 10
-220.49073499878321
 20
64.0
 30
0.0
 11
-208.4907349987831
 21
64.0
 31
0.0
  0
LINE
  5
F6
  8
1
 62
     7
 10
-206.4907349987831
 20
62.0
 30
0.0
 11
-206.4907349987831
 21
45.154700538379288
 31
0.0
  0
LINE
  5
F7
  8
1
 62
     7
 10
-205.4907349987831
 20
43.422649730810399
 30
0.0
 11
-201.49073499878321
 21
41.113248654051922
 31
0.0
  0
LINE
  5
F8
  8
1
 62
     7
 10
0.0
 20
64.0
 30
0.0
 11
2.0
 21
64.0
 31
0.0
  0
LINE
  5
F9
  8
1
 62
     7
 10
0.0
 20
30.0
 30
0.0
 11
2.0
 21
30.0
 31
0.0
  0
LINE
  5
FA
  8
1
 62
     7
 10
47.999999999999993
 20
39.25
 30
0.0
 11
2.0
 21
39.25
 31
0.0
  0
LINE
  5
FB
  8
1
  6
DASHDOT
 62
     3
 10
-1.1606577174001971
 20
58.0
 30
0.0
 11
3.6044803865559061
 21
58.0
 31
0.0
  0
LINE
  5
FC
  8
1
 62
     7
 10
0.0
 20
60.75
 30
0.0
 11
2.0
 21
60.75
 31
0.0
  0
LINE
  5
FD
  8
1
 62
     7
 10
0.0
 20
55.25
 30
0.0
 11
2.0
 21
55.25
 31
0.0
  0
LINE
  5
FE
  8
1
 62
     7
 10
2.8000000000000109
 20
64.27696776878804
 30
0.0
 11
5.200000000000002
 21
64.27696776878804
 31
0.0
  0
LINE
  5
FF
  8
1
 62
     7
 10
2.8000000000000109
 20
39.25
 30
0.0
 11
2.8000000000000109
 21
64.27696776878804
 31
0.0
  0
LINE
  5
100
  8
1
 62
     7
 10
5.200000000000002
 20
64.27696776878804
 30
0.0
 11
5.200000000000002
 21
39.25
 31
0.0
  0
LINE
  5
101
  8
1
 62
     7
 10
22.0
 20
42.5
 30
0.0
 11
54.700000000000003
 21
42.5
 31
0.0
  0
LINE
  5
102
  8
1
 62
     7
 10
0.0
 20
15.5
 30
0.0
 11
55.0
 21
15.5
 31
0.0
  0
LINE
  5
103
  8
1
 62
     7
 10
0.0
 20
12.5
 30
0.0
 11
55.0
 21
12.5
 31
0.0
  0
LINE
  5
104
  8
1
 62
     7
 10
0.0
 20
-12.5
 30
0.0
 11
55.0
 21
-12.5
 31
0.0
  0
LINE
  5
105
  8
1
 62
     7
 10
56.499999999999993
 20
-17.0
 30
0.0
 11
62.700000000000003
 21
-17.0
 31
0.0
  0
LINE
  5
106
  8
1
 62
     7
 10
56.499999999999993
 20
17.0
 30
0.0
 11
62.700000000000003
 21
17.0
 31
0.0
  0
LINE
  5
107
  8
1
 62
     3
 10
62.700000000000003
 20
31.5
 30
0.0
 11
73.499999999999986
 21
31.5
 31
0.0
  0
LINE
  5
108
  8
1
 62
     7
 10
62.700000000000003
 20
31.0
 30
0.0
 11
73.499999999999986
 21
31.0
 31
0.0
  0
LINE
  5
109
  8
1
 62
     7
 10
62.700000000000003
 20
27.0
 30
0.0
 11
73.499999999999986
 21
27.0
 31
0.0
  0
LINE
  5
10A
  8
1
 62
     3
 10
62.700000000000003
 20
26.5
 30
0.0
 11
73.499999999999986
 21
26.5
 31
0.0
  0
LINE
  5
10B
  8
1
 62
     7
 10
62.700000000000003
 20
39.300000000000011
 30
0.0
 11
62.700000000000003
 21
-39.299999999999891
 31
0.0
  0
LINE
  5
10C
  8
1
 62
     7
 10
53.399999999999991
 20
28.5
 30
0.0
 11
55.0
 21
28.5
 31
0.0
  0
LINE
  5
10D
  8
1
 62
     7
 10
55.0
 20
28.5
 30
0.0
 11
55.0
 21
31.0
 31
0.0
  0
LINE
  5
10E
  8
1
 62
     7
 10
53.399999999999991
 20
28.5
 30
0.0
 11
53.399999999999991
 21
21.499999999999989
 31
0.0
  0
LINE
  5
10F
  8
1
 62
     7
 10
53.399999999999991
 20
21.499999999999989
 30
0.0
 11
55.0
 21
21.499999999999989
 31
0.0
  0
LINE
  5
110
  8
1
 62
     7
 10
56.499999999999993
 20
28.0
 30
0.0
 11
56.499999999999993
 21
39.5
 31
0.0
  0
LINE
  5
111
  8
1
 62
     7
 10
55.200000000000003
 20
28.0
 30
0.0
 11
61.649999999999999
 21
28.0
 31
0.0
  0
LINE
  5
112
  8
1
 62
     7
 10
61.649999999999999
 20
28.0
 30
0.0
 11
61.649999999999999
 21
22.0
 31
0.0
  0
LINE
  5
113
  8
1
 62
     7
 10
61.649999999999999
 20
22.0
 30
0.0
 11
55.200000000000003
 21
22.0
 31
0.0
  0
LINE
  5
114
  8
1
 62
     7
 10
55.200000000000003
 20
22.0
 30
0.0
 11
55.200000000000003
 21
28.0
 31
0.0
  0
LINE
  5
115
  8
1
  6
DASHDOT
 62
     3
 10
58.424999999999997
 20
29.094983457763981
 30
0.0
 11
58.424999999999997
 21
21.058577633633991
 31
0.0
  0
LINE
  5
116
  8
1
  6
DASHDOT
 62
     3
 10
164.4997467489975
 20
32.13413811931099
 30
0.0
 11
164.4997467489975
 21
25.66079284951303
 31
0.0
  0
LINE
  5
117
  8
1
  6
DASHDOT
 62
     3
 10
132.36560862968659
 20
0.0
 30
0.0
 11
138.83895389948461
 21
0.0
 31
0.0
  0
LINE
  5
118
  8
1
  6
DASHDOT
 62
     3
 10
164.4997467489975
 20
-32.13413811931099
 30
0.0
 11
164.4997467489975
 21
-25.660792849512969
 31
0.0
  0
LINE
  5
119
  8
1
  6
DASHDOT
 62
     3
 10
196.6338848683084
 20
-0.0000000000001137
 30
0.0
 11
190.1605395985105
 21
-0.0000000000001137
 31
0.0
  0
LINE
  5
11A
  8
1
 62
     7
 10
-119.0080928003706
 20
68.175149674401041
 30
0.0
 11
-118.9975190138681
 21
64.27696776878804
 31
0.0
  0
LINE
  5
11B
  8
1
 62
     7
 10
-118.7940821279344
 20
68.175149674401041
 30
0.0
 11
-118.7940821279344
 21
64.27696776878804
 31
0.0
  0
LINE
  5
11C
  8
1
 62
     7
 10
-118.5168556015697
 20
68.175149674401041
 30
0.0
 11
-118.49570802856491
 21
64.27696776878804
 31
0.0
  0
LINE
  5
11D
  8
1
 62
     7
 10
-118.3088222742532
 20
68.175149674401041
 30
0.0
 11
-118.31939606075549
 21
64.27696776878804
 31
0.0
  0
LINE
  5
11E
  8
1
 62
     7
 10
-118.0
 20
68.175149674401041
 30
0.0
 11
-118.0
 21
64.27696776878804
 31
0.0
  0
LINE
  5
11F
  8
1
 62
     7
 10
-117.7405798973756
 20
68.175149674401041
 30
0.0
 11
-117.80402261639
 21
64.27696776878804
 31
0.0
  0
LINE
  5
120
  8
1
 62
     7
 10
-117.4585300645422
 20
68.175149674401041
 30
0.0
 11
-117.6277106485809
 21
64.27696776878804
 31
0.0
  0
LINE
  5
121
  8
1
 62
     7
 10
-117.24612716092891
 20
68.175149674401041
 30
0.0
 11
-117.3835863854604
 21
64.27696776878804
 31
0.0
  0
LINE
  5
122
  8
1
 62
     7
 10
-117.0111957805739
 20
68.175149674401041
 30
0.0
 11
-117.08521228609069
 21
64.27696776878804
 31
0.0
  0
LINE
  5
123
  8
1
 62
     7
 10
2.991907199629408
 20
68.175149674401041
 30
0.0
 11
3.0024809861317858
 21
64.27696776878804
 31
0.0
  0
LINE
  5
124
  8
1
 62
     7
 10
3.2059178720655979
 20
68.175149674401041
 30
0.0
 11
3.2059178720655979
 21
64.27696776878804
 31
0.0
  0
LINE
  5
125
  8
1
 62
     7
 10
3.4831443984302681
 20
68.175149674401041
 30
0.0
 11
3.5042919714350931
 21
64.27696776878804
 31
0.0
  0
LINE
  5
126
  8
1
 62
     7
 10
3.6911777257467819
 20
68.175149674401041
 30
0.0
 11
3.6806039392444059
 21
64.27696776878804
 31
0.0
  0
LINE
  5
127
  8
1
 62
     7
 10
4.0
 20
68.175149674401041
 30
0.0
 11
4.0
 21
64.27696776878804
 31
0.0
  0
LINE
  5
128
  8
1
 62
     7
 10
4.2594201026243876
 20
68.175149674401041
 30
0.0
 11
4.1959773836098861
 21
64.27696776878804
 31
0.0
  0
LINE
  5
129
  8
1
 62
     7
 10
4.541469935457755
 20
68.175149674401041
 30
0.0
 11
4.3722893514190977
 21
64.27696776878804
 31
0.0
  0
LINE
  5
12A
  8
1
 62
     7
 10
4.7538728390710494
 20
68.175149674401041
 30
0.0
 11
4.6164136145395958
 21
64.27696776878804
 31
0.0
  0
LINE
  5
12B
  8
1
 62
     7
 10
4.9888042194260711
 20
68.175149674401041
 30
0.0
 11
4.9147877139091909
 21
64.27696776878804
 31
0.0
  0
ARC
  5
12C
  8
1
 62
     7
 10
-214.4907349987831
 20
0.0
 30
0.0
 40
42.499999999999993
 50
108.9914694538237
 51
0.0
  0
ARC
  5
12D
  8
1
 62
     7
 10
-214.4907349987831
 20
0.0
 30
0.0
 40
42.5
 50
0.0
 51
71.008530546176232
  0
ARC
  5
12E
  8
1
 62
     7
 10
158.49974674899741
 20
62.0
 30
0.0
 40
2.0
 50
90.0
 51
180.0
  0
ARC
  5
12F
  8
1
 62
     7
 10
170.4997467489975
 20
62.0
 30
0.0
 40
2.0
 50
0.0
 51
90.0
  0
ARC
  5
130
  8
1
 62
     7
 10
174.4997467489963
 20
45.154700538380098
 30
0.0
 40
2.0000000000000382
 50
236.20139406872559
 51
240.00000000004391
  0
ARC
  5
131
  8
1
 62
     7
 10
154.49974674899741
 20
45.154700538379288
 30
0.0
 40
2.0000000000000662
 50
300.00000000000261
 51
303.7986059313177
  0
ARC
  5
132
  8
1
 62
     7
 10
-226.49073499878321
 20
32.0
 30
0.0
 40
2.0
 50
180.0
 51
270.0
  0
ARC
  5
133
  8
1
 62
     7
 10
-202.4907349987831
 20
32.0
 30
0.0
 40
2.0
 50
270.0
 51
0.0
  0
ARC
  5
134
  8
1
 62
     7
 10
-220.49073499878321
 20
62.0
 30
0.0
 40
2.0
 50
90.0
 51
180.0
  0
ARC
  5
135
  8
1
 62
     7
 10
-208.4907349987831
 20
62.0
 30
0.0
 40
2.0
 50
0.0
 51
90.0
  0
ARC
  5
136
  8
1
 62
     7
 10
152.49974664936801
 20
39.381865406374523
 30
0.0
 40
1.9999999999999729
 50
120.1689283059456
 51
156.27750090718669
  0
ARC
  5
137
  8
1
 62
     7
 10
176.49974684862701
 20
39.381865406374523
 30
0.0
 40
2.0000000000000182
 50
23.722499092813852
 51
59.831071694048653
  0
ARC
  5
138
  8
1
 62
     7
 10
154.4997467489975
 20
45.155182996983392
 30
0.0
 40
1.9999999999999181
 50
302.13777380166079
 51
0.0
  0
ARC
  5
139
  8
1
 62
     7
 10
174.49974674899761
 20
45.155182996983392
 30
0.0
 40
1.9999999999999361
 50
185.2807917193586
 51
237.86222619833569
  0
ARC
  5
13A
  8
1
 62
     7
 10
-214.4907349987831
 20
0.0
 30
0.0
 40
31.0
 50
180.0
 51
75.407449397966474
  0
ARC
  5
13B
  8
1
 62
     7
 10
-214.4907349987831
 20
0.0
 30
0.0
 40
30.999999999999989
 50
104.5925506020334
 51
180.0
  0
ARC
  5
13C
  8
1
 62
     7
 10
-214.4907349987831
 20
0.0
 30
0.0
 40
39.249999999999993
 50
110.8969272683437
 51
180.0
  0
ARC
  5
13D
  8
1
 62
     7
 10
-214.4907349987831
 20
0.0
 30
0.0
 40
39.25
 50
180.0
 51
69.103072731656212
  0
ARC
  5
13E
  8
1
 62
     7
 10
-220.29073499878311
 20
37.199999999999982
 30
0.0
 40
1.8700000000000041
 50
180.0
 51
270.0
  0
ARC
  5
13F
  8
1
 62
     7
 10
-220.29073499878311
 20
32.800000000000011
 30
0.0
 40
1.870000000000011
 50
90.0
 51
180.0
  0
ARC
  5
140
  8
1
 62
     7
 10
-224.6907349987832
 20
32.800000000000011
 30
0.0
 40
1.8700000000000041
 50
0.0
 51
90.0
  0
ARC
  5
141
  8
1
 62
     7
 10
-224.6907349987832
 20
37.199999999999982
 30
0.0
 40
1.870000000000011
 50
270.0
 51
0.0
  0
ARC
  5
142
  8
1
 62
     7
 10
-204.29073499878319
 20
37.199999999999982
 30
0.0
 40
1.8700000000000041
 50
180.0
 51
270.0
  0
ARC
  5
143
  8
1
 62
     7
 10
-204.29073499878319
 20
32.800000000000011
 30
0.0
 40
1.870000000000011
 50
90.0
 51
180.0
  0
ARC
  5
144
  8
1
 62
     7
 10
-208.6907349987832
 20
32.800000000000011
 30
0.0
 40
1.8700000000000041
 50
0.0
 51
90.0
  0
ARC
  5
145
  8
1
 62
     7
 10
-208.6907349987832
 20
37.199999999999982
 30
0.0
 40
1.870000000000011
 50
270.0
 51
0.0
  0
ARC
  5
146
  8
1
 62
     7
 10
164.4997467489975
 20
0.0
 30
0.0
 40
12.5
 50
106.260204708312
 51
73.739795291688054
  0
ARC
  5
147
  8
1
 62
     7
 10
-214.4907349987831
 20
0.0
 30
0.0
 40
12.5
 50
106.260204708312
 51
73.739795291688054
  0
ARC
  5
148
  8
1
  6
DASHDOT
 62
     3
 10
164.4997467489975
 20
0.0
 30
0.0
 40
29.000000000000071
 50
83.742396787753918
 51
96.233391682524001
  0
ARC
  5
149
  8
1
  6
DASHDOT
 62
     3
 10
164.4997467489975
 20
0.0
 30
0.0
 40
29.000000000000099
 50
173.7423967877539
 51
186.23339168252389
  0
ARC
  5
14A
  8
1
  6
DASHDOT
 62
     3
 10
164.4997467489975
 20
0.0
 30
0.0
 40
29.000000000000071
 50
263.74239678775388
 51
276.23339168252392
  0
ARC
  5
14B
  8
1
  6
DASHDOT
 62
     3
 10
164.4997467489975
 20
0.0
 30
0.0
 40
28.999999999999979
 50
353.74239678775388
 51
6.2333916825240721
  0
CIRCLE
  5
14C
  8
1
 62
     7
 10
164.4997467489975
 20
58.0
 30
0.0
 40
2.75
  0
CIRCLE
  5
14D
  8
1
 62
     7
 10
-222.49073499878321
 20
35.0
 30
0.0
 40
4.0
  0
CIRCLE
  5
14E
  8
1
 62
     7
 10
-206.4907349987831
 20
35.0
 30
0.0
 40
4.0
  0
CIRCLE
  5
14F
  8
1
 62
     7
 10
-214.4907349987831
 20
0.0
 30
0.0
 40
17.5
  0
CIRCLE
  5
150
  8
1
 62
     7
 10
164.4997467489975
 20
0.0
 30
0.0
 40
22.5
  0
CIRCLE
  5
151
  8
1
 62
     7
 10
164.4997467489975
 20
0.0
 30
0.0
 40
17.0
  0
CIRCLE
  5
152
  8
1
 62
     7
 10
164.4997467489975
 20
0.0
 30
0.0
 40
42.5
  0
CIRCLE
  5
153
  8
1
 62
     7
 10
164.4997467489975
 20
0.0
 30
0.0
 40
38.699999999999989
  0
CIRCLE
  5
154
  8
1
 62
     7
 10
164.4997467489975
 20
0.0
 30
0.0
 40
36.299999999999969
  0
CIRCLE
  5
155
  8
1
 62
     7
 10
185.00584340340751
 20
20.50609665440993
 30
0.0
 40
5.0
  0
CIRCLE
  5
156
  8
1
 62
     7
 10
185.00584340340751
 20
20.50609665440993
 30
0.0
 40
4.5
  0
CIRCLE
  5
157
  8
1
 62
     7
 10
143.99365009458759
 20
20.50609665440993
 30
0.0
 40
4.5
  0
CIRCLE
  5
158
  8
1
 62
     7
 10
143.99365009458759
 20
20.50609665440993
 30
0.0
 40
5.0
  0
CIRCLE
  5
159
  8
1
 62
     7
 10
143.99365009458759
 20
-20.506096654409859
 30
0.0
 40
4.5
  0
CIRCLE
  5
15A
  8
1
 62
     7
 10
143.99365009458759
 20
-20.506096654409859
 30
0.0
 40
5.0
  0
CIRCLE
  5
15B
  8
1
 62
     7
 10
185.00584340340751
 20
-20.506096654409859
 30
0.0
 40
5.0
  0
CIRCLE
  5
15C
  8
1
 62
     7
 10
185.00584340340751
 20
-20.506096654409859
 30
0.0
 40
4.5
  0
CIRCLE
  5
15D
  8
1
 62
     7
 10
11.07499999999999
 20
-24.24999999999989
 30
0.0
 40
4.0500000000000087
  0
CIRCLE
  5
15E
  8
1
 62
     7
 10
11.07499999999999
 20
24.25
 30
0.0
 40
4.0500000000000087
  0
CIRCLE
  5
15F
  8
1
 62
     7
 10
-214.4907349987831
 20
58.0
 30
0.0
 40
2.75
  0
CIRCLE
  5
160
  8
1
 62
     3
 10
164.4997467489975
 20
29.00000000000011
 30
0.0
 40
2.5
  0
CIRCLE
  5
161
  8
1
 62
     7
 10
164.4997467489975
 20
29.00000000000011
 30
0.0
 40
2.0
  0
CIRCLE
  5
162
  8
1
 62
     3
 10
135.49974674899741
 20
0.0
 30
0.0
 40
2.5
  0
CIRCLE
  5
163
  8
1
 62
     7
 10
135.49974674899741
 20
0.0
 30
0.0
 40
2.0
  0
CIRCLE
  5
164
  8
1
 62
     3
 10
164.4997467489975
 20
-29.00000000000011
 30
0.0
 40
2.5
  0
CIRCLE
  5
165
  8
1
 62
     7
 10
164.4997467489975
 20
-29.00000000000011
 30
0.0
 40
2.0
  0
CIRCLE
  5
166
  8
1
 62
     3
 10
193.49974674899761
 20
-0.0000000000001137
 30
0.0
 40
2.5
  0
CIRCLE
  5
167
  8
1
 62
     7
 10
193.49974674899761
 20
-0.0000000000001137
 30
0.0
 40
2.0
  0
ARC
  5
168
  8
1
 62
     7
 10
-226.49073499878321
 20
39.381197846483062
 30
0.0
 40
2.0000000000000271
 50
120.0000000000023
 51
180.0
  0
ARC
  5
169
  8
1
 62
     7
 10
-202.4907349987831
 20
39.381197846483062
 30
0.0
 40
2.0
 50
0.0
 51
59.99999999999978
  0
ARC
  5
16A
  8
1
 62
     7
 10
-224.49073499878321
 20
45.154700538379288
 30
0.0
 40
1.999999999999966
 50
299.99999999999761
 51
0.0
  0
ARC
  5
16B
  8
1
 62
     7
 10
-204.4907349987831
 20
45.154700538379288
 30
0.0
 40
2.0
 50
180.0
 51
240.0000000000002
  0
TEXT
  5
16D
  8
1
 62
     7
 10
-227.85302978255251
 20
118.7301516189839
 30
0.0
 40
5.0
  1
MZS 5
 41
0.9
  7
SIMPLEX
  0
ENDSEC
  0
EOF
