  0
SECTION
  2
HEADER
  9
$ACADVER
  1
AC1009
  9
$INSBASE
 10
0.0
 20
0.0
 30
0.0
  9
$EXTMIN
 10
166.61282054852541
 20
-216.8716350278315
 30
0.0
  9
$EXTMAX
 10
378.83978460927199
 20
-125.679064859405
 30
0.0
  9
$LIMMIN
 10
166.24853483423971
 20
-216.8716350278315
  9
$LIMMAX
 10
378.83978460927199
 20
-125.679064859405
  9
$ORTHOMODE
 70
     0
  9
$REGENMODE
 70
     1
  9
$FILLMODE
 70
     1
  9
$QTEXTMODE
 70
     0
  9
$MIRRTEXT
 70
     1
  9
$DRAGMODE
 70
     2
  9
$LTSCALE
 40
1.0
  9
$OSMODE
 70
    37
  9
$ATTMODE
 70
     1
  9
$TEXTSIZE
 40
3.5
  9
$TRACEWID
 40
0.5
  9
$TEXTSTYLE
  7
STANDARD
  9
$CLAYER
  8
0
  9
$CELTYPE
  6
BYLAYER
  9
$CECOLOR
 62
   256
  9
$DIMSCALE
 40
1.0
  9
$DIMASZ
 40
0.18
  9
$DIMEXO
 40
0.0625
  9
$DIMDLI
 40
0.38
  9
$DIMRND
 40
0.0
  9
$DIMDLE
 40
0.0
  9
$DIMEXE
 40
0.18
  9
$DIMTP
 40
0.0
  9
$DIMTM
 40
0.0
  9
$DIMTXT
 40
0.18
  9
$DIMCEN
 40
0.09
  9
$DIMTSZ
 40
0.0
  9
$DIMTOL
 70
     0
  9
$DIMLIM
 70
     0
  9
$DIMTIH
 70
     1
  9
$DIMTOH
 70
     1
  9
$DIMSE1
 70
     0
  9
$DIMSE2
 70
     0
  9
$DIMTAD
 70
     0
  9
$DIMZIN
 70
     0
  9
$DIMBLK
  1

  9
$DIMASO
 70
     1
  9
$DIMSHO
 70
     1
  9
$DIMPOST
  1

  9
$DIMAPOST
  1

  9
$DIMALT
 70
     0
  9
$DIMALTD
 70
     2
  9
$DIMALTF
 40
25.399999999999999
  9
$DIMLFAC
 40
1.0
  9
$DIMTOFL
 70
     0
  9
$DIMTVP
 40
0.0
  9
$DIMTIX
 70
     0
  9
$DIMSOXD
 70
     0
  9
$DIMSAH
 70
     0
  9
$DIMBLK1
  1

  9
$DIMBLK2
  1

  9
$DIMSTYLE
  2
STANDARD
  9
$DIMCLRD
 70
     0
  9
$DIMCLRE
 70
     0
  9
$DIMCLRT
 70
     0
  9
$DIMTFAC
 40
1.0
  9
$DIMGAP
 40
0.09
  9
$LUNITS
 70
     2
  9
$LUPREC
 70
     4
  9
$SKETCHINC
 40
0.1
  9
$FILLETRAD
 40
2.0
  9
$AUNITS
 70
     0
  9
$AUPREC
 70
     0
  9
$MENU
  1
ACAD
  9
$ELEVATION
 40
0.0
  9
$PELEVATION
 40
0.0
  9
$THICKNESS
 40
0.0
  9
$LIMCHECK
 70
     0
  9
$BLIPMODE
 70
     0
  9
$CHAMFERA
 40
0.0
  9
$CHAMFERB
 40
0.0
  9
$SKPOLY
 70
     0
  9
$TDCREATE
 40
2452094.9523273152
  9
$TDUPDATE
 40
2452094.9528504629
  9
$TDINDWG
 40
0.0005353009
  9
$TDUSRTIMER
 40
0.0005353009
  9
$USRTIMER
 70
     1
  9
$ANGBASE
 50
0.0
  9
$ANGDIR
 70
     0
  9
$PDMODE
 70
     0
  9
$PDSIZE
 40
0.0
  9
$PLINEWID
 40
0.0
  9
$COORDS
 70
     1
  9
$SPLFRAME
 70
     0
  9
$SPLINETYPE
 70
     6
  9
$SPLINESEGS
 70
     8
  9
$ATTDIA
 70
     0
  9
$ATTREQ
 70
     1
  9
$HANDLING
 70
 10241
  9
$HANDSEED
  5
136
  9
$SURFTAB1
 70
     6
  9
$SURFTAB2
 70
     6
  9
$SURFTYPE
 70
     6
  9
$SURFU
 70
     6
  9
$SURFV
 70
     6
  9
$UCSNAME
  2

  9
$UCSORG
 10
0.0
 20
0.0
 30
0.0
  9
$UCSXDIR
 10
1.0
 20
0.0
 30
0.0
  9
$UCSYDIR
 10
0.0
 20
1.0
 30
0.0
  9
$PUCSNAME
  2

  9
$PUCSORG
 10
0.0
 20
0.0
 30
0.0
  9
$PUCSXDIR
 10
1.0
 20
0.0
 30
0.0
  9
$PUCSYDIR
 10
0.0
 20
1.0
 30
0.0
  9
$USERI1
 70
     0
  9
$USERI2
 70
     0
  9
$USERI3
 70
     0
  9
$USERI4
 70
     0
  9
$USERI5
 70
     0
  9
$USERR1
 40
0.0
  9
$USERR2
 40
0.0
  9
$USERR3
 40
0.0
  9
$USERR4
 40
0.0
  9
$USERR5
 40
0.0
  9
$WORLDVIEW
 70
     1
  9
$SHADEDGE
 70
     3
  9
$SHADEDIF
 70
    70
  9
$TILEMODE
 70
     1
  9
$MAXACTVP
 70
    64
  9
$PLIMCHECK
 70
     0
  9
$PEXTMIN
 10
1.0000000000000000E+020
 20
1.0000000000000000E+020
 30
1.0000000000000000E+020
  9
$PEXTMAX
 10
-1.0000000000000000E+020
 20
-1.0000000000000000E+020
 30
-1.0000000000000000E+020
  9
$PLIMMIN
 10
0.0
 20
0.0
  9
$PLIMMAX
 10
12.0
 20
9.0
  9
$UNITMODE
 70
     0
  9
$VISRETAIN
 70
     1
  9
$PLINEGEN
 70
     0
  9
$PSLTSCALE
 70
     1
  0
ENDSEC
  0
SECTION
  2
TABLES
  0
TABLE
  2
VPORT
 70
     2
  0
VPORT
  2
*ACTIVE
 70
     0
 10
0.0
 20
0.0
 11
1.0
 21
1.0
 12
177.23489580120139
 22
-129.93691272549859
 13
0.0
 23
0.0
 14
1.0
 24
1.0
 15
0.0
 25
0.0
 16
0.0
 26
0.0
 36
1.0
 17
0.0
 27
0.0
 37
0.0
 40
8.9999998277205577
 41
2.4144144144144142
 42
50.0
 43
0.0
 44
0.0
 50
0.0
 51
0.0
 71
     0
 72
   100
 73
     1
 74
     1
 75
     0
 76
     0
 77
     0
 78
     0
  0
ENDTAB
  0
TABLE
  2
LTYPE
 70
     9
  0
LTYPE
  2
CONTINUOUS
 70
     0
  3
Solid line
 72
    65
 73
     0
 40
0.0
  0
LTYPE
  2
BORDER
 70
     0
  3
__ __ . __ __ .
 72
    65
 73
     6
 40
9.7903865027975385
 49
2.7972532865135831
 49
-1.39862664325679
 49
2.7972532865135831
 49
-1.39862664325679
 49
0.0
 49
-1.39862664325679
  0
LTYPE
  2
CENTER
 70
     0
  3
____ _ ____ _
 72
    65
 73
     4
 40
11.189013146054331
 49
6.9931332162839546
 49
-1.39862664325679
 49
1.39862664325679
 49
-1.39862664325679
  0
LTYPE
  2
DASHDOT
 70
     0
  3
__ . __ . __ .
 72
    65
 73
     4
 40
5.5945065730271653
 49
2.7972532865135831
 49
-1.39862664325679
 49
0.0
 49
-1.39862664325679
  0
LTYPE
  2
DASHED
 70
     0
  3
__ __ __ __ __
 72
    65
 73
     2
 40
4.1958799297703733
 49
2.7972532865135831
 49
-1.39862664325679
  0
LTYPE
  2
DIVIDE
 70
     0
  3
__ . . __ . . 
 72
    65
 73
     6
 40
6.9931332162839546
 49
2.7972532865135831
 49
-1.39862664325679
 49
0.0
 49
-1.39862664325679
 49
0.0
 49
-1.39862664325679
  0
LTYPE
  2
DOT
 70
     0
  3
..............
 72
    65
 73
     4
 40
2.7972532865135831
 49
0.0
 49
-1.39862664325679
 49
0.0
 49
-1.39862664325679
  0
LTYPE
  2
HIDDEN
 70
     0
  3
_ _ _ _ _ _ _
 72
    65
 73
     2
 40
2.0979399648851862
 49
1.39862664325679
 49
-0.6993133216283957
  0
LTYPE
  2
PHANTOM
 70
     0
  3
_____ _ _ _____ _ _ 
 72
    65
 73
     6
 40
13.986266432567909
 49
6.9931332162839546
 49
-1.39862664325679
 49
1.39862664325679
 49
-1.39862664325679
 49
1.39862664325679
 49
-1.39862664325679
  0
ENDTAB
  0
TABLE
  2
LAYER
 70
     2
  0
LAYER
  2
0
 70
     0
 62
     7
  6
CONTINUOUS
  0
LAYER
  2
1
 70
     0
 62
     7
  6
CONTINUOUS
  0
ENDTAB
  0
TABLE
  2
STYLE
 70
     4
  0
STYLE
  2
STANDARD
 70
     0
 40
0.0
 41
1.0
 50
0.0
 71
     0
 42
3.5
  3
txt
  4

  0
STYLE
  2
SIMPLEX
 70
     0
 40
0.0
 41
1.0
 50
0.0
 71
     0
 42
3.5
  3
simplex
  4

  0
STYLE
  2
COMPLEX
 70
     0
 40
0.0
 41
1.0
 50
0.0
 71
     0
 42
3.5
  3
complex
  4

  0
STYLE
  2
ITALIC
 70
     0
 40
0.0
 41
1.0
 50
0.0
 71
     0
 42
3.5
  3
italic
  4

  0
ENDTAB
  0
TABLE
  2
VIEW
 70
     0
  0
ENDTAB
  0
TABLE
  2
UCS
 70
     0
  0
ENDTAB
  0
TABLE
  2
APPID
 70
     1
  0
APPID
  2
ACAD
 70
     0
  0
ENDTAB
  0
TABLE
  2
DIMSTYLE
 70
     1
  0
DIMSTYLE
  2
STANDARD
 70
     0
  3

  4

  5

  6

  7

 40
1.0
 41
0.18
 42
0.0625
 43
0.38
 44
0.18
 45
0.0
 46
0.0
 47
0.0
 48
0.0
140
0.18
141
0.09
142
0.0
143
25.399999999999999
144
1.0
145
0.0
146
1.0
147
0.09
 71
     0
 72
     0
 73
     1
 74
     1
 75
     0
 76
     0
 77
     0
 78
     0
170
     0
171
     2
172
     0
173
     0
174
     0
175
     0
176
     0
177
     0
178
     0
  0
ENDTAB
  0
ENDSEC
  0
SECTION
  2
BLOCKS
  0
BLOCK
  8
0
  2
$MODEL_SPACE
 70
     0
 10
0.0
 20
0.0
 30
0.0
  3
$MODEL_SPACE
  1

  0
ENDBLK
  5
20
  8
0
  0
BLOCK
 67
     1
  8
0
  2
$PAPER_SPACE
 70
     0
 10
0.0
 20
0.0
 30
0.0
  3
$PAPER_SPACE
  1

  0
ENDBLK
  5
1C
 67
     1
  8
0
  0
ENDSEC
  0
SECTION
  2
ENTITIES
  0
LINE
  5
33
  8
1
 62
     7
 10
345.4519225634308
 20
-178.37163502783159
 30
0.0
 11
354.22764665511312
 21
-178.37163502783159
 31
0.0
  0
LINE
  5
34
  8
1
 62
     7
 10
274.46555375658602
 20
-195.65143092494489
 30
0.0
 11
274.46555375658602
 21
-216.8716350278315
 31
0.0
  0
LINE
  5
35
  8
1
 62
     7
 10
253.96555375658599
 20
-196.27163502783159
 30
0.0
 11
253.96555375658599
 21
-179.47163502783161
 31
0.0
  0
LINE
  5
36
  8
1
 62
     7
 10
253.96555375658599
 20
-179.87163502783159
 30
0.0
 11
251.96555375658599
 21
-179.87163502783159
 31
0.0
  0
LINE
  5
37
  8
1
 62
     7
 10
253.96555375658599
 20
-195.87163502783159
 30
0.0
 11
251.96555375658599
 21
-195.87163502783159
 31
0.0
  0
LINE
  5
38
  8
1
 62
     7
 10
254.9655537565859
 20
-196.27163502783159
 30
0.0
 11
253.96555375658599
 21
-196.27163502783159
 31
0.0
  0
LINE
  5
39
  8
1
 62
     7
 10
254.9655537565859
 20
-179.47163502783161
 30
0.0
 11
253.96555375658599
 21
-179.47163502783161
 31
0.0
  0
LINE
  5
3A
  8
1
 62
     7
 10
283.96555375658602
 20
-197.37163502783159
 30
0.0
 11
283.96555375658602
 21
-216.8716350278315
 31
0.0
  0
LINE
  5
3B
  8
1
 62
     7
 10
278.16555375658601
 20
-178.37163502783159
 30
0.0
 11
278.16555375658601
 21
-170.8716350278315
 31
0.0
  0
LINE
  5
3C
  8
1
 62
     7
 10
281.76555375658597
 20
-178.37163502783159
 30
0.0
 11
281.76555375658597
 21
-163.3716350278315
 31
0.0
  0
LINE
  5
3D
  8
1
 62
     7
 10
286.46555375658602
 20
-184.87163502783159
 30
0.0
 11
277.96555375658602
 21
-184.87163502783159
 31
0.0
  0
LINE
  5
3E
  8
1
 62
     7
 10
286.46555375658602
 20
-192.87163502783159
 30
0.0
 11
277.96555375658602
 21
-192.87163502783159
 31
0.0
  0
LINE
  5
3F
  8
1
 62
     7
 10
286.46555375658602
 20
-197.37163502783159
 30
0.0
 11
277.96555375658602
 21
-197.37163502783159
 31
0.0
  0
LINE
  5
40
  8
1
 62
     7
 10
286.46555375658602
 20
-178.37163502783159
 30
0.0
 11
277.96555375658602
 21
-178.37163502783159
 31
0.0
  0
LINE
  5
41
  8
1
 62
     7
 10
277.96555375658602
 20
-197.37163502783159
 30
0.0
 11
277.96555375658602
 21
-178.37163502783159
 31
0.0
  0
LINE
  5
42
  8
1
 62
     7
 10
286.46555375658602
 20
-178.37163502783159
 30
0.0
 11
286.46555375658602
 21
-197.37163502783159
 31
0.0
  0
LINE
  5
43
  8
1
 62
     7
 10
281.16555375658601
 20
-170.8716350278315
 30
0.0
 11
281.16555375658601
 21
-178.37163502783159
 31
0.0
  0
LINE
  5
44
  8
1
 62
     7
 10
281.16555375658601
 20
-166.3716350278315
 30
0.0
 11
281.16555375658601
 21
-166.8716350278315
 31
0.0
  0
LINE
  5
45
  8
1
 62
     7
 10
278.16555375658601
 20
-166.3716350278315
 30
0.0
 11
278.16555375658601
 21
-166.8716350278315
 31
0.0
  0
LINE
  5
46
  8
1
 62
     7
 10
278.865553756586
 20
-166.8716350278315
 30
0.0
 11
278.865553756586
 21
-170.8716350278315
 31
0.0
  0
LINE
  5
47
  8
1
 62
     7
 10
280.46555375658602
 20
-166.8716350278315
 30
0.0
 11
280.46555375658602
 21
-170.8716350278315
 31
0.0
  0
LINE
  5
48
  8
1
 62
     7
 10
280.46555375658602
 20
-170.8716350278315
 30
0.0
 11
281.76555375658592
 21
-170.8716350278315
 31
0.0
  0
LINE
  5
49
  8
1
 62
     7
 10
278.865553756586
 20
-170.8716350278315
 30
0.0
 11
277.56555375658593
 21
-170.8716350278315
 31
0.0
  0
LINE
  5
4A
  8
1
 62
     7
 10
278.865553756586
 20
-166.8716350278315
 30
0.0
 11
277.56555375658593
 21
-166.8716350278315
 31
0.0
  0
LINE
  5
4B
  8
1
 62
     7
 10
281.76555375658597
 20
-166.8716350278315
 30
0.0
 11
280.46555375658602
 21
-166.8716350278315
 31
0.0
  0
LINE
  5
4C
  8
1
 62
     7
 10
345.83978460927199
 20
-184.87163502783159
 30
0.0
 11
353.83978460927199
 21
-184.87163502783159
 31
0.0
  0
LINE
  5
4D
  8
1
 62
     7
 10
373.7407395642901
 20
-201.97396669632511
 30
0.0
 11
374.00323956429008
 21
-201.51930335933829
 31
0.0
  0
LINE
  5
4E
  8
1
 62
     7
 10
371.25411343917381
 20
-202.25592948445441
 30
0.0
 11
371.70877677616068
 21
-202.51842948445449
 31
0.0
  0
LINE
  5
4F
  8
1
 62
     7
 10
370.97215065104461
 20
-199.76930335933821
 30
0.0
 11
370.70965065104463
 21
-200.22396669632511
 31
0.0
  0
LINE
  5
50
  8
1
 62
     7
 10
373.45877677616068
 20
-199.4873405712089
 30
0.0
 11
373.00411343917381
 21
-199.22484057120889
 31
0.0
  0
LINE
  5
51
  8
1
 62
     7
 10
325.67632965425372
 20
-201.5193033593381
 30
0.0
 11
325.93882965425382
 21
-201.97396669632491
 31
0.0
  0
LINE
  5
52
  8
1
 62
     7
 10
326.67545577936988
 20
-199.2248405712088
 30
0.0
 11
326.22079244238307
 21
-199.48734057120879
 31
0.0
  0
LINE
  5
53
  8
1
 62
     7
 10
328.96991856749918
 20
-200.22396669632491
 30
0.0
 11
328.70741856749942
 21
-199.7693033593381
 31
0.0
  0
LINE
  5
54
  8
1
 62
     7
 10
327.97079244238307
 20
-202.5184294844544
 30
0.0
 11
328.42545577936988
 21
-202.25592948445441
 31
0.0
  0
LINE
  5
55
  8
1
 62
     7
 10
335.33978460927199
 20
-162.7568983180829
 30
0.0
 11
319.64187396311769
 21
-135.56731950626741
 31
0.0
  0
LINE
  5
56
  8
1
 62
     7
 10
277.56555375658593
 20
-159.3716350278315
 30
0.0
 11
277.56555375658593
 21
-158.8716350278315
 31
0.0
  0
LINE
  5
57
  8
1
 62
     7
 10
274.46555375658602
 20
-163.3716350278315
 30
0.0
 11
274.46555375658602
 21
-180.35749218497719
 31
0.0
  0
LINE
  5
58
  8
1
 62
     7
 10
281.76555375658592
 20
-160.3716350278315
 30
0.0
 11
281.76555375658592
 21
-158.8716350278315
 31
0.0
  0
LINE
  5
59
  8
1
 62
     7
 10
274.46555375658602
 20
-164.3716350278315
 30
0.0
 11
281.76555375658592
 21
-164.3716350278315
 31
0.0
  0
LINE
  5
5A
  8
1
 62
     7
 10
281.76555375658592
 20
-159.3716350278315
 30
0.0
 11
274.46555375658602
 21
-159.3716350278315
 31
0.0
  0
LINE
  5
5B
  8
1
 62
     7
 10
274.46555375658602
 20
-163.4716350278315
 30
0.0
 11
283.96555375658602
 21
-163.4716350278315
 31
0.0
  0
LINE
  5
5C
  8
1
 62
     7
 10
283.96555375658602
 20
-160.27163502783151
 30
0.0
 11
274.46555375658602
 21
-160.27163502783151
 31
0.0
  0
LINE
  5
5D
  8
1
 62
     7
 10
277.56555375658593
 20
-164.42163502783151
 30
0.0
 11
274.56555375658598
 21
-164.42163502783151
 31
0.0
  0
LINE
  5
5E
  8
1
 62
     7
 10
281.16555375658601
 20
-166.3716350278315
 30
0.0
 11
278.16555375658601
 21
-166.3716350278315
 31
0.0
  0
LINE
  5
5F
  8
1
 62
     3
 10
282.66555375658589
 20
-163.3716350278315
 30
0.0
 11
282.66555375658589
 21
-160.3716350278315
 31
0.0
  0
LINE
  5
60
  8
1
 62
     3
 10
282.66555375658589
 20
-160.9716350278315
 30
0.0
 11
283.70478424112719
 21
-160.3716350278315
 31
0.0
  0
LINE
  5
61
  8
1
 62
     3
 10
270.66555375658589
 20
-160.9716350278315
 30
0.0
 11
282.66555375658589
 21
-160.9716350278315
 31
0.0
  0
LINE
  5
62
  8
1
 62
     3
 10
282.66555375658589
 20
-162.77163502783159
 30
0.0
 11
283.70478424112719
 21
-163.3716350278315
 31
0.0
  0
LINE
  5
63
  8
1
 62
     3
 10
270.66555375658589
 20
-162.77163502783159
 30
0.0
 11
282.66555375658589
 21
-162.77163502783159
 31
0.0
  0
LINE
  5
64
  8
1
 62
     7
 10
271.26555375658592
 20
-163.3716350278315
 30
0.0
 11
271.26555375658592
 21
-160.3716350278315
 31
0.0
  0
LINE
  5
65
  8
1
 62
     7
 10
271.26555375658592
 20
-160.3716350278315
 30
0.0
 11
284.66555375658589
 21
-160.3716350278315
 31
0.0
  0
LINE
  5
66
  8
1
 62
     7
 10
270.66555375658589
 20
-160.9716350278315
 30
0.0
 11
271.26555375658592
 21
-160.3716350278315
 31
0.0
  0
LINE
  5
67
  8
1
 62
     7
 10
270.66555375658589
 20
-162.77163502783159
 30
0.0
 11
270.66555375658589
 21
-160.9716350278315
 31
0.0
  0
LINE
  5
68
  8
1
 62
     7
 10
271.26555375658592
 20
-163.3716350278315
 30
0.0
 11
270.66555375658589
 21
-162.77163502783159
 31
0.0
  0
LINE
  5
69
  8
1
 62
     7
 10
284.96555375658602
 20
-159.1216350278315
 30
0.0
 11
285.40467389821049
 21
-159.1216350278315
 31
0.0
  0
LINE
  5
6A
  8
1
 62
     7
 10
285.40467389821049
 20
-164.6216350278315
 30
0.0
 11
284.96555375658602
 21
-164.6216350278315
 31
0.0
  0
LINE
  5
6B
  8
1
 62
     7
 10
284.66555375658589
 20
-164.8216350278316
 30
0.0
 11
283.96555375658602
 21
-164.8216350278316
 31
0.0
  0
LINE
  5
6C
  8
1
 62
     7
 10
284.66555375658589
 20
-158.9216350278316
 30
0.0
 11
284.66555375658589
 21
-164.8216350278316
 31
0.0
  0
LINE
  5
6D
  8
1
 62
     7
 10
283.96555375658602
 20
-158.9216350278316
 30
0.0
 11
284.66555375658589
 21
-158.9216350278316
 31
0.0
  0
LINE
  5
6E
  8
1
 62
     7
 10
274.46555375658602
 20
-215.5716350278316
 30
0.0
 11
251.96555375658599
 21
-215.5716350278316
 31
0.0
  0
LINE
  5
6F
  8
1
 62
     7
 10
251.96555375658599
 20
-212.17163502783151
 30
0.0
 11
274.46555375658602
 21
-212.17163502783151
 31
0.0
  0
LINE
  5
70
  8
1
 62
     7
 10
281.71555375658602
 20
-210.87163502783159
 30
0.0
 11
283.96555375658602
 21
-210.87163502783159
 31
0.0
  0
LINE
  5
71
  8
1
 62
     7
 10
277.56555375658593
 20
-210.87163502783159
 30
0.0
 11
274.56555375658598
 21
-210.87163502783159
 31
0.0
  0
LINE
  5
72
  8
1
 62
     7
 10
277.56555375658593
 20
-193.37163502783159
 30
0.0
 11
274.56555375658598
 21
-193.37163502783159
 31
0.0
  0
LINE
  5
73
  8
1
 62
     7
 10
274.56555375658598
 20
-182.37163502783159
 30
0.0
 11
277.56555375658593
 21
-182.37163502783159
 31
0.0
  0
LINE
  5
74
  8
1
 62
     7
 10
350.10228460927181
 20
-160.1216350278315
 30
0.0
 11
349.57728460927189
 21
-160.1216350278315
 31
0.0
  0
LINE
  5
75
  8
1
 62
     7
 10
351.58978460927199
 20
-162.1341350278316
 30
0.0
 11
351.58978460927199
 21
-161.6091350278316
 31
0.0
  0
LINE
  5
76
  8
1
 62
     7
 10
349.57728460927189
 20
-163.6216350278315
 30
0.0
 11
350.10228460927181
 21
-163.6216350278315
 31
0.0
  0
LINE
  5
77
  8
1
 62
     7
 10
348.08978460927199
 20
-161.6091350278316
 30
0.0
 11
348.08978460927199
 21
-162.1341350278316
 31
0.0
  0
LINE
  5
78
  8
1
 62
     7
 10
254.9655537565859
 20
-195.87163502783159
 30
0.0
 11
274.46555375658602
 21
-195.87163502783159
 31
0.0
  0
LINE
  5
79
  8
1
 62
     7
 10
274.46555375658602
 20
-179.87163502783159
 30
0.0
 11
254.9655537565859
 21
-179.87163502783159
 31
0.0
  0
LINE
  5
7A
  8
1
 62
     7
 10
251.96555375658599
 20
-216.8716350278315
 30
0.0
 11
251.96555375658599
 21
-158.8716350278315
 31
0.0
  0
LINE
  5
7B
  8
1
 62
     7
 10
274.46555375658602
 20
-216.8716350278315
 30
0.0
 11
251.96555375658599
 21
-216.8716350278315
 31
0.0
  0
LINE
  5
7C
  8
1
 62
     7
 10
274.46555375658602
 20
-158.8716350278315
 30
0.0
 11
274.46555375658602
 21
-160.3716350278315
 31
0.0
  0
LINE
  5
7D
  8
1
 62
     7
 10
251.96555375658599
 20
-158.8716350278315
 30
0.0
 11
274.46555375658602
 21
-158.8716350278315
 31
0.0
  0
LINE
  5
7E
  8
1
 62
     7
 10
281.76555375658592
 20
-216.8716350278315
 30
0.0
 11
281.76555375658592
 21
-197.37163502783159
 31
0.0
  0
LINE
  5
7F
  8
1
 62
     7
 10
283.96555375658602
 20
-216.8716350278315
 30
0.0
 11
281.76555375658592
 21
-216.8716350278315
 31
0.0
  0
LINE
  5
80
  8
1
 62
     7
 10
283.96555375658602
 20
-158.8716350278315
 30
0.0
 11
283.96555375658602
 21
-160.3716350278315
 31
0.0
  0
LINE
  5
81
  8
1
 62
     7
 10
281.76555375658592
 20
-158.8716350278315
 30
0.0
 11
283.96555375658602
 21
-158.8716350278315
 31
0.0
  0
LINE
  5
82
  8
1
 62
     7
 10
277.56555375658593
 20
-216.8716350278315
 30
0.0
 11
277.56555375658593
 21
-164.3716350278315
 31
0.0
  0
LINE
  5
83
  8
1
 62
     7
 10
274.56555375658598
 20
-216.8716350278315
 30
0.0
 11
277.56555375658593
 21
-216.8716350278315
 31
0.0
  0
LINE
  5
84
  8
1
 62
     7
 10
274.56555375658598
 20
-158.8716350278315
 30
0.0
 11
274.56555375658598
 21
-159.3716350278315
 31
0.0
  0
LINE
  5
85
  8
1
 62
     7
 10
277.56555375658593
 20
-158.8716350278315
 30
0.0
 11
274.56555375658598
 21
-158.8716350278315
 31
0.0
  0
LINE
  5
86
  8
1
 62
     7
 10
346.33978460927187
 20
-216.6596533688012
 30
0.0
 11
346.33978460927187
 21
-213.87163502783159
 31
0.0
  0
LINE
  5
87
  8
1
 62
     7
 10
353.33978460927187
 20
-213.87163502783159
 30
0.0
 11
353.33978460927187
 21
-216.6596533688012
 31
0.0
  0
LINE
  5
88
  8
1
 62
     7
 10
254.9655537565859
 20
-194.37163502783159
 30
0.0
 11
253.96555375658599
 21
-194.37163502783159
 31
0.0
  0
LINE
  5
89
  8
1
 62
     7
 10
253.96555375658599
 20
-181.37163502783159
 30
0.0
 11
254.9655537565859
 21
-181.37163502783159
 31
0.0
  0
LINE
  5
8A
  8
1
 62
     7
 10
274.56555375658212
 20
-164.4216350278314
 30
0.0
 11
274.56555375658598
 21
-216.8716350278315
 31
0.0
  0
LINE
  5
8B
  8
1
 62
     7
 10
376.52093981716399
 20
-176.50871477059241
 30
0.0
 11
374.10644510766741
 21
-177.9027239410772
 31
0.0
  0
LINE
  5
8C
  8
1
 62
     7
 10
370.60644510766741
 20
-171.84054611458609
 30
0.0
 11
373.02093981716388
 21
-170.4465369441013
 31
0.0
  0
LINE
  5
8D
  8
1
 62
     7
 10
326.65862940137993
 20
-170.4465369441013
 30
0.0
 11
329.07312411087662
 21
-171.84054611458609
 31
0.0
  0
LINE
  5
8E
  8
1
 62
     7
 10
325.57312411087662
 20
-177.9027239410772
 30
0.0
 11
323.15862940137998
 21
-176.50871477059229
 31
0.0
  0
LINE
  5
8F
  8
1
 62
     7
 10
283.96555375658602
 20
-172.87163502783159
 30
0.0
 11
281.76555375658597
 21
-172.87163502783159
 31
0.0
  0
LINE
  5
90
  8
1
 62
     7
 10
283.96555375658602
 20
-202.87163502783159
 30
0.0
 11
281.76555375658592
 21
-202.87163502783159
 31
0.0
  0
LINE
  5
91
  8
1
 62
     7
 10
355.87309492230349
 20
-179.3216350278316
 30
0.0
 11
360.26095696814468
 21
-186.9216350278316
 31
0.0
  0
LINE
  5
92
  8
1
 62
     7
 10
339.41861225039912
 20
-186.9216350278316
 30
0.0
 11
343.80647429624042
 21
-179.32163502783141
 31
0.0
  0
LINE
  5
93
  8
1
 62
     7
 10
343.80647429624031
 20
-196.4216350278316
 30
0.0
 11
339.41861225039912
 21
-188.8216350278316
 31
0.0
  0
LINE
  5
94
  8
1
 62
     7
 10
354.22764665511312
 20
-197.3716350278317
 30
0.0
 11
345.45192256343068
 21
-197.37163502783159
 31
0.0
  0
LINE
  5
95
  8
1
 62
     7
 10
360.2609569681448
 20
-188.82163502783141
 30
0.0
 11
355.87309492230349
 21
-196.4216350278316
 31
0.0
  0
LINE
  5
96
  8
1
 62
     7
 10
271.26555375658592
 20
-163.3716350278315
 30
0.0
 11
284.66555375658589
 21
-163.3716350278315
 31
0.0
  0
LINE
  5
97
  8
1
 62
     7
 10
283.96555375658602
 20
-163.3716350278315
 30
0.0
 11
283.96555375658602
 21
-178.37163502783159
 31
0.0
  0
LINE
  5
98
  8
1
 62
     7
 10
346.58978460927187
 20
-178.37163502783159
 30
0.0
 11
350.08978460927199
 21
-178.37163502783159
 31
0.0
  0
LINE
  5
99
  8
1
  6
DASHDOT
 62
     3
 10
350.80662712405677
 20
-187.87163502783159
 30
0.0
 11
348.93794233764697
 21
-187.87163502783159
 31
0.0
  0
LINE
  5
9A
  8
1
  6
DASHDOT
 62
     3
 10
349.83978460927199
 20
-187.008651591084
 30
0.0
 11
349.83978460927199
 21
-188.81040930827999
 31
0.0
  0
LINE
  5
9B
  8
1
  6
DASHDOT
 62
     3
 10
374.407250870067
 20
-173.68760176885459
 30
0.0
 11
370.13198899661921
 21
-176.15592536234581
 31
0.0
  0
LINE
  5
9C
  8
1
  6
CENTER
 62
     3
 10
349.83978460927199
 20
-211.29745955236109
 30
0.0
 11
349.83978460927199
 21
-216.29745955236109
 31
0.0
  0
LINE
  5
9D
  8
1
  6
DASHDOT
 62
     3
 10
325.28195050860961
 20
-173.6931628991
 30
0.0
 11
329.61238328790262
 21
-176.19333942993239
 31
0.0
  0
LINE
  5
9E
  8
1
 62
     7
 10
321.11411714955119
 20
-134.71731950626739
 30
0.0
 11
318.16963077668407
 21
-136.4173195062674
 31
0.0
  0
LINE
  5
9F
  8
1
 62
     7
 10
318.16963077668407
 20
-136.4173195062674
 30
0.0
 11
333.89247665614391
 21
-163.6500874090666
 31
0.0
  0
LINE
  5
A0
  8
1
 62
     7
 10
336.83696302901109
 20
-161.95008740906661
 30
0.0
 11
321.11411714955119
 21
-134.71731950626739
 31
0.0
  0
LINE
  5
A1
  8
1
 62
     3
 10
320.89761079860511
 20
-134.84231950626739
 30
0.0
 11
319.89761079860511
 21
-133.11026869869841
 31
0.0
  0
LINE
  5
A2
  8
1
 62
     3
 10
320.63780317746961
 20
-134.99231950626739
 30
0.0
 11
319.63780317746961
 21
-133.26026869869841
 31
0.0
  0
LINE
  5
A3
  8
1
 62
     3
 10
320.37799555633438
 20
-135.1423195062674
 30
0.0
 11
319.3779955563345
 21
-133.41026869869839
 31
0.0
  0
LINE
  5
A4
  8
1
 62
     3
 10
320.11818793519922
 20
-135.2923195062674
 30
0.0
 11
319.11818793519922
 21
-133.56026869869851
 31
0.0
  0
LINE
  5
A5
  8
1
 62
     3
 10
319.85838031406382
 20
-135.44231950626741
 30
0.0
 11
318.85838031406382
 21
-133.71026869869851
 31
0.0
  0
LINE
  5
A6
  8
1
 62
     3
 10
319.42536761217161
 20
-135.6923195062673
 30
0.0
 11
318.42536761217161
 21
-133.96026869869851
 31
0.0
  0
LINE
  5
A7
  8
1
 62
     3
 10
319.1655599910361
 20
-135.84231950626739
 30
0.0
 11
318.1655599910361
 21
-134.11026869869841
 31
0.0
  0
LINE
  5
A8
  8
1
 62
     3
 10
318.90575236990088
 20
-135.99231950626739
 30
0.0
 11
317.90575236990099
 21
-134.26026869869841
 31
0.0
  0
LINE
  5
A9
  8
1
 62
     3
 10
318.6459447487656
 20
-136.14231950626731
 30
0.0
 11
317.6459447487656
 21
-134.41026869869839
 31
0.0
  0
LINE
  5
AA
  8
1
 62
     3
 10
318.38613712763032
 20
-136.2923195062674
 30
0.0
 11
317.38613712763032
 21
-134.56026869869851
 31
0.0
  0
LINE
  5
AB
  8
1
 62
     7
 10
258.81555375658593
 20
-158.8716350278315
 30
0.0
 11
258.81555375658593
 21
-143.8716350278315
 31
0.0
  0
LINE
  5
AC
  8
1
 62
     7
 10
257.11555375658588
 20
-158.8716350278315
 30
0.0
 11
257.11555375658588
 21
-143.8716350278315
 31
0.0
  0
LINE
  5
AD
  8
1
 62
     7
 10
257.11555375658588
 20
-143.8716350278315
 30
0.0
 11
258.81555375658593
 21
-143.8716350278315
 31
0.0
  0
LINE
  5
AE
  8
1
 62
     3
 10
258.56555375658593
 20
-143.8716350278315
 30
0.0
 11
258.56555375658593
 21
-141.8716350278315
 31
0.0
  0
LINE
  5
AF
  8
1
 62
     3
 10
258.26555375658592
 20
-143.8716350278315
 30
0.0
 11
258.26555375658592
 21
-141.8716350278315
 31
0.0
  0
LINE
  5
B0
  8
1
 62
     3
 10
257.66555375658589
 20
-143.8716350278315
 30
0.0
 11
257.66555375658589
 21
-141.8716350278315
 31
0.0
  0
LINE
  5
B1
  8
1
 62
     3
 10
257.36555375658588
 20
-143.8716350278315
 30
0.0
 11
257.36555375658588
 21
-141.8716350278315
 31
0.0
  0
LINE
  5
B2
  8
1
 62
     3
 10
257.96555375658602
 20
-143.8716350278315
 30
0.0
 11
257.96555375658602
 21
-141.8716350278315
 31
0.0
  0
LINE
  5
B3
  8
1
  6
DASHDOT
 62
     3
 10
250.50062836721901
 20
-213.87163502783159
 30
0.0
 11
285.365553756586
 21
-213.87163502783159
 31
0.0
  0
LINE
  5
B4
  8
1
 62
     7
 10
254.9655537565859
 20
-179.47163502783161
 30
0.0
 11
254.9655537565859
 21
-196.27163502783159
 31
0.0
  0
LINE
  5
B5
  8
1
  6
DASHDOT
 62
     3
 10
286.46555375658602
 20
-187.87163502783159
 30
0.0
 11
288.46555375658602
 21
-187.87163502783159
 31
0.0
  0
LINE
  5
B6
  8
1
  6
DASHDOT
 62
     3
 10
249.96555375658599
 20
-187.87163502783159
 30
0.0
 11
251.96555375658599
 21
-187.87163502783159
 31
0.0
  0
LINE
  5
B7
  8
1
 62
     7
 10
207.4655537565859
 20
-178.37163502783159
 30
0.0
 11
207.4655537565859
 21
-197.37163502783159
 31
0.0
  0
LINE
  5
B8
  8
1
 62
     7
 10
202.16555375658601
 20
-166.3716350278315
 30
0.0
 11
202.16555375658601
 21
-209.37163502783159
 31
0.0
  0
LINE
  5
B9
  8
1
 62
     7
 10
199.16555375658601
 20
-166.3716350278315
 30
0.0
 11
199.16555375658601
 21
-209.37163502783159
 31
0.0
  0
LINE
  5
BA
  8
1
 62
     7
 10
202.765553756586
 20
-208.5716350278316
 30
0.0
 11
202.16555375658601
 21
-208.5716350278316
 31
0.0
  0
LINE
  5
BB
  8
1
 62
     7
 10
202.765553756586
 20
-166.8716350278315
 30
0.0
 11
202.16555375658601
 21
-166.8716350278315
 31
0.0
  0
LINE
  5
BC
  8
1
 62
     7
 10
198.5655537565859
 20
-216.8716350278315
 30
0.0
 11
198.5655537565859
 21
-158.8716350278315
 31
0.0
  0
LINE
  5
BD
  8
1
 62
     7
 10
202.765553756586
 20
-159.3716350278315
 30
0.0
 11
198.5655537565859
 21
-159.3716350278315
 31
0.0
  0
LINE
  5
BE
  8
1
 62
     7
 10
202.16555375658601
 20
-166.3716350278315
 30
0.0
 11
199.16555375658601
 21
-166.3716350278315
 31
0.0
  0
LINE
  5
BF
  8
1
 62
     7
 10
199.16555375658601
 20
-209.37163502783159
 30
0.0
 11
202.16555375658601
 21
-209.37163502783159
 31
0.0
  0
LINE
  5
C0
  8
1
 62
     7
 10
205.96555375658599
 20
-159.1216350278315
 30
0.0
 11
206.40467389821049
 21
-159.1216350278315
 31
0.0
  0
LINE
  5
C1
  8
1
 62
     7
 10
206.40467389821049
 20
-164.6216350278315
 30
0.0
 11
205.96555375658599
 21
-164.6216350278315
 31
0.0
  0
LINE
  5
C2
  8
1
 62
     7
 10
205.66555375658589
 20
-164.8216350278316
 30
0.0
 11
204.9655537565859
 21
-164.8216350278316
 31
0.0
  0
LINE
  5
C3
  8
1
 62
     7
 10
205.66555375658589
 20
-158.9216350278316
 30
0.0
 11
205.66555375658589
 21
-164.8216350278316
 31
0.0
  0
LINE
  5
C4
  8
1
 62
     7
 10
204.9655537565859
 20
-158.9216350278316
 30
0.0
 11
205.66555375658589
 21
-158.9216350278316
 31
0.0
  0
LINE
  5
C5
  8
1
 62
     7
 10
172.9655537565859
 20
-216.8716350278315
 30
0.0
 11
172.9655537565859
 21
-158.8716350278315
 31
0.0
  0
LINE
  5
C6
  8
1
 62
     7
 10
195.4655537565859
 20
-216.8716350278315
 30
0.0
 11
172.9655537565859
 21
-216.8716350278315
 31
0.0
  0
LINE
  5
C7
  8
1
 62
     7
 10
195.4655537565859
 20
-158.8716350278315
 30
0.0
 11
195.4655537565859
 21
-216.8716350278315
 31
0.0
  0
LINE
  5
C8
  8
1
 62
     7
 10
172.9655537565859
 20
-158.8716350278315
 30
0.0
 11
195.4655537565859
 21
-158.8716350278315
 31
0.0
  0
LINE
  5
C9
  8
1
 62
     7
 10
202.765553756586
 20
-216.8716350278315
 30
0.0
 11
202.765553756586
 21
-158.8716350278315
 31
0.0
  0
LINE
  5
CA
  8
1
 62
     7
 10
204.9655537565859
 20
-216.8716350278315
 30
0.0
 11
202.765553756586
 21
-216.8716350278315
 31
0.0
  0
LINE
  5
CB
  8
1
 62
     7
 10
204.9655537565859
 20
-158.8716350278315
 30
0.0
 11
204.9655537565859
 21
-216.8716350278315
 31
0.0
  0
LINE
  5
CC
  8
1
 62
     7
 10
202.765553756586
 20
-158.8716350278315
 30
0.0
 11
204.9655537565859
 21
-158.8716350278315
 31
0.0
  0
LINE
  5
CD
  8
1
 62
     7
 10
195.56555375658601
 20
-216.8716350278315
 30
0.0
 11
198.5655537565859
 21
-216.8716350278315
 31
0.0
  0
LINE
  5
CE
  8
1
 62
     7
 10
198.5655537565859
 20
-158.8716350278315
 30
0.0
 11
195.56555375658601
 21
-158.8716350278315
 31
0.0
  0
LINE
  5
CF
  8
1
 62
     7
 10
179.8155537565859
 20
-158.8716350278315
 30
0.0
 11
179.8155537565859
 21
-143.8716350278315
 31
0.0
  0
LINE
  5
D0
  8
1
 62
     7
 10
178.115553756586
 20
-158.8716350278315
 30
0.0
 11
178.115553756586
 21
-143.8716350278315
 31
0.0
  0
LINE
  5
D1
  8
1
 62
     7
 10
178.115553756586
 20
-143.8716350278315
 30
0.0
 11
179.8155537565859
 21
-143.8716350278315
 31
0.0
  0
LINE
  5
D2
  8
1
 62
     3
 10
179.5655537565859
 20
-143.8716350278315
 30
0.0
 11
179.5655537565859
 21
-141.8716350278315
 31
0.0
  0
LINE
  5
D3
  8
1
 62
     3
 10
179.265553756586
 20
-143.8716350278315
 30
0.0
 11
179.265553756586
 21
-141.8716350278315
 31
0.0
  0
LINE
  5
D4
  8
1
 62
     3
 10
178.66555375658601
 20
-143.8716350278315
 30
0.0
 11
178.66555375658601
 21
-141.8716350278315
 31
0.0
  0
LINE
  5
D5
  8
1
 62
     3
 10
178.36555375658591
 20
-143.8716350278315
 30
0.0
 11
178.36555375658591
 21
-141.8716350278315
 31
0.0
  0
LINE
  5
D6
  8
1
 62
     3
 10
178.96555375658599
 20
-143.8716350278315
 30
0.0
 11
178.96555375658599
 21
-141.8716350278315
 31
0.0
  0
LINE
  5
D7
  8
1
  6
DASHDOT
 62
     3
 10
207.4655537565859
 20
-187.87163502783159
 30
0.0
 11
209.4655537565859
 21
-187.87163502783159
 31
0.0
  0
LINE
  5
D8
  8
1
  6
DASHDOT
 62
     3
 10
170.9655537565859
 20
-187.87163502783159
 30
0.0
 11
172.9655537565859
 21
-187.87163502783159
 31
0.0
  0
LINE
  5
D9
  8
1
 62
     7
 10
195.56555375658601
 20
-158.8716350278315
 30
0.0
 11
195.56555375658601
 21
-216.8716350278315
 31
0.0
  0
LINE
  5
DA
  8
1
 62
     7
 10
198.5655537565859
 20
-164.3716350278315
 30
0.0
 11
202.765553756586
 21
-164.3716350278315
 31
0.0
  0
LINE
  5
DB
  8
1
 62
     7
 10
207.4655537565859
 20
-178.37163502783159
 30
0.0
 11
204.9655537565859
 21
-178.37163502783159
 31
0.0
  0
LINE
  5
DC
  8
1
 62
     7
 10
207.4655537565859
 20
-197.37163502783159
 30
0.0
 11
204.9655537565859
 21
-197.37163502783159
 31
0.0
  0
LINE
  5
DD
  8
1
 62
     7
 10
207.4655537565859
 20
-187.87163502783159
 30
0.0
 11
204.9655537565859
 21
-187.87163502783159
 31
0.0
  0
LINE
  5
DE
  8
1
 62
     7
 10
199.16555375658601
 20
-166.8716350278315
 30
0.0
 11
198.5655537565859
 21
-166.8716350278315
 31
0.0
  0
LINE
  5
DF
  8
1
 62
     7
 10
199.16555375658601
 20
-208.5716350278316
 30
0.0
 11
198.5655537565859
 21
-208.5716350278316
 31
0.0
  0
LINE
  5
E0
  8
1
 62
     7
 10
281.16555375658601
 20
-208.87163502783159
 30
0.0
 11
281.16555375658601
 21
-209.37163502783159
 31
0.0
  0
LINE
  5
E1
  8
1
 62
     7
 10
278.16555375658601
 20
-208.87163502783159
 30
0.0
 11
278.16555375658601
 21
-209.37163502783159
 31
0.0
  0
LINE
  5
E2
  8
1
 62
     7
 10
278.865553756586
 20
-204.87163502783159
 30
0.0
 11
278.865553756586
 21
-208.87163502783159
 31
0.0
  0
LINE
  5
E3
  8
1
 62
     7
 10
280.46555375658602
 20
-204.87163502783159
 30
0.0
 11
280.46555375658602
 21
-208.87163502783159
 31
0.0
  0
LINE
  5
E4
  8
1
 62
     7
 10
281.76555375658592
 20
-204.87163502783159
 30
0.0
 11
280.46555375658602
 21
-204.87163502783159
 31
0.0
  0
LINE
  5
E5
  8
1
 62
     7
 10
277.56555375658593
 20
-204.87163502783159
 30
0.0
 11
278.865553756586
 21
-204.87163502783159
 31
0.0
  0
LINE
  5
E6
  8
1
 62
     7
 10
277.56555375658593
 20
-208.87163502783159
 30
0.0
 11
278.865553756586
 21
-208.87163502783159
 31
0.0
  0
LINE
  5
E7
  8
1
 62
     7
 10
280.46555375658602
 20
-208.87163502783159
 30
0.0
 11
281.76555375658597
 21
-208.87163502783159
 31
0.0
  0
LINE
  5
E8
  8
1
 62
     7
 10
278.16555375658601
 20
-209.37163502783159
 30
0.0
 11
281.16555375658601
 21
-209.37163502783159
 31
0.0
  0
LINE
  5
E9
  8
1
 62
     7
 10
278.16555375658601
 20
-204.87163502783159
 30
0.0
 11
278.16555375658601
 21
-197.3716350278317
 31
0.0
  0
LINE
  5
EA
  8
1
 62
     7
 10
281.16555375658601
 20
-197.3716350278317
 30
0.0
 11
281.16555375658601
 21
-204.87163502783159
 31
0.0
  0
ARC
  5
EB
  8
1
 62
     7
 10
284.96555375658602
 20
-159.42163502783151
 30
0.0
 40
0.3000000000000114
 50
90.0
 51
180.0
  0
ARC
  5
EC
  8
1
 62
     7
 10
284.96555375658602
 20
-164.3216350278316
 30
0.0
 40
0.3000000000001251
 50
180.0
 51
270.0
  0
ARC
  5
ED
  8
1
 62
     7
 10
285.40467389821049
 20
-160.1216350278315
 30
0.0
 40
1.0000000000000231
 50
16.957763299999758
 51
90.0
  0
ARC
  5
EE
  8
1
 62
     7
 10
285.40467389821049
 20
-163.6216350278315
 30
0.0
 40
1.0
 50
270.0
 51
343.04223669999402
  0
ARC
  5
EF
  8
1
 62
     7
 10
354.22764665511312
 20
-180.27163502783159
 30
0.0
 40
1.8999999999999431
 50
30.00000000000059
 51
90.0
  0
ARC
  5
F0
  8
1
 62
     7
 10
358.61550870095431
 20
-187.8716350278315
 30
0.0
 40
1.8999999999999431
 50
329.99999999999932
 51
30.000000000000071
  0
ARC
  5
F1
  8
1
 62
     7
 10
345.4519225634308
 20
-180.27163502783159
 30
0.0
 40
1.900000000000005
 50
90.0
 51
149.99999999999559
  0
ARC
  5
F2
  8
1
 62
     7
 10
341.06406051758961
 20
-187.87163502783159
 30
0.0
 40
1.90000000000014
 50
150.00000000000281
 51
209.9999999999979
  0
ARC
  5
F3
  8
1
 62
     7
 10
345.45192256343068
 20
-195.47163502783161
 30
0.0
 40
1.8999999999999431
 50
210.00000000000051
 51
270.0
  0
ARC
  5
F4
  8
1
 62
     7
 10
354.22764665511312
 20
-195.47163502783161
 30
0.0
 40
1.900000000000005
 50
270.0
 51
329.99999999999858
  0
ARC
  5
F5
  8
1
 62
     7
 10
205.96555375658599
 20
-159.42163502783151
 30
0.0
 40
0.3000000000000114
 50
90.0
 51
180.0
  0
ARC
  5
F6
  8
1
 62
     7
 10
205.96555375658599
 20
-164.3216350278316
 30
0.0
 40
0.3000000000000966
 50
180.0
 51
270.0
  0
ARC
  5
F7
  8
1
 62
     7
 10
206.40467389821049
 20
-160.1216350278315
 30
0.0
 40
0.9999999999999965
 50
16.957763300000241
 51
90.0
  0
ARC
  5
F8
  8
1
 62
     7
 10
206.40467389821049
 20
-163.6216350278315
 30
0.0
 40
1.0
 50
270.0
 51
343.04223669999362
  0
ARC
  5
F9
  8
1
 62
     7
 10
275.16555375658601
 20
-181.0716350278316
 30
0.0
 40
1.000000000000022
 50
126.8698976458447
 51
233.13010235415439
  0
ARC
  5
FA
  8
1
 62
     7
 10
274.66555375658601
 20
-194.6716350278316
 30
0.0
 40
0.999999999999984
 50
95.739170477268203
 51
264.2608295227318
  0
ARC
  5
FB
  8
1
 62
     7
 10
279.66555375658589
 20
-161.8716350278315
 30
0.0
 40
7.0000000000001492
 50
343.04223669999578
 51
0.0
  0
ARC
  5
FC
  8
1
 62
     7
 10
349.83978460927199
 20
-187.87163502783159
 30
0.0
 40
5.0
 50
143.13010235415601
 51
270.0
  0
ARC
  5
FD
  8
1
 62
     7
 10
349.83978460927199
 20
-187.87163502783159
 30
0.0
 40
5.0
 50
270.0
 51
36.86989764584402
  0
ARC
  5
FE
  8
1
 62
     7
 10
372.99698956429012
 20
-203.26217948445449
 30
0.0
 40
1.4875000000000731
 50
59.999999999997613
 51
149.99999999999929
  0
ARC
  5
FF
  8
1
 62
     7
 10
369.96590065104448
 20
-201.51217948445449
 30
0.0
 40
1.4874999999999809
 50
329.99999999999932
 51
59.999999999997613
  0
ARC
  5
100
  8
1
 62
     7
 10
371.71590065104459
 20
-198.48109057120891
 30
0.0
 40
1.4874999999999421
 50
239.9999999999996
 51
330.00000000000313
  0
ARC
  5
101
  8
1
 62
     7
 10
374.74698956429012
 20
-200.23109057120891
 30
0.0
 40
1.4875000000000249
 50
149.9999999999965
 51
240.00000000000159
  0
ARC
  5
102
  8
1
 62
     7
 10
324.9325796542538
 20
-200.2310905712088
 30
0.0
 40
1.4874999999999561
 50
299.99999999999233
 51
30.000000000001751
  0
ARC
  5
103
  8
1
 62
     7
 10
327.96366856749938
 20
-198.48109057120871
 30
0.0
 40
1.48750000000003
 50
209.99999999999949
 51
299.99999999999989
  0
ARC
  5
104
  8
1
 62
     7
 10
329.71366856749933
 20
-201.51217948445441
 30
0.0
 40
1.4875000000000691
 50
119.9999999999999
 51
210.00000000000071
  0
ARC
  5
105
  8
1
 62
     7
 10
326.6825796542538
 20
-203.26217948445441
 30
0.0
 40
1.487499999999933
 50
30.000000000001751
 51
119.9999999999981
  0
ARC
  5
106
  8
1
 62
     7
 10
279.66555375658589
 20
-161.8716350278315
 30
0.0
 40
7.0000000000001128
 50
0.0
 51
16.957763300003279
  0
ARC
  5
107
  8
1
 62
     7
 10
351.58978460927199
 20
-160.1216350278315
 30
0.0
 40
1.487500000000068
 50
180.0
 51
270.0
  0
ARC
  5
108
  8
1
 62
     7
 10
351.58978460927199
 20
-163.6216350278315
 30
0.0
 40
1.4874999999999821
 50
90.0
 51
180.0
  0
ARC
  5
109
  8
1
 62
     7
 10
348.08978460927199
 20
-163.6216350278315
 30
0.0
 40
1.48750000000001
 50
0.0
 51
90.0
  0
ARC
  5
10A
  8
1
 62
     7
 10
348.08978460927199
 20
-160.1216350278315
 30
0.0
 40
1.48750000000001
 50
270.0
 51
0.0
  0
ARC
  5
10B
  8
1
 62
     7
 10
349.83978460927199
 20
-213.87163502783159
 30
0.0
 40
3.5
 50
0.0
 51
180.0
  0
ARC
  5
10C
  8
1
 62
     7
 10
254.4655537565859
 20
-194.6716350278316
 30
0.0
 40
1.0000000000000571
 50
299.99999999999812
 51
59.999999999993001
  0
ARC
  5
10D
  8
1
 62
     7
 10
254.9655537565859
 20
-181.0716350278316
 30
0.0
 40
1.0
 50
270.0
 51
90.0
  0
ARC
  5
10E
  8
1
 62
     7
 10
372.35644510766741
 20
-174.87163502783159
 30
0.0
 40
3.5000000000000662
 50
119.9999999999993
 51
300.00000000000028
  0
ARC
  5
10F
  8
1
 62
     7
 10
327.32312411087662
 20
-174.87163502783159
 30
0.0
 40
3.5000000000000662
 50
240.0000000000006
 51
59.99999999999968
  0
ARC
  5
110
  8
1
  6
DASHDOT
 62
     3
 10
349.83978460927199
 20
-187.87163502783159
 30
0.0
 40
26.0
 50
24.203697382081991
 51
35.86023809786672
  0
ARC
  5
111
  8
1
  6
DASHDOT
 62
     3
 10
349.83978460927199
 20
-187.87163502783159
 30
0.0
 40
26.00000000000005
 50
264.39470472555331
 51
275.94154212447057
  0
ARC
  5
112
  8
1
  6
DASHDOT
 62
     3
 10
349.83978460927199
 20
-187.87163502783159
 30
0.0
 40
26.0
 50
144.0561348613399
 51
155.6278351417356
  0
ARC
  5
113
  8
1
 62
     7
 10
200.66555375658589
 20
-161.8716350278315
 30
0.0
 40
7.0000000000001208
 50
343.04223669999561
 51
0.0
  0
ARC
  5
114
  8
1
 62
     7
 10
200.66555375658589
 20
-161.8716350278315
 30
0.0
 40
7.0000000000001128
 50
0.0
 51
16.95776330000335
  0
CIRCLE
  5
115
  8
1
 62
     7
 10
372.35644510766741
 20
-200.8716350278317
 30
0.0
 40
2.75
  0
CIRCLE
  5
116
  8
1
 62
     7
 10
327.32312411087662
 20
-200.87163502783159
 30
0.0
 40
2.75
  0
CIRCLE
  5
117
  8
1
 62
     7
 10
349.83978460927199
 20
-161.8716350278315
 30
0.0
 40
2.75
  0
CIRCLE
  5
118
  8
1
 62
     7
 10
349.83978460927199
 20
-213.87163502783159
 30
0.0
 40
1.6999999999999309
  0
CIRCLE
  5
119
  8
1
 62
     7
 10
349.83978460927199
 20
-187.87163502783159
 30
0.0
 40
15.0
  0
CIRCLE
  5
11A
  8
1
 62
     7
 10
272.05222042325261
 20
-194.6716350278316
 30
0.0
 40
1.0
  0
CIRCLE
  5
11B
  8
1
 62
     7
 10
273.16555375658601
 20
-181.0716350278316
 30
0.0
 40
1.0
  0
CIRCLE
  5
11C
  8
1
 62
     7
 10
269.82555375658592
 20
-194.6716350278316
 30
0.0
 40
1.0
  0
CIRCLE
  5
11D
  8
1
 62
     7
 10
270.93888708991932
 20
-181.0716350278316
 30
0.0
 40
1.0
  0
CIRCLE
  5
11E
  8
1
 62
     7
 10
267.59888708991929
 20
-194.6716350278316
 30
0.0
 40
1.0
  0
CIRCLE
  5
11F
  8
1
 62
     7
 10
268.71222042325257
 20
-181.0716350278316
 30
0.0
 40
1.0
  0
CIRCLE
  5
120
  8
1
 62
     7
 10
265.3722204232526
 20
-194.6716350278316
 30
0.0
 40
1.0
  0
CIRCLE
  5
121
  8
1
 62
     7
 10
266.485553756586
 20
-181.0716350278316
 30
0.0
 40
1.0
  0
CIRCLE
  5
122
  8
1
 62
     7
 10
263.14555375658603
 20
-194.6716350278316
 30
0.0
 40
1.0
  0
CIRCLE
  5
123
  8
1
 62
     7
 10
264.25888708991931
 20
-181.0716350278316
 30
0.0
 40
1.0
  0
CIRCLE
  5
124
  8
1
 62
     7
 10
260.91888708991928
 20
-194.6716350278316
 30
0.0
 40
1.0
  0
CIRCLE
  5
125
  8
1
 62
     7
 10
262.03222042325262
 20
-181.0716350278316
 30
0.0
 40
1.0
  0
CIRCLE
  5
126
  8
1
 62
     7
 10
258.69222042325248
 20
-194.6716350278316
 30
0.0
 40
1.0
  0
CIRCLE
  5
127
  8
1
 62
     7
 10
259.80555375658588
 20
-181.0716350278316
 30
0.0
 40
1.0
  0
CIRCLE
  5
128
  8
1
 62
     7
 10
256.46555375658602
 20
-194.6716350278316
 30
0.0
 40
1.0
  0
CIRCLE
  5
129
  8
1
 62
     7
 10
257.57888708991942
 20
-181.0716350278316
 30
0.0
 40
1.0
  0
CIRCLE
  5
12A
  8
1
 62
     7
 10
349.83978460927199
 20
-187.87163502783159
 30
0.0
 40
29.0
  0
CIRCLE
  5
12B
  8
1
 62
     7
 10
372.35644510766741
 20
-174.87163502783159
 30
0.0
 40
1.6999999999999891
  0
CIRCLE
  5
12C
  8
1
 62
     7
 10
327.32312411087662
 20
-174.87163502783159
 30
0.0
 40
1.700000000000101
  0
TEXT
  5
12E
  8
1
 62
     7
 10
166.74595836065981
 20
-128.67906485940509
 30
0.0
 40
3.0
  1
MCNB 10
 41
0.9
  7
SIMPLEX
 72
     1
 11
175.55310121780261
 21
-128.67906485940509
 31
0.0
  0
ENDSEC
  0
EOF
