  0
SECTION
  2
HEADER
  9
$ACADVER
  1
AC1009
  9
$INSBASE
 10
0
 20
0
  9
$EXTMIN
 10
190.2566012178026
 20
-10.6594827586207
  9
$EXTMAX
 10
354.19755901952
 20
51.32093514059491
  9
$LIMMIN
 10
190.2566012178026
 20
-10.6594827586207
  9
$LIMMAX
 10
354.19755901952
 20
51.32093514059491
  9
$VIEWCTR
 10
10
 20
10
  9
$VIEWSIZE
 40
10
  9
$SNAPMODE
 70
0
  9
$SNAPUNIT
 10
1
 20
1
  9
$SNAPBASE
 10
0
 20
0
  9
$SNAPANG
 50
0
  9
$SNAPSTYLE
 70
0
  9
$SNAPISOPAIR
 70
0
  9
$GRIDMODE
 70
0
  9
$GRIDUNIT
 10
0
 20
0
  9
$ORTHOMODE
 70
0
  9
$REGENMODE
 70
1
  9
$FILLMODE
 70
1
  9
$QTEXTMODE
 70
0
  9
$DRAGMODE
 70
2
  9
$LTSCALE
 40
1
  9
$OSMODE
 70
0
  9
$ATTMODE
 70
1
  9
$TEXTSIZE
 40
3.5
  9
$TRACEWID
 40
0.5
  9
$TEXTSTYLE
  7
STANDARD
  9
$CLAYER
  8
0
  9
$CELTYPE
  6
BYLAYER
  9
$CECOLOR
 62
256
  9
$DIMSCALE
 40
1
  9
$DIMASZ
 40
0.18
  9
$DIMEXO
 40
0.0625
  9
$DIMDLI
 40
0.38
  9
$DIMRND
 40
0
  9
$DIMDLE
 40
0
  9
$DIMEXE
 40
0.18
  9
$DIMTP
 40
0
  9
$DIMTM
 40
0
  9
$DIMTXT
 40
0.18
  9
$DIMCEN
 40
0.09
  9
$DIMTSZ
 40
0
  9
$DIMTOL
 70
0
  9
$DIMLIM
 70
0
  9
$DIMTIH
 70
1
  9
$DIMTOH
 70
1
  9
$DIMSE1
 70
0
  9
$DIMSE2
 70
0
  9
$DIMTAD
 70
0
  9
$DIMZIN
 70
0
  9
$DIMBLK
  1

  9
$DIMASO
 70
1
  9
$DIMSHO
 70
1
  9
$DIMPOST
  1

  9
$DIMAPOST
  1

  9
$DIMALT
 70
0
  9
$DIMALTD
 70
2
  9
$DIMALTF
 40
25.4
  9
$DIMLFAC
 40
1
  9
$DIMTOFL
 70
0
  9
$DIMTVP
 40
0
  9
$DIMTIX
 70
0
  9
$DIMSOXD
 70
0
  9
$DIMSAH
 70
0
  9
$DIMBLK1
  1

  9
$DIMBLK2
  1

  9
$DIMSTYLE
  2
*UNNAMED
  9
$DIMCLRD
 70
0
  9
$DIMCLRE
 70
0
  9
$DIMCLRT
 70
0
  9
$DIMTFAC
 40
1
  9
$DIMGAP
 40
0.09
  9
$LUNITS
 70
2
  9
$LUPREC
 70
4
  9
$AXISMODE
 70
0
  9
$AXISUNIT
 10
0
 20
0
  9
$SKETCHINC
 40
0.1
  9
$FILLETRAD
 40
2
  9
$AUNITS
 70
0
  9
$AUPREC
 70
0
  9
$MENU
  1
ACAD
  9
$ELEVATION
 40
0
  9
$THICKNESS
 40
0
  9
$VIEWDIR
 10
0
 20
0
 30
1
  9
$LIMCHECK
 70
0
  9
$BLIPMODE
 70
1
  9
$CHAMFERA
 40
0
  9
$CHAMFERB
 40
0
  9
$FASTZOOM
 70
1
  9
$SKPOLY
 70
0
  9
$ANGBASE
 50
0
  9
$ANGDIR
 70
0
  9
$PDMODE
 70
0
  9
$PDSIZE
 40
0
  9
$PLINEWID
 40
0
  9
$COORDS
 70
2
  0
ENDSEC
  0
SECTION
  2
TABLES
  0
TABLE
  2
DIMSTYLE
 70
0
  0
ENDTAB
  0
TABLE
  2
LTYPE
 70
9
  0
LTYPE
  2
CONTINUOUS
 70
64
  3
Solid line
 72
65
 73
0
 40
0
  0
LTYPE
  2
BORDER
 70
64
  3
__ __ . __ __ .
 72
65
 73
6
 40
7.549912530342248
 49
2.157117865812071
 49
-1.078558932906035
 49
2.157117865812071
 49
-1.078558932906035
 49
0
 49
-1.078558932906035
  0
LTYPE
  2
CENTER
 70
64
  3
____ _ ____ _
 72
65
 73
4
 40
8.628471463248284
 49
5.392794664530177
 49
-1.078558932906035
 49
1.078558932906035
 49
-1.078558932906035
  0
LTYPE
  2
DASHDOT
 70
64
  3
__ . __ . __ .
 72
65
 73
4
 40
4.314235731624142
 49
2.157117865812071
 49
-1.078558932906035
 49
0
 49
-1.078558932906035
  0
LTYPE
  2
DASHED
 70
64
  3
__ __ __ __ __
 72
65
 73
2
 40
3.235676798718107
 49
2.157117865812071
 49
-1.078558932906035
  0
LTYPE
  2
DIVIDE
 70
64
  3
__ . . __ . . 
 72
65
 73
6
 40
5.392794664530177
 49
2.157117865812071
 49
-1.078558932906035
 49
0
 49
-1.078558932906035
 49
0
 49
-1.078558932906035
  0
LTYPE
  2
DOT
 70
64
  3
..............
 72
65
 73
4
 40
2.157117865812071
 49
0
 49
-1.078558932906035
 49
0
 49
-1.078558932906035
  0
LTYPE
  2
HIDDEN
 70
64
  3
_ _ _ _ _ _ _
 72
65
 73
2
 40
1.617838399359053
 49
1.078558932906035
 49
-0.5392794664530177
  0
LTYPE
  2
PHANTOM
 70
64
  3
_____ _ _ _____ _ _ 
 72
65
 73
6
 40
10.78558932906035
 49
5.392794664530177
 49
-1.078558932906035
 49
1.078558932906035
 49
-1.078558932906035
 49
1.078558932906035
 49
-1.078558932906035
  0
ENDTAB
  0
TABLE
  2
LAYER
 70
3
  0
LAYER
  2
1
 70
0
 62
7
  6
CONTINUOUS
  0
LAYER
  2
0
 70
0
 62
7
  6
CONTINUOUS
  0
ENDTAB
  0
TABLE
  2
STYLE
 70
4
  0
STYLE
  2
STANDARD
 70
0
 40
0
 41
1
 50
0
 71
0
 42
3.5
  3
txt
  4

  0
STYLE
  2
SIMPLEX
 70
0
 40
0
 41
1
 50
0
 71
0
 42
3.5
  3
simplex
  4

  0
STYLE
  2
COMPLEX
 70
0
 40
0
 41
1
 50
0
 71
0
 42
3.5
  3
complex
  4

  0
STYLE
  2
ITALIC
 70
0
 40
0
 41
1
 50
0
 71
0
 42
3.5
  3
italic
  4

  0
ENDTAB
  0
TABLE
  2
VIEW
 70
0
  0
ENDTAB
  0
ENDSEC
  0
SECTION
  2
BLOCKS
  0
ENDSEC
  0
SECTION
  2
ENTITIES
  0
LINE
  8
1
 62
7
 10
257.8642241379309
 20
4.840517241379304
 30
0
 11
260.8642241379309
 21
4.840517241379304
 31
0
  0
LINE
  8
1
 62
7
 10
257.8642241379309
 20
13.8405172413793
 30
0
 11
260.864224137931
 21
13.8405172413793
 31
0
  0
LINE
  8
1
 62
7
 10
260.864224137931
 20
15.3405172413793
 30
0
 11
260.864224137931
 21
3.340517241379303
 31
0
  0
LINE
  8
1
 62
7
 10
224.8642241379309
 20
9.340517241379304
 30
0
 11
228.3642241379309
 21
9.340517241379304
 31
0
  0
LINE
  8
1
 62
7
 10
216.9642241379309
 20
29.3405172413793
 30
0
 11
224.864224137931
 21
29.3405172413793
 31
0
  0
LINE
  8
1
 62
7
 10
228.3642241379309
 20
0.840517241379304
 30
0
 11
224.864224137931
 21
0.840517241379304
 31
0
  0
LINE
  8
1
 62
7
 10
228.3642241379309
 20
17.84051724137923
 30
0
 11
224.864224137931
 21
17.84051724137923
 31
0
  0
LINE
  8
1
 62
7
 10
219.3642241379311
 20
-10.65948275862069
 30
0
 11
219.3642241379309
 21
29.3405172413793
 31
0
  0
LINE
  8
1
 62
7
 10
222.2142241379308
 20
23.04051724137929
 30
0
 11
222.864224137931
 21
23.04051724137929
 31
0
  0
LINE
  8
1
 62
7
 10
220.0142241379309
 20
23.04051724137929
 30
0
 11
219.3642241379309
 21
23.04051724137929
 31
0
  0
LINE
  8
1
 62
7
 10
220.0142241379311
 20
-4.359482758620695
 30
0
 11
219.3642241379311
 21
-4.359482758620695
 31
0
  0
LINE
  8
1
 62
7
 10
222.2142241379309
 20
-4.359482758620695
 30
0
 11
222.864224137931
 21
-4.359482758620695
 31
0
  0
LINE
  8
1
 62
7
 10
220.0142241379309
 20
23.54051724137931
 30
0
 11
220.0142241379311
 21
-4.8594827586207
 31
0
  0
LINE
  8
1
 62
3
 10
204.2642241379311
 20
38.7740306053286
 30
0
 11
204.2642241379311
 21
37.3405172413793
 31
0
  0
LINE
  8
1
 62
3
 10
204.464224137931
 20
37.3405172413793
 30
0
 11
204.464224137931
 21
38.7740306053286
 31
0
  0
LINE
  8
1
 62
3
 10
204.6642241379311
 20
38.7740306053286
 30
0
 11
204.6642241379311
 21
37.3405172413793
 31
0
  0
LINE
  8
1
 62
3
 10
205.0642241379311
 20
37.3405172413793
 30
0
 11
205.0642241379311
 21
38.7740306053286
 31
0
  0
LINE
  8
1
 62
3
 10
205.2642241379311
 20
38.7740306053286
 30
0
 11
205.2642241379311
 21
37.3405172413793
 31
0
  0
LINE
  8
1
 62
3
 10
205.4642241379311
 20
37.3405172413793
 30
0
 11
205.4642241379311
 21
38.7740306053286
 31
0
  0
LINE
  8
1
 62
3
 10
204.8642241379311
 20
37.3405172413793
 30
0
 11
204.8642241379311
 21
38.7740306053286
 31
0
  0
LINE
  8
1
 62
7
 10
204.0142241379309
 20
37.3405172413793
 30
0
 11
205.7142241379309
 21
37.3405172413793
 31
0
  0
LINE
  8
1
 62
3
  6
DASHDOT
 10
228.3642241379309
 20
9.340517241379304
 30
0
 11
230.9547413793104
 21
9.340517241379304
 31
0
  0
LINE
  8
1
 62
7
 10
204.0142241379309
 20
29.3405172413793
 30
0
 11
204.0142241379309
 21
37.3405172413793
 31
0
  0
LINE
  8
1
 62
7
 10
225.764224137931
 20
29.09051724137929
 30
0
 11
226.1579702267904
 21
29.09051724137929
 31
0
  0
LINE
  8
1
 62
7
 10
226.1579702267904
 20
24.5905172413793
 30
0
 11
225.764224137931
 21
24.5905172413793
 31
0
  0
LINE
  8
1
 62
7
 10
225.4642241379309
 20
24.2405172413793
 30
0
 11
224.8642241379309
 21
24.2405172413793
 31
0
  0
LINE
  8
1
 62
7
 10
225.4642241379309
 20
29.4405172413793
 30
0
 11
225.4642241379309
 21
24.2405172413793
 31
0
  0
LINE
  8
1
 62
7
 10
224.8642241379309
 20
29.4405172413793
 30
0
 11
225.4642241379309
 21
29.4405172413793
 31
0
  0
LINE
  8
1
 62
7
 10
216.864224137931
 20
29.3405172413793
 30
0
 11
216.864224137931
 21
-10.65948275862069
 31
0
  0
LINE
  8
1
 62
7
 10
216.9642241379309
 20
3.590517241379318
 30
0
 11
216.964224137931
 21
-10.65948275862069
 31
0
  0
LINE
  8
1
 62
7
 10
205.7142241379309
 20
37.3405172413793
 30
0
 11
205.7142241379309
 21
29.3405172413793
 31
0
  0
LINE
  8
1
 62
7
 10
198.8642241379309
 20
29.3405172413793
 30
0
 11
216.864224137931
 21
29.3405172413793
 31
0
  0
LINE
  8
1
 62
7
 10
222.864224137931
 20
24.3405172413793
 30
0
 11
219.3642241379309
 21
24.3405172413793
 31
0
  0
LINE
  8
1
 62
7
 10
222.864224137931
 20
29.3405172413793
 30
0
 11
222.864224137931
 21
-10.65948275862069
 31
0
  0
LINE
  8
1
 62
7
 10
216.864224137931
 20
-10.65948275862069
 30
0
 11
198.8642241379309
 21
-10.65948275862069
 31
0
  0
LINE
  8
1
 62
7
 10
198.8642241379309
 20
-10.65948275862069
 30
0
 11
198.8642241379309
 21
29.3405172413793
 31
0
  0
LINE
  8
1
 62
3
  6
DASHDOT
 10
196.2547413793103
 20
9.340517241379304
 30
0
 11
198.8642241379309
 21
9.340517241379304
 31
0
  0
LINE
  8
1
 62
7
 10
222.864224137931
 20
-10.65948275862069
 30
0
 11
224.864224137931
 21
-10.65948275862069
 31
0
  0
LINE
  8
1
 62
7
 10
216.964224137931
 20
-10.65948275862069
 30
0
 11
219.3642241379311
 21
-10.65948275862069
 31
0
  0
LINE
  8
1
 62
7
 10
216.9642241379309
 20
29.3405172413793
 30
0
 11
216.964224137931
 21
-10.65948275862069
 31
0
  0
LINE
  8
1
 62
7
 10
222.2142241379308
 20
23.54051724137931
 30
0
 11
222.2142241379309
 21
-4.8594827586207
 31
0
  0
LINE
  8
1
 62
7
 10
220.0142241379309
 20
23.54051724137931
 30
0
 11
222.2142241379308
 21
23.54051724137931
 31
0
  0
LINE
  8
1
 62
7
 10
222.2142241379309
 20
-4.8594827586207
 30
0
 11
220.0142241379311
 21
-4.8594827586207
 31
0
  0
LINE
  8
1
 62
7
 10
228.3642241379309
 20
17.84051724137923
 30
0
 11
228.3642241379309
 21
0.840517241379304
 31
0
  0
LINE
  8
1
 62
7
 10
224.864224137931
 20
-10.65948275862069
 30
0
 11
224.8642241379309
 21
29.4405172413793
 31
0
  0
LINE
  8
1
 62
3
  6
DASHDOT
 10
335.464698696426
 20
9.340517241379304
 30
0
 11
333.042761973884
 21
9.340517241379304
 31
0
  0
LINE
  8
1
 62
3
  6
DASHDOT
 10
317.2690153988909
 20
19.11421645773776
 30
0
 11
320.8810327361408
 21
17.02881727575902
 31
0
  0
LINE
  8
1
 62
3
  6
DASHDOT
 10
350.9863088779956
 20
19.0335064915275
 30
0
 11
347.6209527781787
 21
17.0905172413793
 31
0
  0
LINE
  8
1
 62
3
  6
CENTER
 10
334.19755901952
 20
-6.27134980302849
 30
0
 11
334.19755901952
 21
-10.03211493789951
 31
0
  0
LINE
  8
1
 62
3
  6
DASHDOT
 10
334.19755901952
 20
10.3077347747926
 30
0
 11
334.19755901952
 21
8.150311119414432
 31
0
  0
LINE
  8
1
 62
3
 10
313.3418221840326
 20
42.56371306972929
 30
0
 11
312.6418221840326
 21
43.77614863502753
 31
0
  0
LINE
  8
1
 62
3
 10
313.6016298051679
 20
42.71371306972929
 30
0
 11
312.9016298051678
 21
43.92614863502752
 31
0
  0
LINE
  8
1
 62
3
 10
313.8614374263033
 20
42.86371306972929
 30
0
 11
313.1614374263033
 21
44.07614863502753
 31
0
  0
LINE
  8
1
 62
3
 10
314.1212450474386
 20
43.0137130697293
 30
0
 11
313.4212450474386
 21
44.22614863502754
 31
0
  0
LINE
  8
1
 62
3
 10
314.3810526685738
 20
43.16371306972929
 30
0
 11
313.6810526685739
 21
44.37614863502752
 31
0
  0
LINE
  8
1
 62
3
 10
314.8140653704661
 20
43.41371306972926
 30
0
 11
314.1140653704661
 21
44.62614863502747
 31
0
  0
LINE
  8
1
 62
3
 10
315.0738729916013
 20
43.56371306972927
 30
0
 11
314.3738729916013
 21
44.77614863502747
 31
0
  0
LINE
  8
1
 62
3
 10
315.3336806127368
 20
43.71371306972927
 30
0
 11
314.6336806127368
 21
44.92614863502749
 31
0
  0
LINE
  8
1
 62
3
 10
315.593488233872
 20
43.86371306972928
 30
0
 11
314.8934882338721
 21
45.07614863502749
 31
0
  0
LINE
  8
1
 62
3
 10
315.8532958550074
 20
44.01371306972928
 30
0
 11
315.1532958550075
 21
45.2261486350275
 31
0
  0
LINE
  8
1
 62
7
 10
313.1253158330865
 20
42.43871306972928
 30
0
 11
316.0698022059536
 21
44.1387130697293
 31
0
  0
LINE
  8
1
 62
7
 10
322.7615063206558
 20
25.74834155384696
 30
0
 11
313.1253158330865
 21
42.43871306972928
 31
0
  0
LINE
  8
1
 62
7
 10
316.0698022059536
 20
44.1387130697293
 30
0
 11
325.7059926935231
 21
27.44834155384697
 31
0
  0
LINE
  8
1
 62
3
 10
263.264224137931
 20
38.7740306053286
 30
0
 11
263.264224137931
 21
37.3405172413793
 31
0
  0
LINE
  8
1
 62
3
 10
263.4642241379311
 20
37.3405172413793
 30
0
 11
263.4642241379311
 21
38.7740306053286
 31
0
  0
LINE
  8
1
 62
3
 10
263.6642241379311
 20
38.7740306053286
 30
0
 11
263.6642241379311
 21
37.3405172413793
 31
0
  0
LINE
  8
1
 62
3
 10
264.064224137931
 20
37.3405172413793
 30
0
 11
264.064224137931
 21
38.7740306053286
 31
0
  0
LINE
  8
1
 62
3
 10
264.264224137931
 20
38.7740306053286
 30
0
 11
264.264224137931
 21
37.3405172413793
 31
0
  0
LINE
  8
1
 62
3
 10
264.4642241379311
 20
37.3405172413793
 30
0
 11
264.4642241379311
 21
38.7740306053286
 31
0
  0
LINE
  8
1
 62
3
 10
263.8642241379311
 20
37.3405172413793
 30
0
 11
263.8642241379311
 21
38.7740306053286
 31
0
  0
LINE
  8
1
 62
7
 10
263.0142241379309
 20
37.3405172413793
 30
0
 11
264.7142241379309
 21
37.3405172413793
 31
0
  0
LINE
  8
1
 62
3
  6
DASHDOT
 10
287.364224137931
 20
9.340517241379304
 30
0
 11
289.9547413793104
 21
9.340517241379304
 31
0
  0
LINE
  8
1
 62
7
 10
263.0142241379309
 20
29.3405172413793
 30
0
 11
263.0142241379309
 21
37.3405172413793
 31
0
  0
LINE
  8
1
 62
7
 10
348.3246705608278
 20
1.409392195117252
 30
0
 11
348.1296705608278
 21
1.071642287641398
 31
0
  0
LINE
  8
1
 62
7
 10
350.1718785394856
 20
1.618850266299078
 30
0
 11
349.8341286320096
 21
1.813850266299074
 31
0
  0
LINE
  8
1
 62
7
 10
350.3813366106675
 20
-0.2283577123586551
 30
0
 11
350.5763366106675
 21
0.1093921951172781
 31
0
  0
LINE
  8
1
 62
7
 10
348.5341286320096
 20
-0.4378157835404807
 30
0
 11
348.8718785394856
 21
-0.6328157835404769
 31
0
  0
LINE
  8
1
 62
7
 10
320.2654474782121
 20
1.07164228764136
 30
0
 11
320.0704474782121
 21
1.40939219511729
 31
0
  0
LINE
  8
1
 62
7
 10
319.5232394995543
 20
-0.632815783540451
 30
0
 11
319.8609894070302
 21
-0.437815783540448
 31
0
  0
LINE
  8
1
 62
7
 10
317.8187814283725
 20
0.1093921951172692
 30
0
 11
318.0137814283726
 21
-0.2283577123586156
 31
0
  0
LINE
  8
1
 62
7
 10
318.5609894070303
 20
1.81385026629914
 30
0
 11
318.2232394995543
 21
1.618850266299078
 31
0
  0
LINE
  8
1
 62
7
 10
334.00255901952
 20
25.54051724137929
 30
0
 11
334.39255901952
 21
25.54051724137929
 31
0
  0
LINE
  8
1
 62
7
 10
332.89755901952
 20
27.0355172413793
 30
0
 11
332.89755901952
 21
26.64551724137929
 31
0
  0
LINE
  8
1
 62
7
 10
334.39255901952
 20
28.1405172413793
 30
0
 11
334.00255901952
 21
28.1405172413793
 31
0
  0
LINE
  8
1
 62
7
 10
335.49755901952
 20
26.64551724137929
 30
0
 11
335.49755901952
 21
27.0355172413793
 31
0
  0
LINE
  8
1
 62
3
 10
282.3249936533896
 20
25.54051724137929
 30
0
 11
282.3249936533895
 21
28.1405172413793
 31
0
  0
LINE
  8
1
 62
3
 10
282.3249936533895
 20
27.5405172413793
 30
0
 11
283.3642241379308
 21
28.1405172413793
 31
0
  0
LINE
  8
1
 62
3
 10
271.8642241379309
 20
27.5405172413793
 30
0
 11
282.3249936533895
 21
27.5405172413793
 31
0
  0
LINE
  8
1
 62
3
 10
282.3249936533895
 20
26.14051724137929
 30
0
 11
283.3642241379308
 21
25.54051724137929
 31
0
  0
LINE
  8
1
 62
3
 10
271.8642241379309
 20
26.14051724137929
 30
0
 11
282.3249936533895
 21
26.14051724137929
 31
0
  0
LINE
  8
1
 62
7
 10
272.4642241379309
 20
25.54051724137929
 30
0
 11
272.4642241379309
 21
28.1405172413793
 31
0
  0
LINE
  8
1
 62
7
 10
271.8642241379309
 20
27.5405172413793
 30
0
 11
272.4642241379309
 21
28.1405172413793
 31
0
  0
LINE
  8
1
 62
7
 10
271.8642241379309
 20
26.14051724137929
 30
0
 11
271.8642241379309
 21
27.5405172413793
 31
0
  0
LINE
  8
1
 62
7
 10
272.4642241379309
 20
25.54051724137929
 30
0
 11
271.8642241379309
 21
26.14051724137929
 31
0
  0
LINE
  8
1
 62
7
 10
284.7642241379309
 20
29.09051724137929
 30
0
 11
285.1579702267903
 21
29.09051724137929
 31
0
  0
LINE
  8
1
 62
7
 10
285.1579702267903
 20
24.5905172413793
 30
0
 11
284.7642241379309
 21
24.5905172413793
 31
0
  0
LINE
  8
1
 62
7
 10
284.464224137931
 20
24.2405172413793
 30
0
 11
283.8642241379308
 21
24.2405172413793
 31
0
  0
LINE
  8
1
 62
7
 10
284.4642241379308
 20
29.4405172413793
 30
0
 11
284.464224137931
 21
24.2405172413793
 31
0
  0
LINE
  8
1
 62
7
 10
283.8642241379308
 20
29.4405172413793
 30
0
 11
284.4642241379308
 21
29.4405172413793
 31
0
  0
LINE
  8
1
 62
7
 10
338.2390109038473
 20
0.8405172413793611
 30
0
 11
330.1561071351927
 21
0.8405172413793611
 31
0
  0
LINE
  8
1
 62
7
 10
328.8570690295161
 20
1.59051724137936
 30
0
 11
324.8156171451884
 21
8.590517241379361
 31
0
  0
LINE
  8
1
 62
7
 10
324.8156171451884
 20
10.09051724137935
 30
0
 11
328.8570690295161
 21
17.09051724137925
 31
0
  0
LINE
  8
1
 62
7
 10
330.1561071351927
 20
17.84051724137921
 30
0
 11
338.2390109038473
 21
17.84051724137925
 31
0
  0
LINE
  8
1
 62
7
 10
339.538049009524
 20
17.09051724137925
 30
0
 11
343.5795008938513
 21
10.09051724137925
 31
0
  0
LINE
  8
1
 62
7
 10
343.5795008938513
 20
8.590517241379247
 30
0
 11
339.5380490095242
 21
1.59051724137936
 31
0
  0
LINE
  8
1
 62
7
 10
283.8642241379308
 20
-0.6594827586206975
 30
0
 11
281.8642241379309
 21
-0.6594827586206975
 31
0
  0
LINE
  8
1
 62
7
 10
283.8642241379308
 20
19.34051724137931
 30
0
 11
281.8642241379309
 21
19.34051724137932
 31
0
  0
LINE
  8
1
 62
7
 10
314.59755901952
 20
43.2887130697293
 30
0
 11
324.19755901952
 21
26.66102531706807
 31
0
  0
LINE
  8
1
 62
7
 10
275.8642241379309
 20
3.574831816430038
 30
0
 11
275.8642241379309
 21
-10.65948275862069
 31
0
  0
LINE
  8
1
 62
7
 10
275.964224137931
 20
3.590517241379318
 30
0
 11
275.9642241379311
 21
-10.65948275862069
 31
0
  0
LINE
  8
1
 62
7
 10
275.8642241379309
 20
25.54051724137929
 30
0
 11
275.8642241379309
 21
14.87217972041485
 31
0
  0
LINE
  8
1
 62
7
 10
264.7142241379309
 20
37.3405172413793
 30
0
 11
264.7142241379309
 21
29.3405172413793
 31
0
  0
LINE
  8
1
 62
7
 10
281.8642241379311
 20
25.54051724137929
 30
0
 11
281.8642241379311
 21
17.84051724137925
 31
0
  0
LINE
  8
1
 62
7
 10
257.8642241379309
 20
29.3405172413793
 30
0
 11
283.8642241379309
 21
29.3405172413793
 31
0
  0
LINE
  8
1
 62
7
 10
281.8642241379311
 20
24.3405172413793
 30
0
 11
275.8642241379309
 21
24.3405172413793
 31
0
  0
LINE
  8
1
 62
7
 10
275.8642241379309
 20
25.4905172413793
 30
0
 11
283.8642241379309
 21
25.4905172413793
 31
0
  0
LINE
  8
1
 62
7
 10
283.8642241379308
 20
28.1905172413793
 30
0
 11
275.8642241379309
 21
28.1905172413793
 31
0
  0
LINE
  8
1
 62
7
 10
281.8642241379309
 20
0.8405172413793042
 30
0
 11
281.8642241379309
 21
-10.65948275862069
 31
0
  0
LINE
  8
1
 62
7
 10
278.864224137931
 20
17.84051724137923
 30
0
 11
278.8642241379309
 21
0.8405172413793051
 31
0
  0
LINE
  8
1
 62
7
 10
278.3642241379311
 20
13.8405172413793
 30
0
 11
275.964224137931
 21
13.84051724137931
 31
0
  0
LINE
  8
1
 62
7
 10
275.9642241379311
 20
4.840517241379304
 30
0
 11
278.3642241379311
 21
4.840517241379304
 31
0
  0
LINE
  8
1
 62
7
 10
281.8642241379309
 20
29.3405172413793
 30
0
 11
281.8642241379309
 21
28.1405172413793
 31
0
  0
LINE
  8
1
 62
3
  6
DASHDOT
 10
256.9902789668111
 20
-8.159482758620698
 30
0
 11
284.9902789668111
 21
-8.159482758620696
 31
0
  0
LINE
  8
1
 62
7
 10
275.8642241379309
 20
-9.659482758620696
 30
0
 11
257.8642241379309
 21
-9.659482758620698
 31
0
  0
LINE
  8
1
 62
7
 10
257.8642241379309
 20
-6.659482758620697
 30
0
 11
275.8642241379309
 21
-6.659482758620697
 31
0
  0
LINE
  8
1
 62
7
 10
278.3642241379311
 20
-5.159482758620695
 30
0
 11
275.9642241379311
 21
-5.159482758620695
 31
0
  0
LINE
  8
1
 62
7
 10
283.8642241379309
 20
-5.159482758620695
 30
0
 11
281.8642241379309
 21
-5.159482758620697
 31
0
  0
LINE
  8
1
 62
7
 10
275.8642241379309
 20
29.3405172413793
 30
0
 11
275.8642241379309
 21
28.1405172413793
 31
0
  0
LINE
  8
1
 62
7
 10
275.8642241379309
 20
-10.65948275862069
 30
0
 11
257.8642241379309
 21
-10.65948275862069
 31
0
  0
LINE
  8
1
 62
7
 10
257.8642241379309
 20
-10.65948275862069
 30
0
 11
257.8642241379309
 21
29.3405172413793
 31
0
  0
LINE
  8
1
 62
3
  6
DASHDOT
 10
255.2547413793103
 20
9.340517241379304
 30
0
 11
257.8642241379309
 21
9.340517241379304
 31
0
  0
LINE
  8
1
 62
7
 10
281.8642241379309
 20
-10.65948275862069
 30
0
 11
283.8642241379309
 21
-10.65948275862069
 31
0
  0
LINE
  8
1
 62
7
 10
283.8642241379309
 20
-10.65948275862069
 30
0
 11
283.8642241379308
 21
0.840517241379301
 31
0
  0
LINE
  8
1
 62
7
 10
275.9642241379311
 20
-10.65948275862069
 30
0
 11
278.3642241379311
 21
-10.65948275862069
 31
0
  0
LINE
  8
1
 62
7
 10
278.3642241379311
 20
-10.65948275862069
 30
0
 11
278.3642241379309
 21
24.3405172413793
 31
0
  0
LINE
  8
1
 62
7
 10
275.8642241379309
 20
15.3405172413793
 30
0
 11
260.864224137931
 21
15.3405172413793
 31
0
  0
LINE
  8
1
 62
7
 10
275.8642241379309
 20
3.340517241379303
 30
0
 11
260.864224137931
 21
3.340517241379303
 31
0
  0
LINE
  8
1
 62
7
 10
275.964224137931
 20
24.3405172413793
 30
0
 11
275.9642241379311
 21
-10.65948275862069
 31
0
  0
LINE
  8
1
 62
7
 10
280.5142241379309
 20
23.04051724137929
 30
0
 11
281.8642241379309
 21
23.04051724137929
 31
0
  0
LINE
  8
1
 62
7
 10
280.5142241379309
 20
20.3405172413793
 30
0
 11
281.8642241379309
 21
20.3405172413793
 31
0
  0
LINE
  8
1
 62
7
 10
279.714224137931
 20
23.04051724137929
 30
0
 11
278.3642241379309
 21
23.04051724137929
 31
0
  0
LINE
  8
1
 62
7
 10
279.714224137931
 20
20.3405172413793
 30
0
 11
278.3642241379309
 21
20.3405172413793
 31
0
  0
LINE
  8
1
 62
7
 10
280.5142241379309
 20
-1.659482758620696
 30
0
 11
281.8642241379309
 21
-1.659482758620696
 31
0
  0
LINE
  8
1
 62
7
 10
280.5142241379309
 20
-4.359482758620695
 30
0
 11
281.8642241379309
 21
-4.359482758620695
 31
0
  0
LINE
  8
1
 62
7
 10
279.714224137931
 20
-1.659482758620696
 30
0
 11
278.4142241379311
 21
-1.659482758620696
 31
0
  0
LINE
  8
1
 62
7
 10
279.714224137931
 20
-4.359482758620695
 30
0
 11
278.4142241379311
 21
-4.359482758620695
 31
0
  0
LINE
  8
1
 62
7
 10
279.714224137931
 20
23.04051724137929
 30
0
 11
279.714224137931
 21
20.3405172413793
 31
0
  0
LINE
  8
1
 62
7
 10
280.5142241379309
 20
23.04051724137929
 30
0
 11
280.5142241379309
 21
20.3405172413793
 31
0
  0
LINE
  8
1
 62
7
 10
279.714224137931
 20
-1.659482758620696
 30
0
 11
279.714224137931
 21
-4.359482758620695
 31
0
  0
LINE
  8
1
 62
7
 10
280.5142241379309
 20
-1.659482758620696
 30
0
 11
280.5142241379309
 21
-4.359482758620695
 31
0
  0
LINE
  8
1
 62
7
 10
279.0142241379309
 20
23.54051724137931
 30
0
 11
279.0142241379309
 21
23.04051724137929
 31
0
  0
LINE
  8
1
 62
7
 10
281.2142241379309
 20
23.54051724137931
 30
0
 11
281.2142241379309
 21
23.04051724137929
 31
0
  0
LINE
  8
1
 62
7
 10
281.214224137931
 20
20.3405172413793
 30
0
 11
281.214224137931
 21
17.84051724137925
 31
0
  0
LINE
  8
1
 62
7
 10
279.0142241379309
 20
20.3405172413793
 30
0
 11
279.0142241379309
 21
17.84051724137925
 31
0
  0
LINE
  8
1
 62
7
 10
281.214224137931
 20
-1.659482758620696
 30
0
 11
281.214224137931
 21
0.840517241379303
 31
0
  0
LINE
  8
1
 62
7
 10
279.014224137931
 20
-1.659482758620696
 30
0
 11
279.014224137931
 21
0.840517241379303
 31
0
  0
LINE
  8
1
 62
7
 10
279.014224137931
 20
-4.359482758620695
 30
0
 11
279.014224137931
 21
-4.8594827586207
 31
0
  0
LINE
  8
1
 62
7
 10
281.214224137931
 20
-4.359482758620695
 30
0
 11
281.214224137931
 21
-4.8594827586207
 31
0
  0
LINE
  8
1
 62
7
 10
279.0142241379309
 20
23.54051724137931
 30
0
 11
281.2142241379309
 21
23.54051724137931
 31
0
  0
LINE
  8
1
 62
7
 10
281.214224137931
 20
-4.8594827586207
 30
0
 11
279.014224137931
 21
-4.8594827586207
 31
0
  0
LINE
  8
1
 62
7
 10
337.3200580187191
 20
11.8405172413793
 30
0
 11
331.0750600203208
 21
11.8405172413793
 31
0
  0
LINE
  8
1
 62
7
 10
337.19755901952
 20
-8.159482758620696
 30
0
 11
337.19755901952
 21
-10.43320269190589
 31
0
  0
LINE
  8
1
 62
7
 10
331.19755901952
 20
-8.159482758620698
 30
0
 11
331.19755901952
 21
-10.43320269190589
 31
0
  0
LINE
  8
1
 62
7
 10
347.8530035857476
 20
20.68859345273261
 30
0
 11
349.8221028090637
 21
21.82545341937521
 31
0
  0
LINE
  8
1
 62
7
 10
350.8530035857476
 20
15.49244103002599
 30
0
 11
352.8221028090637
 21
16.62930099666858
 31
0
  0
LINE
  8
1
 62
7
 10
317.5421144532924
 20
15.49244103002604
 30
0
 11
315.5730152299763
 21
16.62930099666858
 31
0
  0
LINE
  8
1
 62
7
 10
320.5421144532924
 20
20.68859345273267
 30
0
 11
318.5730152299763
 21
21.82545341937521
 31
0
  0
LINE
  8
1
 62
7
 10
287.364224137931
 20
17.84051724137923
 30
0
 11
287.364224137931
 21
0.840517241379304
 31
0
  0
LINE
  8
1
 62
7
 10
278.864224137931
 20
17.84051724137923
 30
0
 11
287.364224137931
 21
17.84051724137923
 31
0
  0
LINE
  8
1
 62
7
 10
287.364224137931
 20
0.840517241379304
 30
0
 11
278.8642241379309
 21
0.8405172413793051
 31
0
  0
LINE
  8
1
 62
7
 10
278.864224137931
 20
11.8405172413793
 30
0
 11
287.364224137931
 21
11.8405172413793
 31
0
  0
LINE
  8
1
 62
7
 10
287.364224137931
 20
5.340517241379306
 30
0
 11
278.864224137931
 21
5.340517241379308
 31
0
  0
LINE
  8
1
 62
7
 10
283.8642241379309
 20
17.84051724137923
 30
0
 11
283.8642241379308
 21
25.54051724137929
 31
0
  0
LINE
  8
1
 62
7
 10
272.4642241379309
 20
28.1405172413793
 30
0
 11
284.464224137931
 21
28.1405172413793
 31
0
  0
LINE
  8
1
 62
7
 10
272.4642241379309
 20
25.54051724137929
 30
0
 11
284.464224137931
 21
25.54051724137929
 31
0
  0
LINE
  8
1
 62
7
 10
283.8642241379309
 20
28.1405172413793
 30
0
 11
283.8642241379308
 21
29.4405172413793
 31
0
  0
ARC
  8
1
 62
7
 10
225.764224137931
 20
28.7905172413793
 30
0
 40
0.2999999999999901
 50
90
 51
180
  0
ARC
  8
1
 62
7
 10
225.764224137931
 20
24.89051724137929
 30
0
 40
0.299999999999983
 50
180
 51
270
  0
ARC
  8
1
 62
7
 10
226.1579702267904
 20
28.29051724137929
 30
0
 40
0.8000000000000683
 50
16.19135163861191
 51
90
  0
ARC
  8
1
 62
7
 10
226.1579702267904
 20
25.3905172413793
 30
0
 40
0.8000000000000007
 50
270
 51
343.8086483613839
  0
ARC
  8
1
 62
7
 10
284.7642241379309
 20
28.7905172413793
 30
0
 40
0.2999999999999901
 50
90
 51
180
  0
ARC
  8
1
 62
7
 10
284.7642241379309
 20
24.89051724137929
 30
0
 40
0.3000000000000114
 50
180
 51
270
  0
ARC
  8
1
 62
7
 10
285.1579702267903
 20
28.29051724137929
 30
0
 40
0.799999999999979
 50
16.19135163861907
 51
90
  0
ARC
  8
1
 62
7
 10
285.1579702267903
 20
25.3905172413793
 30
0
 40
0.8000000000000007
 50
270
 51
343.8086483613844
  0
ARC
  8
1
 62
7
 10
342.2804627881748
 20
9.340517241379247
 30
0
 40
1.499999999999828
 50
329.9999999999962
 51
30.00000000000386
  0
ARC
  8
1
 62
7
 10
338.2390109038473
 20
2.34051724137936
 30
0
 40
1.499999999999999
 50
270
 51
330.0000000000038
  0
ARC
  8
1
 62
7
 10
330.1561071351927
 20
2.34051724137936
 30
0
 40
1.499999999999975
 50
210.0000000000005
 51
270
  0
ARC
  8
1
 62
7
 10
326.1146552508653
 20
9.340517241379359
 30
0
 40
1.500000000000217
 50
150.0000000000052
 51
209.9999999999951
  0
ARC
  8
1
 62
7
 10
330.1561071351927
 20
16.34051724137922
 30
0
 40
1.499999999999989
 50
90
 51
149.9999999999985
  0
ARC
  8
1
 62
7
 10
338.2390109038473
 20
16.3405172413793
 30
0
 40
1.5
 50
29.99999999999782
 51
90
  0
ARC
  8
1
 62
7
 10
334.19755901952
 20
-8.159482758620698
 30
0
 40
3
 50
0
 51
90
  0
ARC
  8
1
 62
7
 10
334.19755901952
 20
-8.159482758620698
 30
0
 40
3.000000000000001
 50
90
 51
180
  0
ARC
  8
1
 62
7
 10
349.3530035857476
 20
18.0905172413793
 30
0
 40
2.999999999999997
 50
120
 51
210.0000000000009
  0
ARC
  8
1
 62
7
 10
349.3530035857476
 20
18.0905172413793
 30
0
 40
2.999999999999897
 50
210.0000000000009
 51
300.0000000000001
  0
ARC
  8
1
 62
7
 10
319.0421144532924
 20
18.09051724137935
 30
0
 40
2.999999999999994
 50
239.9999999999999
 51
329.9999999999989
  0
ARC
  8
1
 62
7
 10
319.0421144532924
 20
18.09051724137935
 30
0
 40
2.999999999999901
 50
329.9999999999989
 51
60.00000000000003
  0
ARC
  8
1
 62
7
 10
221.1642241379309
 20
26.8405172413793
 30
0
 40
6
 50
0
 51
16.19135163861605
  0
ARC
  8
1
 62
7
 10
221.1642241379309
 20
26.8405172413793
 30
0
 40
6.000000000000066
 50
343.8086483613834
 51
0
  0
ARC
  8
1
 62
3
  6
DASHDOT
 10
334.19755901952
 20
9.340517241379304
 30
0
 40
17.49999999999996
 50
142.9563296298943
 51
156.8817398706755
  0
ARC
  8
1
 62
3
  6
DASHDOT
 10
334.19755901952
 20
9.340517241379304
 30
0
 40
17.49999999999993
 50
23.40896204411863
 51
36.25902495675253
  0
ARC
  8
1
 62
3
  6
DASHDOT
 10
334.19755901952
 20
9.340517241379304
 30
0
 40
17.50000000000001
 50
263.7924594026823
 51
276.6971167680795
  0
ARC
  8
1
 62
7
 10
348.8771705608279
 20
2.366350266299063
 30
0
 40
1.105000000000039
 50
239.9999999999972
 51
329.9999999999978
  0
ARC
  8
1
 62
7
 10
351.1288366106675
 20
1.066350266299089
 30
0
 40
1.105000000000103
 50
150.0000000000037
 51
239.9999999999997
  0
ARC
  8
1
 62
7
 10
349.8288366106675
 20
-1.185315783540465
 30
0
 40
1.105000000000009
 50
59.99999999999972
 51
150.0000000000038
  0
ARC
  8
1
 62
7
 10
347.5771705608278
 20
0.1146842164595088
 30
0
 40
1.104999999999955
 50
329.9999999999993
 51
60.00000000000434
  0
ARC
  8
1
 62
7
 10
320.8179474782121
 20
0.1146842164595611
 30
0
 40
1.105
 50
120.0000000000006
 51
209.9999999999986
  0
ARC
  8
1
 62
7
 10
318.5662814283725
 20
-1.185315783540459
 30
0
 40
1.104999999999965
 50
30.00000000000155
 51
119.9999999999943
  0
ARC
  8
1
 62
7
 10
317.2662814283726
 20
1.066350266299139
 30
0
 40
1.105000000000004
 50
299.9999999999936
 51
29.99999999999991
  0
ARC
  8
1
 62
7
 10
319.5179474782121
 20
2.366350266299089
 30
0
 40
1.104999999999935
 50
209.9999999999989
 51
300.0000000000006
  0
ARC
  8
1
 62
7
 10
332.89755901952
 20
25.54051724137929
 30
0
 40
1.105000000000018
 50
0
 51
90
  0
ARC
  8
1
 62
7
 10
332.89755901952
 20
28.1405172413793
 30
0
 40
1.105
 50
270
 51
0
  0
ARC
  8
1
 62
7
 10
335.49755901952
 20
28.1405172413793
 30
0
 40
1.105000000000018
 50
180
 51
270
  0
ARC
  8
1
 62
7
 10
335.49755901952
 20
25.54051724137929
 30
0
 40
1.105
 50
90
 51
180
  0
ARC
  8
1
 62
7
 10
280.1642241379308
 20
26.8405172413793
 30
0
 40
6
 50
0
 51
16.19135163861693
  0
ARC
  8
1
 62
7
 10
276.3642241379309
 20
14.5405172413793
 30
0
 40
0.5999999999999784
 50
131.8103148957775
 51
228.1896851042225
  0
ARC
  8
1
 62
7
 10
276.0642241379309
 20
4.140517241379301
 30
0
 40
0.6000000000000033
 50
99.5940682268516
 51
260.4059317731484
  0
ARC
  8
1
 62
7
 10
260.5642241379309
 20
4.140517241379301
 30
0
 40
0.5999999999999782
 50
299.9999999999962
 51
60.00000000000379
  0
ARC
  8
1
 62
7
 10
260.864224137931
 20
14.5405172413793
 30
0
 40
0.5999999999999996
 50
270
 51
90
  0
ARC
  8
1
 62
7
 10
334.19755901952
 20
9.340517241379304
 30
0
 40
3.999999999999996
 50
270
 51
38.68218745348995
  0
ARC
  8
1
 62
7
 10
334.19755901952
 20
9.340517241379304
 30
0
 40
3.999999999999994
 50
141.3178125465105
 51
270
  0
ARC
  8
1
 62
7
 10
280.1642241379308
 20
26.8405172413793
 30
0
 40
6.00000000000009
 50
343.8086483613835
 51
0
  0
CIRCLE
  8
1
 62
7
 10
349.3530035857476
 20
0.590517241379299
 30
0
 40
2.25
  0
CIRCLE
  8
1
 62
7
 10
319.0421144532923
 20
0.5905172413793151
 30
0
 40
2.249999999999886
  0
CIRCLE
  8
1
 62
7
 10
334.19755901952
 20
26.8405172413793
 30
0
 40
2.25
  0
CIRCLE
  8
1
 62
7
 10
274.1334549071618
 20
4.140517241379301
 30
0
 40
0.5999999999999659
  0
CIRCLE
  8
1
 62
7
 10
275.164224137931
 20
14.5405172413793
 30
0
 40
0.6000000000000227
  0
CIRCLE
  8
1
 62
7
 10
272.0719164456233
 20
4.140517241379301
 30
0
 40
0.6000000000001364
  0
CIRCLE
  8
1
 62
7
 10
273.1026856763925
 20
14.5405172413793
 30
0
 40
0.5999999999999659
  0
CIRCLE
  8
1
 62
7
 10
270.0103779840848
 20
4.140517241379301
 30
0
 40
0.5999999999999659
  0
CIRCLE
  8
1
 62
7
 10
271.0411472148539
 20
14.5405172413793
 30
0
 40
0.6000000000001364
  0
CIRCLE
  8
1
 62
7
 10
267.9488395225464
 20
4.140517241379301
 30
0
 40
0.6000000000000227
  0
CIRCLE
  8
1
 62
7
 10
268.9796087533155
 20
14.5405172413793
 30
0
 40
0.6000000000001933
  0
CIRCLE
  8
1
 62
7
 10
265.8873010610079
 20
4.140517241379304
 30
0
 40
0.5999999999999091
  0
CIRCLE
  8
1
 62
7
 10
266.9180702917772
 20
14.5405172413793
 30
0
 40
0.5999999999999659
  0
CIRCLE
  8
1
 62
7
 10
263.8257625994695
 20
4.140517241379304
 30
0
 40
0.5999999999999091
  0
CIRCLE
  8
1
 62
7
 10
264.8565318302386
 20
14.5405172413793
 30
0
 40
0.6000000000000796
  0
CIRCLE
  8
1
 62
7
 10
261.7642241379309
 20
4.140517241379301
 30
0
 40
0.5999999999999659
  0
CIRCLE
  8
1
 62
7
 10
262.7949933687002
 20
14.5405172413793
 30
0
 40
0.6000000000000227
  0
CIRCLE
  8
1
 62
7
 10
334.19755901952
 20
9.340517241379304
 30
0
 40
10.5
  0
CIRCLE
  8
1
 62
7
 10
334.19755901952
 20
9.340517241379304
 30
0
 40
20
  0
CIRCLE
  8
1
 62
7
 10
334.19755901952
 20
-8.159482758620698
 30
0
 40
1.5
  0
CIRCLE
  8
1
 62
7
 10
349.3530035857476
 20
18.0905172413793
 30
0
 40
1.5
  0
CIRCLE
  8
1
 62
7
 10
319.0421144532924
 20
18.09051724137935
 30
0
 40
1.5
  0
TEXT
  8
1
 62
7
 10
190.2071012178026
 20
49.32093514059491
 30
0
 40
2
  1
MCNB 2
 41
0.891
  7
SIMPLEX
 72
1
 11
195.5531012178026
 21
49.32093514059491
 31
0
  0
ENDSEC
  0
EOF
