  0
SECTION
  2
HEADER
  9
$ACADVER
  1
AC1009
  9
$INSBASE
 10
0.0
 20
0.0
 30
0.0
  9
$EXTMIN
 10
189.0709583606598
 20
-103.2675725521497
 30
0.0
  9
$EXTMAX
 10
367.45694780421047
 20
-18.18614326051269
 30
0.0
  9
$LIMMIN
 10
188.86560121780261
 20
-103.2675725521497
  9
$LIMMAX
 10
367.45694780421047
 20
-18.18614326051269
  9
$ORTHOMODE
 70
     0
  9
$REGENMODE
 70
     1
  9
$FILLMODE
 70
     1
  9
$QTEXTMODE
 70
     0
  9
$MIRRTEXT
 70
     1
  9
$DRAGMODE
 70
     2
  9
$LTSCALE
 40
1.0
  9
$OSMODE
 70
    37
  9
$ATTMODE
 70
     1
  9
$TEXTSIZE
 40
3.5
  9
$TRACEWID
 40
0.5
  9
$TEXTSTYLE
  7
STANDARD
  9
$CLAYER
  8
0
  9
$CELTYPE
  6
BYLAYER
  9
$CECOLOR
 62
   256
  9
$DIMSCALE
 40
1.0
  9
$DIMASZ
 40
0.18
  9
$DIMEXO
 40
0.0625
  9
$DIMDLI
 40
0.38
  9
$DIMRND
 40
0.0
  9
$DIMDLE
 40
0.0
  9
$DIMEXE
 40
0.18
  9
$DIMTP
 40
0.0
  9
$DIMTM
 40
0.0
  9
$DIMTXT
 40
0.18
  9
$DIMCEN
 40
0.09
  9
$DIMTSZ
 40
0.0
  9
$DIMTOL
 70
     0
  9
$DIMLIM
 70
     0
  9
$DIMTIH
 70
     1
  9
$DIMTOH
 70
     1
  9
$DIMSE1
 70
     0
  9
$DIMSE2
 70
     0
  9
$DIMTAD
 70
     0
  9
$DIMZIN
 70
     0
  9
$DIMBLK
  1

  9
$DIMASO
 70
     1
  9
$DIMSHO
 70
     1
  9
$DIMPOST
  1

  9
$DIMAPOST
  1

  9
$DIMALT
 70
     0
  9
$DIMALTD
 70
     2
  9
$DIMALTF
 40
25.399999999999999
  9
$DIMLFAC
 40
1.0
  9
$DIMTOFL
 70
     0
  9
$DIMTVP
 40
0.0
  9
$DIMTIX
 70
     0
  9
$DIMSOXD
 70
     0
  9
$DIMSAH
 70
     0
  9
$DIMBLK1
  1

  9
$DIMBLK2
  1

  9
$DIMSTYLE
  2
STANDARD
  9
$DIMCLRD
 70
     0
  9
$DIMCLRE
 70
     0
  9
$DIMCLRT
 70
     0
  9
$DIMTFAC
 40
1.0
  9
$DIMGAP
 40
0.09
  9
$LUNITS
 70
     2
  9
$LUPREC
 70
     4
  9
$SKETCHINC
 40
0.1
  9
$FILLETRAD
 40
2.0
  9
$AUNITS
 70
     0
  9
$AUPREC
 70
     0
  9
$MENU
  1
ACAD
  9
$ELEVATION
 40
0.0
  9
$PELEVATION
 40
0.0
  9
$THICKNESS
 40
0.0
  9
$LIMCHECK
 70
     0
  9
$BLIPMODE
 70
     0
  9
$CHAMFERA
 40
0.0
  9
$CHAMFERB
 40
0.0
  9
$SKPOLY
 70
     0
  9
$TDCREATE
 40
2452094.9506019671
  9
$TDUPDATE
 40
2452094.9514130778
  9
$TDINDWG
 40
0.0008283565
  9
$TDUSRTIMER
 40
0.0008283565
  9
$USRTIMER
 70
     1
  9
$ANGBASE
 50
0.0
  9
$ANGDIR
 70
     0
  9
$PDMODE
 70
     0
  9
$PDSIZE
 40
0.0
  9
$PLINEWID
 40
0.0
  9
$COORDS
 70
     1
  9
$SPLFRAME
 70
     0
  9
$SPLINETYPE
 70
     6
  9
$SPLINESEGS
 70
     8
  9
$ATTDIA
 70
     0
  9
$ATTREQ
 70
     1
  9
$HANDLING
 70
 10241
  9
$HANDSEED
  5
150
  9
$SURFTAB1
 70
     6
  9
$SURFTAB2
 70
     6
  9
$SURFTYPE
 70
     6
  9
$SURFU
 70
     6
  9
$SURFV
 70
     6
  9
$UCSNAME
  2

  9
$UCSORG
 10
0.0
 20
0.0
 30
0.0
  9
$UCSXDIR
 10
1.0
 20
0.0
 30
0.0
  9
$UCSYDIR
 10
0.0
 20
1.0
 30
0.0
  9
$PUCSNAME
  2

  9
$PUCSORG
 10
0.0
 20
0.0
 30
0.0
  9
$PUCSXDIR
 10
1.0
 20
0.0
 30
0.0
  9
$PUCSYDIR
 10
0.0
 20
1.0
 30
0.0
  9
$USERI1
 70
     0
  9
$USERI2
 70
     0
  9
$USERI3
 70
     0
  9
$USERI4
 70
     0
  9
$USERI5
 70
     0
  9
$USERR1
 40
0.0
  9
$USERR2
 40
0.0
  9
$USERR3
 40
0.0
  9
$USERR4
 40
0.0
  9
$USERR5
 40
0.0
  9
$WORLDVIEW
 70
     1
  9
$SHADEDGE
 70
     3
  9
$SHADEDIF
 70
    70
  9
$TILEMODE
 70
     1
  9
$MAXACTVP
 70
    64
  9
$PLIMCHECK
 70
     0
  9
$PEXTMIN
 10
1.0000000000000000E+020
 20
1.0000000000000000E+020
 30
1.0000000000000000E+020
  9
$PEXTMAX
 10
-1.0000000000000000E+020
 20
-1.0000000000000000E+020
 30
-1.0000000000000000E+020
  9
$PLIMMIN
 10
0.0
 20
0.0
  9
$PLIMMAX
 10
12.0
 20
9.0
  9
$UNITMODE
 70
     0
  9
$VISRETAIN
 70
     1
  9
$PLINEGEN
 70
     0
  9
$PSLTSCALE
 70
     1
  0
ENDSEC
  0
SECTION
  2
TABLES
  0
TABLE
  2
VPORT
 70
     2
  0
VPORT
  2
*ACTIVE
 70
     0
 10
0.0
 20
0.0
 11
1.0
 21
1.0
 12
199.69303378347519
 22
-22.443990948193282
 13
0.0
 23
0.0
 14
1.0
 24
1.0
 15
0.0
 25
0.0
 16
0.0
 26
0.0
 36
1.0
 17
0.0
 27
0.0
 37
0.0
 40
9.000000090982553
 41
2.4144144144144142
 42
50.0
 43
0.0
 44
0.0
 50
0.0
 51
0.0
 71
     0
 72
   100
 73
     1
 74
     1
 75
     0
 76
     0
 77
     0
 78
     0
  0
ENDTAB
  0
TABLE
  2
LTYPE
 70
     9
  0
LTYPE
  2
CONTINUOUS
 70
     0
  3
Solid line
 72
    65
 73
     0
 40
0.0
  0
LTYPE
  2
BORDER
 70
     0
  3
__ __ . __ __ .
 72
    65
 73
     6
 40
8.2246014875319382
 49
2.349886139294838
 49
-1.174943069647419
 49
2.349886139294838
 49
-1.174943069647419
 49
0.0
 49
-1.174943069647419
  0
LTYPE
  2
CENTER
 70
     0
  3
____ _ ____ _
 72
    65
 73
     4
 40
9.3995445571793557
 49
5.8747153482370971
 49
-1.174943069647419
 49
1.174943069647419
 49
-1.174943069647419
  0
LTYPE
  2
DASHDOT
 70
     0
  3
__ . __ . __ .
 72
    65
 73
     4
 40
4.6997722785896778
 49
2.349886139294838
 49
-1.174943069647419
 49
0.0
 49
-1.174943069647419
  0
LTYPE
  2
DASHED
 70
     0
  3
__ __ __ __ __
 72
    65
 73
     2
 40
3.524829208942259
 49
2.349886139294838
 49
-1.174943069647419
  0
LTYPE
  2
DIVIDE
 70
     0
  3
__ . . __ . . 
 72
    65
 73
     6
 40
5.8747153482370971
 49
2.349886139294838
 49
-1.174943069647419
 49
0.0
 49
-1.174943069647419
 49
0.0
 49
-1.174943069647419
  0
LTYPE
  2
DOT
 70
     0
  3
..............
 72
    65
 73
     4
 40
2.349886139294838
 49
0.0
 49
-1.174943069647419
 49
0.0
 49
-1.174943069647419
  0
LTYPE
  2
HIDDEN
 70
     0
  3
_ _ _ _ _ _ _
 72
    65
 73
     2
 40
1.7624146044711291
 49
1.174943069647419
 49
-0.5874715348237098
  0
LTYPE
  2
PHANTOM
 70
     0
  3
_____ _ _ _____ _ _ 
 72
    65
 73
     6
 40
11.749430696474191
 49
5.8747153482370971
 49
-1.174943069647419
 49
1.174943069647419
 49
-1.174943069647419
 49
1.174943069647419
 49
-1.174943069647419
  0
ENDTAB
  0
TABLE
  2
LAYER
 70
     2
  0
LAYER
  2
0
 70
     0
 62
     7
  6
CONTINUOUS
  0
LAYER
  2
1
 70
     0
 62
     7
  6
CONTINUOUS
  0
ENDTAB
  0
TABLE
  2
STYLE
 70
     4
  0
STYLE
  2
STANDARD
 70
     0
 40
0.0
 41
1.0
 50
0.0
 71
     0
 42
3.5
  3
txt
  4

  0
STYLE
  2
SIMPLEX
 70
     0
 40
0.0
 41
1.0
 50
0.0
 71
     0
 42
3.5
  3
simplex
  4

  0
STYLE
  2
COMPLEX
 70
     0
 40
0.0
 41
1.0
 50
0.0
 71
     0
 42
3.5
  3
complex
  4

  0
STYLE
  2
ITALIC
 70
     0
 40
0.0
 41
1.0
 50
0.0
 71
     0
 42
3.5
  3
italic
  4

  0
ENDTAB
  0
TABLE
  2
VIEW
 70
     0
  0
ENDTAB
  0
TABLE
  2
UCS
 70
     0
  0
ENDTAB
  0
TABLE
  2
APPID
 70
     1
  0
APPID
  2
ACAD
 70
     0
  0
ENDTAB
  0
TABLE
  2
DIMSTYLE
 70
     1
  0
DIMSTYLE
  2
STANDARD
 70
     0
  3

  4

  5

  6

  7

 40
1.0
 41
0.18
 42
0.0625
 43
0.38
 44
0.18
 45
0.0
 46
0.0
 47
0.0
 48
0.0
140
0.18
141
0.09
142
0.0
143
25.399999999999999
144
1.0
145
0.0
146
1.0
147
0.09
 71
     0
 72
     0
 73
     1
 74
     1
 75
     0
 76
     0
 77
     0
 78
     0
170
     0
171
     2
172
     0
173
     0
174
     0
175
     0
176
     0
177
     0
178
     0
  0
ENDTAB
  0
ENDSEC
  0
SECTION
  2
BLOCKS
  0
BLOCK
  8
0
  2
$MODEL_SPACE
 70
     0
 10
0.0
 20
0.0
 30
0.0
  3
$MODEL_SPACE
  1

  0
ENDBLK
  5
20
  8
0
  0
BLOCK
 67
     1
  8
0
  2
$PAPER_SPACE
 70
     0
 10
0.0
 20
0.0
 30
0.0
  3
$PAPER_SPACE
  1

  0
ENDBLK
  5
1C
 67
     1
  8
0
  0
ENDSEC
  0
SECTION
  2
ENTITIES
  0
LINE
  5
33
  8
1
 62
     7
 10
224.34518309833061
 20
-79.267572552149701
 30
0.0
 11
221.74518309833061
 21
-79.267572552149701
 31
0.0
  0
LINE
  5
34
  8
1
 62
     7
 10
215.0451830983304
 20
-60.767572552149709
 30
0.0
 11
219.64518309833031
 21
-60.767572552149709
 31
0.0
  0
LINE
  5
35
  8
1
 62
     7
 10
215.0451830983304
 20
-55.767572552149709
 30
0.0
 11
219.64518309833031
 21
-55.767572552149709
 31
0.0
  0
LINE
  5
36
  8
1
 62
     7
 10
218.84518309833061
 20
-62.017572552149709
 30
0.0
 11
219.64518309833031
 21
-62.017572552149709
 31
0.0
  0
LINE
  5
37
  8
1
 62
     7
 10
215.84518309833061
 20
-96.517572552149701
 30
0.0
 11
215.0451830983304
 21
-96.517572552149701
 31
0.0
  0
LINE
  5
38
  8
1
 62
     7
 10
215.84518309833061
 20
-62.017572552149709
 30
0.0
 11
215.84518309833061
 21
-97.017572552149716
 31
0.0
  0
LINE
  5
39
  8
1
 62
     7
 10
218.84518309833061
 20
-96.517572552149701
 30
0.0
 11
218.84518309833061
 21
-62.017572552149709
 31
0.0
  0
LINE
  5
3A
  8
1
 62
     7
 10
221.74518309833061
 20
-103.2675725521497
 30
0.0
 11
221.74518309833061
 21
-55.267572552149709
 31
0.0
  0
LINE
  5
3B
  8
1
 62
     7
 10
221.74518309833061
 20
-88.767572552149701
 30
0.0
 11
224.34518309833061
 21
-88.767572552149701
 31
0.0
  0
LINE
  5
3C
  8
1
  6
DASHDOT
 62
     3
 10
224.34518309833061
 20
-79.267572552149701
 30
0.0
 11
226.34518309833061
 21
-79.267572552149701
 31
0.0
  0
LINE
  5
3D
  8
1
 62
     3
 10
197.64518309833019
 20
-41.267572552149709
 30
0.0
 11
197.64518309833019
 21
-43.326894878461303
 31
0.0
  0
LINE
  5
3E
  8
1
 62
     3
 10
197.9451830983306
 20
-43.326894878461303
 30
0.0
 11
197.9451830983306
 21
-41.267572552149709
 31
0.0
  0
LINE
  5
3F
  8
1
 62
     3
 10
198.24518309833061
 20
-41.267572552149709
 30
0.0
 11
198.24518309833061
 21
-43.326894878461303
 31
0.0
  0
LINE
  5
40
  8
1
 62
     3
 10
198.5451830983304
 20
-43.326894878461303
 30
0.0
 11
198.5451830983304
 21
-41.267572552149709
 31
0.0
  0
LINE
  5
41
  8
1
 62
     3
 10
198.8451830983316
 20
-41.267572552149709
 30
0.0
 11
198.8451830983316
 21
-43.326894878461303
 31
0.0
  0
LINE
  5
42
  8
1
 62
     7
 10
197.39518309833031
 20
-43.326894878461303
 30
0.0
 11
197.39518309833031
 21
-55.200771316878907
 31
0.0
  0
LINE
  5
43
  8
1
 62
     7
 10
199.09518309833061
 20
-43.326894878461303
 30
0.0
 11
197.39518309833031
 21
-43.326894878461303
 31
0.0
  0
LINE
  5
44
  8
1
 62
     7
 10
199.09518309833061
 20
-55.267572552149709
 30
0.0
 11
199.09518309833061
 21
-43.326894878461303
 31
0.0
  0
LINE
  5
45
  8
1
 62
     7
 10
215.0451830983304
 20
-103.2675725521497
 30
0.0
 11
212.34518309833049
 21
-103.2675725521497
 31
0.0
  0
LINE
  5
46
  8
1
 62
     7
 10
215.0451830983304
 20
-103.2675725521497
 30
0.0
 11
212.34518309833049
 21
-103.2675725521497
 31
0.0
  0
LINE
  5
47
  8
1
 62
     7
 10
219.64518309833031
 20
-101.7675725521496
 30
0.0
 11
219.64518309833031
 21
-103.2675725521497
 31
0.0
  0
LINE
  5
48
  8
1
 62
     7
 10
221.74518309833061
 20
-103.2675725521497
 30
0.0
 11
219.64518309833031
 21
-103.2675725521497
 31
0.0
  0
LINE
  5
49
  8
1
 62
     7
 10
219.64518309833031
 20
-103.2675725521497
 30
0.0
 11
219.64518309833031
 21
-55.267572552149709
 31
0.0
  0
LINE
  5
4A
  8
1
 62
     7
 10
218.84518309833061
 20
-96.517572552149701
 30
0.0
 11
218.84518309833061
 21
-97.017572552149716
 31
0.0
  0
LINE
  5
4B
  8
1
 62
     7
 10
218.84518309833061
 20
-97.017572552149716
 30
0.0
 11
215.84518309833061
 21
-97.017572552149716
 31
0.0
  0
LINE
  5
4C
  8
1
 62
     7
 10
215.84518309833061
 20
-96.517572552149701
 30
0.0
 11
215.84518309833061
 21
-97.017572552149716
 31
0.0
  0
LINE
  5
4D
  8
1
 62
     7
 10
218.84518309833061
 20
-97.017572552149716
 30
0.0
 11
215.84518309833061
 21
-97.017572552149716
 31
0.0
  0
LINE
  5
4E
  8
1
 62
     7
 10
219.64518309833031
 20
-96.517572552149701
 30
0.0
 11
218.84518309833061
 21
-96.517572552149701
 31
0.0
  0
LINE
  5
4F
  8
1
 62
     7
 10
212.34518309833049
 20
-55.267572552149709
 30
0.0
 11
212.34518309833049
 21
-103.2675725521497
 31
0.0
  0
LINE
  5
50
  8
1
 62
     7
 10
215.0451830983304
 20
-55.267572552149709
 30
0.0
 11
215.0451830983304
 21
-103.2675725521497
 31
0.0
  0
LINE
  5
51
  8
1
 62
     7
 10
224.34518309833061
 20
-69.767572552149701
 30
0.0
 11
221.74518309833061
 21
-69.767572552149701
 31
0.0
  0
LINE
  5
52
  8
1
 62
     7
 10
224.34518309833061
 20
-88.767572552149701
 30
0.0
 11
224.34518309833061
 21
-69.767572552149701
 31
0.0
  0
LINE
  5
53
  8
1
 62
     7
 10
218.84518309833061
 20
-61.517572552149709
 30
0.0
 11
218.84518309833061
 21
-62.017572552149709
 31
0.0
  0
LINE
  5
54
  8
1
 62
     7
 10
215.84518309833061
 20
-61.517572552149709
 30
0.0
 11
215.84518309833061
 21
-62.017572552149709
 31
0.0
  0
LINE
  5
55
  8
1
 62
     7
 10
215.84518309833061
 20
-61.517572552149709
 30
0.0
 11
218.84518309833061
 21
-61.517572552149709
 31
0.0
  0
LINE
  5
56
  8
1
 62
     7
 10
215.0451830983304
 20
-62.017572552149709
 30
0.0
 11
215.84518309833061
 21
-62.017572552149709
 31
0.0
  0
LINE
  5
57
  8
1
 62
     7
 10
221.74518309833061
 20
-56.767572552149723
 30
0.0
 11
221.74518309833061
 21
-55.317572552149713
 31
0.0
  0
LINE
  5
58
  8
1
 62
     7
 10
221.74518309833061
 20
-59.767572552149709
 30
0.0
 11
221.74518309833061
 21
-56.767572552149723
 31
0.0
  0
LINE
  5
59
  8
1
 62
     7
 10
222.44518309833049
 20
-55.317572552149713
 30
0.0
 11
222.44518309833049
 21
-61.217572552149697
 31
0.0
  0
LINE
  5
5A
  8
1
 62
     7
 10
221.74518309833061
 20
-55.317572552149713
 30
0.0
 11
222.44518309833049
 21
-55.317572552149713
 31
0.0
  0
LINE
  5
5B
  8
1
 62
     7
 10
221.74518309833061
 20
-61.217572552149697
 30
0.0
 11
221.74518309833061
 21
-59.767572552149709
 31
0.0
  0
LINE
  5
5C
  8
1
 62
     7
 10
222.44518309833049
 20
-61.217572552149697
 30
0.0
 11
221.74518309833061
 21
-61.217572552149697
 31
0.0
  0
LINE
  5
5D
  8
1
 62
     7
 10
222.74518309833061
 20
-55.517572552149723
 30
0.0
 11
223.18430323995429
 21
-55.517572552149723
 31
0.0
  0
LINE
  5
5E
  8
1
 62
     7
 10
222.44518309833049
 20
-60.717572552149697
 30
0.0
 11
222.44518309833049
 21
-55.817572552149713
 31
0.0
  0
LINE
  5
5F
  8
1
 62
     7
 10
223.18430323995429
 20
-61.017572552149709
 30
0.0
 11
222.74518309833061
 21
-61.017572552149709
 31
0.0
  0
LINE
  5
60
  8
1
  6
DASHDOT
 62
     3
 10
190.24518309833061
 20
-79.267572552149701
 30
0.0
 11
192.24518309833061
 21
-79.267572552149701
 31
0.0
  0
LINE
  5
61
  8
1
 62
     7
 10
192.24518309833061
 20
-55.267572552149709
 30
0.0
 11
192.24518309833061
 21
-103.2675725521497
 31
0.0
  0
LINE
  5
62
  8
1
 62
     7
 10
212.24518309833061
 20
-55.267572552149709
 30
0.0
 11
212.24518309833061
 21
-103.2675725521497
 31
0.0
  0
LINE
  5
63
  8
1
 62
     7
 10
192.24518309833061
 20
-55.267572552149709
 30
0.0
 11
212.24518309833061
 21
-55.267572552149709
 31
0.0
  0
LINE
  5
64
  8
1
 62
     7
 10
192.24518309833061
 20
-103.2675725521497
 30
0.0
 11
212.24518309833061
 21
-103.2675725521497
 31
0.0
  0
LINE
  5
65
  8
1
 62
     7
 10
212.34518309833049
 20
-55.267572552149709
 30
0.0
 11
215.0451830983304
 21
-55.267572552149709
 31
0.0
  0
LINE
  5
66
  8
1
 62
     7
 10
219.64518309833031
 20
-55.267572552149709
 30
0.0
 11
221.74518309833061
 21
-55.267572552149709
 31
0.0
  0
LINE
  5
67
  8
1
 62
     3
 10
319.64011089877948
 20
-40.915600956359903
 30
0.0
 11
318.64011089877943
 21
-39.183550148791099
 31
0.0
  0
LINE
  5
68
  8
1
 62
     3
 10
319.89991851991408
 20
-40.765600956359812
 30
0.0
 11
318.89991851991419
 21
-39.033550148791022
 31
0.0
  0
LINE
  5
69
  8
1
 62
     3
 10
320.15972614104942
 20
-40.615600956359991
 30
0.0
 11
319.15972614104942
 21
-38.883550148791208
 31
0.0
  0
LINE
  5
6A
  8
1
 62
     3
 10
320.41953376218407
 20
-40.465600956359999
 30
0.0
 11
319.41953376218419
 21
-38.733550148791203
 31
0.0
  0
LINE
  5
6B
  8
1
 62
     3
 10
320.67934138331952
 20
-40.315600956360008
 30
0.0
 11
319.67934138331952
 21
-38.583550148791211
 31
0.0
  0
LINE
  5
6C
  8
1
 62
     3
 10
321.1123540852123
 20
-40.065600956359809
 30
0.0
 11
320.1123540852123
 21
-38.333550148790998
 31
0.0
  0
LINE
  5
6D
  8
1
 62
     3
 10
321.37216170634758
 20
-39.915600956359789
 30
0.0
 11
320.37216170634758
 21
-38.183550148791007
 31
0.0
  0
LINE
  5
6E
  8
1
 62
     3
 10
321.6319693274823
 20
-39.765600956359897
 30
0.0
 11
320.6319693274823
 21
-38.033550148791107
 31
0.0
  0
LINE
  5
6F
  8
1
 62
     3
 10
321.89177694861843
 20
-39.615600956359899
 30
0.0
 11
320.89177694861849
 21
-37.883550148791102
 31
0.0
  0
LINE
  5
70
  8
1
 62
     3
 10
322.15158456975331
 20
-39.465600956359999
 30
0.0
 11
321.15158456975331
 21
-37.733550148791203
 31
0.0
  0
LINE
  5
71
  8
1
 62
     7
 10
332.95933301320758
 20
-57.685170375846113
 30
0.0
 11
322.36809092069927
 21
-39.340600956360113
 31
0.0
  0
LINE
  5
72
  8
1
 62
     7
 10
319.4236045478325
 20
-41.040600956360102
 30
0.0
 11
330.01484664034029
 21
-59.385170375846002
 31
0.0
  0
LINE
  5
73
  8
1
 62
     7
 10
322.36809092069927
 20
-39.340600956360113
 30
0.0
 11
319.4236045478325
 21
-41.040600956360102
 31
0.0
  0
LINE
  5
74
  8
1
 62
     7
 10
278.24518309833047
 20
-86.767572552149716
 30
0.0
 11
261.19518309833052
 21
-86.767572552149716
 31
0.0
  0
LINE
  5
75
  8
1
 62
     7
 10
260.74518309833047
 20
-85.11757255214961
 30
0.0
 11
259.74518309833059
 21
-85.11757255214961
 31
0.0
  0
LINE
  5
76
  8
1
  6
DASHDOT
 62
     3
 10
290.34518309833038
 20
-79.267572552149701
 30
0.0
 11
292.34518309833038
 21
-79.267572552149701
 31
0.0
  0
LINE
  5
77
  8
1
 62
     3
 10
263.64518309833028
 20
-41.267572552149709
 30
0.0
 11
263.64518309833028
 21
-43.326894878461303
 31
0.0
  0
LINE
  5
78
  8
1
 62
     3
 10
263.94518309833052
 20
-43.326894878461303
 30
0.0
 11
263.94518309833052
 21
-41.267572552149709
 31
0.0
  0
LINE
  5
79
  8
1
 62
     3
 10
264.24518309833059
 20
-41.267572552149709
 30
0.0
 11
264.24518309833059
 21
-43.326894878461303
 31
0.0
  0
LINE
  5
7A
  8
1
 62
     3
 10
264.54518309833043
 20
-43.326894878461303
 30
0.0
 11
264.54518309833043
 21
-41.267572552149709
 31
0.0
  0
LINE
  5
7B
  8
1
 62
     3
 10
264.84518309833152
 20
-41.267572552149709
 30
0.0
 11
264.84518309833152
 21
-43.326894878461303
 31
0.0
  0
LINE
  5
7C
  8
1
  6
DASHDOT
 62
     3
 10
343.45694780421047
 20
-78.817509448814704
 30
0.0
 11
343.45694780421047
 21
-79.884423784320703
 31
0.0
  0
LINE
  5
7D
  8
1
  6
DASHDOT
 62
     3
 10
342.77446564432029
 20
-79.267572552149701
 30
0.0
 11
344.11798740014058
 21
-79.267572552149701
 31
0.0
  0
LINE
  5
7E
  8
1
  6
DASHDOT
 62
     3
 10
326.90036174714641
 20
-69.708623135242803
 30
0.0
 11
322.98449855108652
 21
-67.447798464887413
 31
0.0
  0
LINE
  5
7F
  8
1
  6
DASHDOT
 62
     3
 10
360.01603873311541
 20
-69.707176946810804
 30
0.0
 11
363.87553867508331
 21
-67.478893616377903
 31
0.0
  0
LINE
  5
80
  8
1
  6
DASHDOT
 62
     3
 10
343.45694780421047
 20
-98.385289139200694
 30
0.0
 11
343.45694780421047
 21
-102.7857619489137
 31
0.0
  0
LINE
  5
81
  8
1
 62
     7
 10
340.20694780421047
 20
-69.76870433892681
 30
0.0
 11
343.70694780421047
 21
-69.76870433892681
 31
0.0
  0
LINE
  5
82
  8
1
 62
     7
 10
278.24518309833047
 20
-86.503384234424814
 30
0.0
 11
278.24518309833047
 21
-103.2675725521497
 31
0.0
  0
LINE
  5
83
  8
1
 62
     7
 10
320.89584773426549
 20
-40.190600956360207
 30
0.0
 11
331.4627986798925
 21
-58.493096875273203
 31
0.0
  0
LINE
  5
84
  8
1
 62
     7
 10
263.39518309833028
 20
-43.326894878461303
 30
0.0
 11
263.39518309833028
 21
-55.200771316878907
 31
0.0
  0
LINE
  5
85
  8
1
 62
     7
 10
265.09518309833038
 20
-43.326894878461303
 30
0.0
 11
263.39518309833028
 21
-43.326894878461303
 31
0.0
  0
LINE
  5
86
  8
1
 62
     7
 10
265.09518309833038
 20
-55.267572552149709
 30
0.0
 11
265.09518309833038
 21
-43.326894878461303
 31
0.0
  0
LINE
  5
87
  8
1
 62
     7
 10
278.34518309833049
 20
-97.517572552149701
 30
0.0
 11
281.04518309833043
 21
-97.517572552149701
 31
0.0
  0
LINE
  5
88
  8
1
 62
     7
 10
285.64518309833028
 20
-97.517572552149701
 30
0.0
 11
287.74518309833047
 21
-97.517572552149701
 31
0.0
  0
LINE
  5
89
  8
1
 62
     7
 10
321.23879056691442
 20
-70.192690240032093
 30
0.0
 11
323.21240162284562
 21
-71.332155114449293
 31
0.0
  0
LINE
  5
8A
  8
1
 62
     7
 10
326.46240162284562
 20
-65.702989989850295
 30
0.0
 11
324.48879056691442
 21
-64.563525115433109
 31
0.0
  0
LINE
  5
8B
  8
1
 62
     7
 10
363.70149398557641
 20
-71.332155114449293
 30
0.0
 11
365.67510504150658
 21
-70.192690240032093
 31
0.0
  0
LINE
  5
8C
  8
1
 62
     7
 10
362.42510504150658
 20
-64.563525115433109
 30
0.0
 11
360.45149398557641
 21
-65.702989989850295
 31
0.0
  0
LINE
  5
8D
  8
1
 62
     7
 10
346.70694780421047
 20
-103.0465023009839
 30
0.0
 11
346.70694780421047
 21
-100.7675725521496
 31
0.0
  0
LINE
  5
8E
  8
1
 62
     7
 10
340.20694780421047
 20
-100.7675725521496
 30
0.0
 11
340.20694780421047
 21
-103.0465023009841
 31
0.0
  0
LINE
  5
8F
  8
1
  6
DASHDOT
 62
     3
 10
257.20026136106043
 20
-100.7675725521496
 30
0.0
 11
288.45026136106031
 21
-100.7675725521496
 31
0.0
  0
LINE
  5
90
  8
1
 62
     7
 10
340.33444880501128
 20
-76.767572552149574
 30
0.0
 11
346.57944680340933
 21
-76.767572552149574
 31
0.0
  0
LINE
  5
91
  8
1
 62
     7
 10
287.74518309833047
 20
-91.267572552149701
 30
0.0
 11
285.64518309833028
 21
-91.267572552149701
 31
0.0
  0
LINE
  5
92
  8
1
 62
     7
 10
285.64518309833028
 20
-67.267572552149701
 30
0.0
 11
287.74518309833047
 21
-67.267572552149701
 31
0.0
  0
LINE
  5
93
  8
1
 62
     7
 10
363.02777574030659
 20
-90.869904220643406
 30
0.0
 11
363.29027574030641
 21
-90.41524088365648
 31
0.0
  0
LINE
  5
94
  8
1
 62
     7
 10
360.54114961519008
 20
-91.151867008772413
 30
0.0
 11
360.99581295217757
 21
-91.414367008772416
 31
0.0
  0
LINE
  5
95
  8
1
 62
     7
 10
360.25918682706032
 20
-88.665240883656494
 30
0.0
 11
359.99668682706141
 21
-89.119904220643591
 31
0.0
  0
LINE
  5
96
  8
1
 62
     7
 10
362.74581295217757
 20
-88.383278095526776
 30
0.0
 11
362.29114961519008
 21
-88.120778095527001
 31
0.0
  0
LINE
  5
97
  8
1
 62
     7
 10
323.62361986811459
 20
-90.415240883656296
 30
0.0
 11
323.88611986811452
 21
-90.869904220643079
 31
0.0
  0
LINE
  5
98
  8
1
 62
     7
 10
324.6227459932303
 20
-88.120778095527214
 30
0.0
 11
324.16808265624348
 21
-88.383278095526975
 31
0.0
  0
LINE
  5
99
  8
1
 62
     7
 10
326.9172087813605
 20
-89.119904220643107
 30
0.0
 11
326.65470878135932
 21
-88.665240883656296
 31
0.0
  0
LINE
  5
9A
  8
1
 62
     7
 10
325.91808265624348
 20
-91.414367008772686
 30
0.0
 11
326.3727459932303
 21
-91.151867008772584
 31
0.0
  0
LINE
  5
9B
  8
1
 62
     7
 10
343.71944780421029
 20
-56.517572552149709
 30
0.0
 11
343.1944478042102
 21
-56.517572552149709
 31
0.0
  0
LINE
  5
9C
  8
1
 62
     7
 10
345.20694780421047
 20
-58.530072552149718
 30
0.0
 11
345.20694780421047
 21
-58.005072552149713
 31
0.0
  0
LINE
  5
9D
  8
1
 62
     7
 10
343.1944478042102
 20
-60.017572552149723
 30
0.0
 11
343.71944780421029
 21
-60.017572552149723
 31
0.0
  0
LINE
  5
9E
  8
1
 62
     7
 10
341.70694780421047
 20
-58.005072552149713
 30
0.0
 11
341.70694780421047
 21
-58.530072552149718
 31
0.0
  0
LINE
  5
9F
  8
1
 62
     7
 10
281.04518309833043
 20
-103.2675725521497
 30
0.0
 11
278.34518309833049
 21
-103.2675725521497
 31
0.0
  0
LINE
  5
A0
  8
1
 62
     7
 10
281.04518309833043
 20
-103.2675725521497
 30
0.0
 11
278.34518309833049
 21
-103.2675725521497
 31
0.0
  0
LINE
  5
A1
  8
1
 62
     7
 10
285.64518309833028
 20
-101.7675725521496
 30
0.0
 11
285.64518309833028
 21
-103.2675725521497
 31
0.0
  0
LINE
  5
A2
  8
1
 62
     7
 10
287.74518309833047
 20
-103.2675725521497
 30
0.0
 11
285.64518309833028
 21
-103.2675725521497
 31
0.0
  0
LINE
  5
A3
  8
1
 62
     7
 10
284.14518309833028
 20
-91.767572552149716
 30
0.0
 11
284.14518309833028
 21
-96.517572552149701
 31
0.0
  0
LINE
  5
A4
  8
1
 62
     7
 10
285.64518309833028
 20
-91.767572552149716
 30
0.0
 11
284.14518309833028
 21
-91.767572552149716
 31
0.0
  0
LINE
  5
A5
  8
1
 62
     7
 10
284.84518309833049
 20
-88.767572552149701
 30
0.0
 11
284.84518309833049
 21
-91.767572552149716
 31
0.0
  0
LINE
  5
A6
  8
1
 62
     7
 10
285.64518309833028
 20
-103.2675725521497
 30
0.0
 11
285.64518309833028
 21
-88.767572552149701
 31
0.0
  0
LINE
  5
A7
  8
1
 62
     7
 10
284.14518309833028
 20
-91.767572552149716
 30
0.0
 11
284.14518309833028
 21
-96.517572552149701
 31
0.0
  0
LINE
  5
A8
  8
1
 62
     7
 10
284.84518309833049
 20
-96.517572552149701
 30
0.0
 11
284.84518309833049
 21
-97.017572552149716
 31
0.0
  0
LINE
  5
A9
  8
1
 62
     7
 10
284.84518309833049
 20
-97.017572552149716
 30
0.0
 11
281.84518309833038
 21
-97.017572552149716
 31
0.0
  0
LINE
  5
AA
  8
1
 62
     7
 10
281.84518309833038
 20
-96.517572552149701
 30
0.0
 11
281.84518309833038
 21
-97.017572552149716
 31
0.0
  0
LINE
  5
AB
  8
1
 62
     7
 10
284.84518309833049
 20
-97.017572552149716
 30
0.0
 11
281.84518309833038
 21
-97.017572552149716
 31
0.0
  0
LINE
  5
AC
  8
1
 62
     7
 10
282.54518309833031
 20
-96.517572552149701
 30
0.0
 11
281.04518309833043
 21
-96.517572552149701
 31
0.0
  0
LINE
  5
AD
  8
1
 62
     7
 10
282.54518309833031
 20
-91.767572552149716
 30
0.0
 11
281.04518309833043
 21
-91.767572552149716
 31
0.0
  0
LINE
  5
AE
  8
1
 62
     7
 10
282.54518309833031
 20
-91.767572552149716
 30
0.0
 11
282.54518309833031
 21
-96.517572552149701
 31
0.0
  0
LINE
  5
AF
  8
1
 62
     7
 10
287.74518309833047
 20
-88.767572552149701
 30
0.0
 11
287.74518309833047
 21
-103.2675725521497
 31
0.0
  0
LINE
  5
B0
  8
1
 62
     7
 10
285.64518309833028
 20
-96.517572552149701
 30
0.0
 11
284.14518309833028
 21
-96.517572552149701
 31
0.0
  0
LINE
  5
B1
  8
1
 62
     7
 10
278.34518309833049
 20
-60.817572552149713
 30
0.0
 11
278.34518309833049
 21
-103.2675725521497
 31
0.0
  0
LINE
  5
B2
  8
1
 62
     7
 10
281.04518309833043
 20
-60.767572552149709
 30
0.0
 11
281.04518309833043
 21
-103.2675725521497
 31
0.0
  0
LINE
  5
B3
  8
1
 62
     7
 10
278.24518309833047
 20
-86.767572552149716
 30
0.0
 11
260.74518309833047
 21
-86.767572552149716
 31
0.0
  0
LINE
  5
B4
  8
1
 62
     7
 10
290.34518309833038
 20
-76.767572552149574
 30
0.0
 11
281.84518309833038
 21
-76.767572552149574
 31
0.0
  0
LINE
  5
B5
  8
1
 62
     7
 10
290.34518309833038
 20
-83.267572552149687
 30
0.0
 11
281.84518309833038
 21
-83.267572552149687
 31
0.0
  0
LINE
  5
B6
  8
1
 62
     7
 10
290.34518309833038
 20
-69.767572552149701
 30
0.0
 11
281.84518309833038
 21
-69.767572552149701
 31
0.0
  0
LINE
  5
B7
  8
1
 62
     7
 10
290.34518309833038
 20
-88.767572552149701
 30
0.0
 11
290.34518309833038
 21
-69.767572552149701
 31
0.0
  0
LINE
  5
B8
  8
1
 62
     7
 10
281.84518309833038
 20
-88.767572552149701
 30
0.0
 11
290.34518309833038
 21
-88.767572552149701
 31
0.0
  0
LINE
  5
B9
  8
1
 62
     7
 10
281.84518309833038
 20
-69.76634761031481
 30
0.0
 11
284.84518309833049
 21
-69.76634761031481
 31
0.0
  0
LINE
  5
BA
  8
1
 62
     7
 10
284.84518309833049
 20
-66.767572552149701
 30
0.0
 11
284.84518309833049
 21
-69.76634761031481
 31
0.0
  0
LINE
  5
BB
  8
1
 62
     7
 10
284.84518309833049
 20
-61.517572552149709
 30
0.0
 11
284.84518309833049
 21
-62.017572552149709
 31
0.0
  0
LINE
  5
BC
  8
1
 62
     7
 10
281.84518309833038
 20
-61.517572552149709
 30
0.0
 11
281.84518309833038
 21
-62.017572552149709
 31
0.0
  0
LINE
  5
BD
  8
1
 62
     7
 10
281.84518309833038
 20
-61.517572552149709
 30
0.0
 11
284.84518309833049
 21
-61.517572552149709
 31
0.0
  0
LINE
  5
BE
  8
1
 62
     7
 10
284.14518309833028
 20
-62.017572552149709
 30
0.0
 11
284.14518309833028
 21
-66.767572552149701
 31
0.0
  0
LINE
  5
BF
  8
1
 62
     7
 10
282.54518309833031
 20
-62.017572552149709
 30
0.0
 11
282.54518309833031
 21
-66.767572552149701
 31
0.0
  0
LINE
  5
C0
  8
1
 62
     7
 10
284.14518309833028
 20
-66.767572552149701
 30
0.0
 11
285.64518309833028
 21
-66.767572552149701
 31
0.0
  0
LINE
  5
C1
  8
1
 62
     7
 10
281.04518309833043
 20
-66.767572552149701
 30
0.0
 11
282.54518309833031
 21
-66.767572552149701
 31
0.0
  0
LINE
  5
C2
  8
1
 62
     7
 10
284.14518309833028
 20
-62.017572552149709
 30
0.0
 11
285.64518309833028
 21
-62.017572552149709
 31
0.0
  0
LINE
  5
C3
  8
1
 62
     7
 10
281.04518309833043
 20
-62.017572552149709
 30
0.0
 11
282.54518309833031
 21
-62.017572552149709
 31
0.0
  0
LINE
  5
C4
  8
1
 62
     7
 10
285.64518309833028
 20
-55.267572552149709
 30
0.0
 11
285.64518309833028
 21
-56.767572552149723
 31
0.0
  0
LINE
  5
C5
  8
1
 62
     7
 10
285.64518309833028
 20
-69.76634761031481
 30
0.0
 11
285.64518309833028
 21
-59.767572552149709
 31
0.0
  0
LINE
  5
C6
  8
1
 62
     7
 10
285.64518309833028
 20
-59.867572552149703
 30
0.0
 11
287.74518309833047
 21
-59.867572552149703
 31
0.0
  0
LINE
  5
C7
  8
1
 62
     7
 10
285.64518309833028
 20
-56.667572552149707
 30
0.0
 11
287.74518309833047
 21
-56.667572552149707
 31
0.0
  0
LINE
  5
C8
  8
1
 62
     7
 10
278.34518309833049
 20
-60.817572552149713
 30
0.0
 11
281.04518309833043
 21
-60.817572552149713
 31
0.0
  0
LINE
  5
C9
  8
1
 62
     7
 10
278.24518309833047
 20
-59.767572552149709
 30
0.0
 11
278.24518309833047
 21
-72.246752158899497
 31
0.0
  0
LINE
  5
CA
  8
1
 62
     7
 10
287.74518309833047
 20
-56.767572552149723
 30
0.0
 11
287.74518309833047
 21
-55.317572552149713
 31
0.0
  0
LINE
  5
CB
  8
1
 62
     7
 10
287.74518309833047
 20
-59.767572552149709
 30
0.0
 11
287.74518309833047
 21
-56.767572552149723
 31
0.0
  0
LINE
  5
CC
  8
1
 62
     7
 10
287.74518309833047
 20
-59.767572552149709
 30
0.0
 11
273.09518309833038
 21
-59.767572552149709
 31
0.0
  0
LINE
  5
CD
  8
1
 62
     7
 10
288.44518309833052
 20
-55.317572552149713
 30
0.0
 11
288.44518309833052
 21
-61.217572552149697
 31
0.0
  0
LINE
  5
CE
  8
1
 62
     7
 10
287.74518309833047
 20
-55.317572552149713
 30
0.0
 11
288.44518309833052
 21
-55.317572552149713
 31
0.0
  0
LINE
  5
CF
  8
1
 62
     7
 10
287.74518309833047
 20
-61.217572552149697
 30
0.0
 11
287.74518309833047
 21
-59.767572552149709
 31
0.0
  0
LINE
  5
D0
  8
1
 62
     7
 10
288.44518309833052
 20
-61.217572552149697
 30
0.0
 11
287.74518309833047
 21
-61.217572552149697
 31
0.0
  0
LINE
  5
D1
  8
1
 62
     3
 10
284.44518309833052
 20
-59.767572552149709
 30
0.0
 11
284.44518309833052
 21
-56.767572552149723
 31
0.0
  0
LINE
  5
D2
  8
1
 62
     3
 10
284.44518309833052
 20
-57.367572552149703
 30
0.0
 11
285.4844135828713
 21
-56.767572552149723
 31
0.0
  0
LINE
  5
D3
  8
1
 62
     3
 10
272.49518309833059
 20
-57.367572552149703
 30
0.0
 11
284.44518309833052
 21
-57.367572552149703
 31
0.0
  0
LINE
  5
D4
  8
1
 62
     3
 10
284.44518309833052
 20
-59.167572552149707
 30
0.0
 11
285.4844135828713
 21
-59.767572552149709
 31
0.0
  0
LINE
  5
D5
  8
1
 62
     3
 10
272.49518309833059
 20
-59.167572552149707
 30
0.0
 11
284.44518309833052
 21
-59.167572552149707
 31
0.0
  0
LINE
  5
D6
  8
1
 62
     7
 10
273.09518309833038
 20
-56.767572552149723
 30
0.0
 11
287.74518309833047
 21
-56.767572552149723
 31
0.0
  0
LINE
  5
D7
  8
1
 62
     7
 10
288.74518309833047
 20
-55.517572552149723
 30
0.0
 11
289.18430323995432
 21
-55.517572552149723
 31
0.0
  0
LINE
  5
D8
  8
1
 62
     7
 10
288.44518309833052
 20
-60.717572552149697
 30
0.0
 11
288.44518309833052
 21
-55.817572552149713
 31
0.0
  0
LINE
  5
D9
  8
1
 62
     7
 10
289.18430323995432
 20
-61.017572552149709
 30
0.0
 11
288.74518309833047
 21
-61.017572552149709
 31
0.0
  0
LINE
  5
DA
  8
1
 62
     7
 10
278.24518309833047
 20
-59.817572552149713
 30
0.0
 11
285.64518309833028
 21
-59.817572552149713
 31
0.0
  0
LINE
  5
DB
  8
1
 62
     7
 10
278.24518309833047
 20
-56.717572552149718
 30
0.0
 11
285.64518309833028
 21
-56.717572552149718
 31
0.0
  0
LINE
  5
DC
  8
1
  6
DASHDOT
 62
     3
 10
256.24518309833047
 20
-79.267572552149701
 30
0.0
 11
258.24518309833047
 21
-79.267572552149701
 31
0.0
  0
LINE
  5
DD
  8
1
 62
     7
 10
258.24518309833047
 20
-55.267572552149709
 30
0.0
 11
258.24518309833047
 21
-103.2675725521497
 31
0.0
  0
LINE
  5
DE
  8
1
 62
     7
 10
278.24518309833047
 20
-55.267572552149709
 30
0.0
 11
278.24518309833047
 21
-56.767572552149723
 31
0.0
  0
LINE
  5
DF
  8
1
 62
     7
 10
258.24518309833047
 20
-55.267572552149709
 30
0.0
 11
278.24518309833047
 21
-55.267572552149709
 31
0.0
  0
LINE
  5
E0
  8
1
 62
     7
 10
258.24518309833047
 20
-103.2675725521497
 30
0.0
 11
278.24518309833047
 21
-103.2675725521497
 31
0.0
  0
LINE
  5
E1
  8
1
 62
     7
 10
258.24518309833047
 20
-71.767572552149701
 30
0.0
 11
259.74518309833059
 21
-71.767572552149701
 31
0.0
  0
LINE
  5
E2
  8
1
 62
     7
 10
278.34518309833049
 20
-55.267572552149709
 30
0.0
 11
278.34518309833049
 21
-55.767572552149709
 31
0.0
  0
LINE
  5
E3
  8
1
 62
     7
 10
281.04518309833043
 20
-55.267572552149709
 30
0.0
 11
281.04518309833043
 21
-55.767572552149709
 31
0.0
  0
LINE
  5
E4
  8
1
 62
     7
 10
278.34518309833049
 20
-55.267572552149709
 30
0.0
 11
281.04518309833043
 21
-55.267572552149709
 31
0.0
  0
LINE
  5
E5
  8
1
 62
     7
 10
285.64518309833028
 20
-55.267572552149709
 30
0.0
 11
287.74518309833047
 21
-55.267572552149709
 31
0.0
  0
LINE
  5
E6
  8
1
 62
     7
 10
287.74518309833047
 20
-55.267572552149709
 30
0.0
 11
287.74518309833047
 21
-69.767572552149701
 31
0.0
  0
LINE
  5
E7
  8
1
 62
     7
 10
278.24518309833047
 20
-55.767572552149709
 30
0.0
 11
285.64518309833028
 21
-55.767572552149709
 31
0.0
  0
LINE
  5
E8
  8
1
 62
     7
 10
278.24518309833047
 20
-60.767572552149709
 30
0.0
 11
285.64518309833028
 21
-60.767572552149709
 31
0.0
  0
LINE
  5
E9
  8
1
 62
     7
 10
281.84518309833038
 20
-66.767572552149701
 30
0.0
 11
281.84518309833038
 21
-91.767572552149716
 31
0.0
  0
LINE
  5
EA
  8
1
 62
     7
 10
258.24518309833047
 20
-99.067572552149684
 30
0.0
 11
278.24518309833047
 21
-99.067572552149684
 31
0.0
  0
LINE
  5
EB
  8
1
 62
     7
 10
258.24518309833047
 20
-102.4675725521496
 30
0.0
 11
278.24518309833047
 21
-102.4675725521496
 31
0.0
  0
LINE
  5
EC
  8
1
 62
     7
 10
259.74518309833059
 20
-71.417572552149707
 30
0.0
 11
259.74518309833059
 21
-87.117572552149696
 31
0.0
  0
LINE
  5
ED
  8
1
 62
     7
 10
259.74518309833059
 20
-71.417572552149707
 30
0.0
 11
260.74518309833047
 21
-71.417572552149707
 31
0.0
  0
LINE
  5
EE
  8
1
 62
     7
 10
259.74518309833059
 20
-87.117572552149696
 30
0.0
 11
260.74518309833047
 21
-87.117572552149696
 31
0.0
  0
LINE
  5
EF
  8
1
 62
     7
 10
259.74518309833059
 20
-86.767572552149716
 30
0.0
 11
258.24518309833047
 21
-86.767572552149716
 31
0.0
  0
LINE
  5
F0
  8
1
 62
     7
 10
260.74518309833047
 20
-71.767572552149701
 30
0.0
 11
278.24518309833047
 21
-71.767572552149701
 31
0.0
  0
LINE
  5
F1
  8
1
 62
     7
 10
260.74518309833047
 20
-71.417572552149707
 30
0.0
 11
259.74518309833059
 21
-71.417572552149707
 31
0.0
  0
LINE
  5
F2
  8
1
 62
     7
 10
259.74518309833059
 20
-71.417572552149707
 30
0.0
 11
259.74518309833059
 21
-87.117572552149696
 31
0.0
  0
LINE
  5
F3
  8
1
 62
     7
 10
259.74518309833059
 20
-87.117572552149696
 30
0.0
 11
260.74518309833047
 21
-87.117572552149696
 31
0.0
  0
LINE
  5
F4
  8
1
 62
     7
 10
260.74518309833047
 20
-87.117572552149696
 30
0.0
 11
260.74518309833047
 21
-71.417572552149707
 31
0.0
  0
LINE
  5
F5
  8
1
 62
     7
 10
259.74518309833059
 20
-73.417572552149707
 30
0.0
 11
260.74518309833047
 21
-73.417572552149707
 31
0.0
  0
LINE
  5
F6
  8
1
 62
     7
 10
278.34518309833049
 20
-73.767572552149701
 30
0.0
 11
281.04518309833043
 21
-73.767572552149701
 31
0.0
  0
LINE
  5
F7
  8
1
 62
     7
 10
278.34518309833049
 20
-84.767572552149701
 30
0.0
 11
281.04518309833043
 21
-84.767572552149701
 31
0.0
  0
LINE
  5
F8
  8
1
 62
     7
 10
273.09518309833038
 20
-59.767572552149709
 30
0.0
 11
272.49518309833059
 21
-59.167572552149707
 31
0.0
  0
LINE
  5
F9
  8
1
 62
     7
 10
272.49518309833059
 20
-59.167572552149707
 30
0.0
 11
272.49518309833059
 21
-57.367572552149703
 31
0.0
  0
LINE
  5
FA
  8
1
 62
     7
 10
272.49518309833059
 20
-57.367572552149703
 30
0.0
 11
273.09518309833038
 21
-56.767572552149723
 31
0.0
  0
LINE
  5
FB
  8
1
 62
     7
 10
273.09518309833038
 20
-59.767572552149709
 30
0.0
 11
273.09518309833038
 21
-56.767572552149723
 31
0.0
  0
LINE
  5
FC
  8
1
 62
     7
 10
260.74518309833047
 20
-87.117572552149696
 30
0.0
 11
260.74518309833047
 21
-71.417572552149707
 31
0.0
  0
LINE
  5
FD
  8
1
 62
     7
 10
260.74518309833047
 20
-71.767572552149701
 30
0.0
 11
278.24518309833047
 21
-71.767572552149701
 31
0.0
  0
LINE
  5
FE
  8
1
 62
     7
 10
278.24518309833047
 20
-86.767572552149716
 30
0.0
 11
260.74518309833047
 21
-86.767572552149716
 31
0.0
  0
LINE
  5
FF
  8
1
 62
     7
 10
260.74518309833047
 20
-72.017572552149701
 30
0.0
 11
260.74518309833047
 21
-86.396995415555693
 31
0.0
  0
LINE
  5
100
  8
1
 62
     7
 10
349.49025811724249
 20
-70.717572552149491
 30
0.0
 11
353.87812016308328
 21
-78.317572552149798
 31
0.0
  0
LINE
  5
101
  8
1
 62
     7
 10
339.06908575836911
 20
-69.767572552149701
 30
0.0
 11
347.84480985005132
 21
-69.767572552149701
 31
0.0
  0
LINE
  5
102
  8
1
 62
     7
 10
333.03577544533732
 20
-78.317572552149798
 30
0.0
 11
337.42363749117862
 21
-70.71757255214969
 31
0.0
  0
LINE
  5
103
  8
1
 62
     7
 10
337.42363749117942
 20
-87.817572552149912
 30
0.0
 11
333.03577544533732
 21
-80.217572552149605
 31
0.0
  0
LINE
  5
104
  8
1
 62
     7
 10
347.84480985005132
 20
-88.76757255215
 30
0.0
 11
339.06908575836911
 21
-88.7675725521499
 31
0.0
  0
LINE
  5
105
  8
1
 62
     7
 10
353.87812016308231
 20
-80.217572552149889
 30
0.0
 11
349.49025811724249
 21
-87.817572552149997
 31
0.0
  0
ARC
  5
106
  8
1
 62
     7
 10
222.74518309833061
 20
-55.817572552149713
 30
0.0
 40
0.3000000000000043
 50
90.0
 51
180.0
  0
ARC
  5
107
  8
1
 62
     7
 10
222.74518309833061
 20
-60.717572552149697
 30
0.0
 40
0.3000000000000114
 50
180.0
 51
270.0
  0
ARC
  5
108
  8
1
 62
     7
 10
223.18430323995429
 20
-56.517572552149709
 30
0.0
 40
1.0000000000005549
 50
16.957763299987921
 51
90.0
  0
ARC
  5
109
  8
1
 62
     7
 10
223.18430323995429
 20
-60.017572552149723
 30
0.0
 40
1.0
 50
270.0
 51
343.0422367000121
  0
ARC
  5
10A
  8
1
 62
     7
 10
288.74518309833047
 20
-55.817572552149713
 30
0.0
 40
0.3000000000000043
 50
90.0
 51
180.0
  0
ARC
  5
10B
  8
1
 62
     7
 10
288.74518309833047
 20
-60.717572552149697
 30
0.0
 40
0.3000000000000682
 50
180.0
 51
270.0
  0
ARC
  5
10C
  8
1
 62
     7
 10
289.18430323995432
 20
-56.517572552149709
 30
0.0
 40
1.0000000000006091
 50
16.957763299986979
 51
90.0
  0
ARC
  5
10D
  8
1
 62
     7
 10
289.18430323995432
 20
-60.017572552149723
 30
0.0
 40
1.0
 50
270.0
 51
343.0422367000121
  0
ARC
  5
10E
  8
1
 62
     7
 10
347.84480985005132
 20
-71.667572552149593
 30
0.0
 40
1.900000000000639
 50
29.999999999992419
 51
90.0
  0
ARC
  5
10F
  8
1
 62
     7
 10
352.23267189589211
 20
-79.267572552149815
 30
0.0
 40
1.8999999999997881
 50
329.9999999999938
 51
29.999999999991051
  0
ARC
  5
110
  8
1
 62
     7
 10
339.06908575836911
 20
-86.867572552149795
 30
0.0
 40
1.8999999999994579
 50
210.0000000000129
 51
270.0
  0
ARC
  5
111
  8
1
 62
     7
 10
334.68122371252832
 20
-79.267572552149574
 30
0.0
 40
1.9000000000004349
 50
150.00000000001489
 51
209.9999999999911
  0
ARC
  5
112
  8
1
 62
     7
 10
339.06908575836911
 20
-71.667572552149707
 30
0.0
 40
1.900000000000005
 50
90.0
 51
150.0000000000021
  0
ARC
  5
113
  8
1
 62
     7
 10
347.84480985005132
 20
-86.867572552149795
 30
0.0
 40
1.900000000000204
 50
270.0
 51
330.000000000005
  0
ARC
  5
114
  8
1
 62
     7
 10
217.44518309833069
 20
-58.267572552151442
 30
0.0
 40
7.0000000000001981
 50
0.0000000000141907
 51
16.95776330001754
  0
ARC
  5
115
  8
1
 62
     7
 10
217.4451830983306
 20
-58.267572552149709
 30
0.0
 40
7.0000000000004219
 50
343.04223669999652
 51
0.0
  0
ARC
  5
116
  8
1
  6
CENTER
 62
     3
 10
343.45694780421047
 20
-79.267572552149701
 30
0.0
 40
21.499999999999989
 50
263.60971879813582
 51
276.5265597335536
  0
ARC
  5
117
  8
1
  6
CENTER
 62
     3
 10
343.45694780421047
 20
-79.267572552149701
 30
0.0
 40
21.500000000000501
 50
143.5979808290231
 51
156.22361002981179
  0
ARC
  5
118
  8
1
  6
CENTER
 62
     3
 10
343.45694780421047
 20
-79.267572552149701
 30
0.0
 40
21.500000000000551
 50
23.941160022182761
 51
35.946362847180367
  0
ARC
  5
119
  8
1
 62
     7
 10
324.83740162284562
 20
-68.517572552149701
 30
0.0
 40
3.250000000000143
 50
240.00000000000139
 51
59.99999999999973
  0
ARC
  5
11A
  8
1
 62
     7
 10
362.07649398557641
 20
-68.517572552149701
 30
0.0
 40
3.2499999999999711
 50
120.0000000000003
 51
299.99999999999852
  0
ARC
  5
11B
  8
1
 62
     7
 10
343.45694780421047
 20
-100.7675725521496
 30
0.0
 40
3.25
 50
0.0
 51
180.0
  0
ARC
  5
11C
  8
1
 62
     7
 10
343.45694780421047
 20
-100.7675725521496
 30
0.0
 40
3.25
 50
0.0
 51
180.0
  0
ARC
  5
11D
  8
1
 62
     7
 10
343.45694780421047
 20
-79.267572552149701
 30
0.0
 40
4.0000000000000684
 50
141.31781254650929
 51
270.0
  0
ARC
  5
11E
  8
1
 62
     7
 10
343.45694780421047
 20
-79.267572552149701
 30
0.0
 40
3.9999999999998859
 50
270.0
 51
38.682187453493789
  0
ARC
  5
11F
  8
1
 62
     7
 10
362.28402574030639
 20
-92.158117008772493
 30
0.0
 40
1.4874999999998271
 50
59.999999999992127
 51
149.9999999999884
  0
ARC
  5
120
  8
1
 62
     7
 10
359.25293682706132
 20
-90.408117008772493
 30
0.0
 40
1.4874999999995371
 50
329.99999999999397
 51
59.99999999998829
  0
ARC
  5
121
  8
1
 62
     7
 10
361.00293682706041
 20
-87.377028095527095
 30
0.0
 40
1.4875000000000851
 50
239.9999999999979
 51
330.00000000001131
  0
ARC
  5
122
  8
1
 62
     7
 10
364.03402574030639
 20
-89.127028095527095
 30
0.0
 40
1.487499999999786
 50
149.99999999998181
 51
239.9999999999979
  0
ARC
  5
123
  8
1
 62
     7
 10
322.8798698681145
 20
-89.127028095527095
 30
0.0
 40
1.4874999999999139
 50
300.00000000000591
 51
30.00000000001053
  0
ARC
  5
124
  8
1
 62
     7
 10
325.91095878136059
 20
-87.377028095527095
 30
0.0
 40
1.4875000000008689
 50
209.99999999998531
 51
299.9999999999639
  0
ARC
  5
125
  8
1
 62
     7
 10
327.66095878136059
 20
-90.408117008772493
 30
0.0
 40
1.4875000000000851
 50
120.0000000000021
 51
209.99999999998531
  0
ARC
  5
126
  8
1
 62
     7
 10
324.62986986811438
 20
-92.158117008772493
 30
0.0
 40
1.4874999999995799
 50
30.00000000000011
 51
119.99999999999829
  0
ARC
  5
127
  8
1
 62
     7
 10
345.20694780421047
 20
-56.517572552149709
 30
0.0
 40
1.487500000000181
 50
180.0
 51
270.0
  0
ARC
  5
128
  8
1
 62
     7
 10
345.20694780421047
 20
-60.017572552149723
 30
0.0
 40
1.487499999999996
 50
90.0
 51
180.0
  0
ARC
  5
129
  8
1
 62
     7
 10
341.70694780421047
 20
-60.017572552149723
 30
0.0
 40
1.487499999999726
 50
0.0
 51
90.0
  0
ARC
  5
12A
  8
1
 62
     7
 10
341.70694780421047
 20
-56.517572552149709
 30
0.0
 40
1.487500000000004
 50
270.0
 51
0.0
  0
ARC
  5
12B
  8
1
 62
     7
 10
283.4451830983308
 20
-58.267572552151442
 30
0.0
 40
7.0000000000001696
 50
0.0000000000141907
 51
16.957763300017479
  0
ARC
  5
12C
  8
1
 62
     7
 10
283.44518309833052
 20
-58.267572552149709
 30
0.0
 40
7.0000000000004761
 50
343.04223669999658
 51
0.0
  0
ARC
  5
12D
  8
1
 62
     7
 10
260.74518309833047
 20
-72.917572552149707
 30
0.0
 40
0.9000000000000056
 50
270.0
 51
90.0
  0
ARC
  5
12E
  8
1
 62
     7
 10
260.29518309833043
 20
-85.617572552149696
 30
0.0
 40
0.9000000000000943
 50
300.00000000000807
 51
59.999999999991779
  0
ARC
  5
12F
  8
1
 62
     7
 10
278.39518309833028
 20
-85.617572552149696
 30
0.0
 40
0.9000000000001012
 50
93.184738536706263
 51
266.81526146329361
  0
ARC
  5
130
  8
1
 62
     7
 10
278.84518309833049
 20
-72.917572552149707
 30
0.0
 40
0.8999999999998527
 50
123.7489885958948
 51
236.25101140410521
  0
CIRCLE
  5
131
  8
1
 62
     7
 10
324.83740162284562
 20
-68.517572552149701
 30
0.0
 40
1.7000000000001589
  0
CIRCLE
  5
132
  8
1
 62
     7
 10
362.07649398557641
 20
-68.517572552149701
 30
0.0
 40
1.7000000000003861
  0
CIRCLE
  5
133
  8
1
 62
     7
 10
343.45694780421047
 20
-100.7675725521496
 30
0.0
 40
1.6999999999998181
  0
CIRCLE
  5
134
  8
1
 62
     7
 10
361.6434812836834
 20
-89.767572552149886
 30
0.0
 40
2.75
  0
CIRCLE
  5
135
  8
1
 62
     7
 10
325.2704143247376
 20
-89.767572552149701
 30
0.0
 40
2.749999999999885
  0
CIRCLE
  5
136
  8
1
 62
     7
 10
343.45694780421047
 20
-58.267572552149709
 30
0.0
 40
2.75
  0
CIRCLE
  5
137
  8
1
 62
     7
 10
343.45694780421047
 20
-79.267572552149701
 30
0.0
 40
24.0
  0
CIRCLE
  5
138
  8
1
 62
     7
 10
263.24518309833047
 20
-72.917572552149707
 30
0.0
 40
0.8999999999996931
  0
CIRCLE
  5
139
  8
1
 62
     7
 10
262.09518309833049
 20
-85.617572552149696
 30
0.0
 40
0.900000000000091
  0
CIRCLE
  5
13A
  8
1
 62
     7
 10
265.54518309833043
 20
-72.917572552149707
 30
0.0
 40
0.900000000000091
  0
CIRCLE
  5
13B
  8
1
 62
     7
 10
264.39518309833028
 20
-85.617572552149696
 30
0.0
 40
0.9000000000001477
  0
CIRCLE
  5
13C
  8
1
 62
     7
 10
267.84518309833049
 20
-72.917572552149707
 30
0.0
 40
0.900000000000091
  0
CIRCLE
  5
13D
  8
1
 62
     7
 10
266.69518309833052
 20
-85.617572552149696
 30
0.0
 40
0.8999999999999772
  0
CIRCLE
  5
13E
  8
1
 62
     7
 10
270.14518309833028
 20
-72.917572552149707
 30
0.0
 40
0.9000000000001477
  0
CIRCLE
  5
13F
  8
1
 62
     7
 10
268.99518309833047
 20
-85.617572552149696
 30
0.0
 40
0.8999999999996931
  0
CIRCLE
  5
140
  8
1
 62
     7
 10
272.44518309833052
 20
-72.917572552149707
 30
0.0
 40
0.8999999999999772
  0
CIRCLE
  5
141
  8
1
 62
     7
 10
271.29518309833043
 20
-85.617572552149696
 30
0.0
 40
0.900000000000091
  0
CIRCLE
  5
142
  8
1
 62
     7
 10
274.74518309833059
 20
-72.917572552149707
 30
0.0
 40
0.8999999999996931
  0
CIRCLE
  5
143
  8
1
 62
     7
 10
273.59518309833038
 20
-85.617572552149696
 30
0.0
 40
0.900000000000091
  0
CIRCLE
  5
144
  8
1
 62
     7
 10
277.04518309833043
 20
-72.917572552149707
 30
0.0
 40
0.900000000000091
  0
CIRCLE
  5
145
  8
1
 62
     7
 10
275.89518309833028
 20
-85.617572552149696
 30
0.0
 40
0.9000000000001477
  0
CIRCLE
  5
146
  8
1
 62
     7
 10
343.45694780421047
 20
-79.267572552149701
 30
0.0
 40
12.0
  0
TEXT
  5
147
  8
1
 62
     7
 10
189.0709583606598
 20
-20.68614326051269
 30
0.0
 40
2.5
  1
MCNB 5
 41
0.9
  7
SIMPLEX
 72
     1
 11
195.55310121780261
 21
-20.68614326051269
 31
0.0
  0
ENDSEC
  0
EOF
