  0
SECTION
  2
HEADER
  9
$ACADVER
  1
AC1009
  9
$INSBASE
 10
0.0
 20
0.0
 30
0.0
  9
$EXTMIN
 10
-101.0562418699529
 20
-43.02677985117878
 30
0.0
  9
$EXTMAX
 10
167.72950528173769
 20
98.281640030123313
 30
0.0
  9
$LIMMIN
 10
-101.0562418699529
 20
-43.02677985117878
  9
$LIMMAX
 10
167.7295052817376
 20
98.281640030123313
  9
$ORTHOMODE
 70
     0
  9
$REGENMODE
 70
     1
  9
$FILLMODE
 70
     1
  9
$QTEXTMODE
 70
     0
  9
$MIRRTEXT
 70
     1
  9
$DRAGMODE
 70
     2
  9
$LTSCALE
 40
1.0
  9
$OSMODE
 70
    37
  9
$ATTMODE
 70
     1
  9
$TEXTSIZE
 40
3.5
  9
$TRACEWID
 40
0.5
  9
$TEXTSTYLE
  7
STANDARD
  9
$CLAYER
  8
0
  9
$CELTYPE
  6
BYLAYER
  9
$CECOLOR
 62
   256
  9
$DIMSCALE
 40
1.0
  9
$DIMASZ
 40
0.18
  9
$DIMEXO
 40
0.0625
  9
$DIMDLI
 40
0.38
  9
$DIMRND
 40
0.0
  9
$DIMDLE
 40
0.0
  9
$DIMEXE
 40
0.18
  9
$DIMTP
 40
0.0
  9
$DIMTM
 40
0.0
  9
$DIMTXT
 40
0.18
  9
$DIMCEN
 40
0.09
  9
$DIMTSZ
 40
0.0
  9
$DIMTOL
 70
     0
  9
$DIMLIM
 70
     0
  9
$DIMTIH
 70
     1
  9
$DIMTOH
 70
     1
  9
$DIMSE1
 70
     0
  9
$DIMSE2
 70
     0
  9
$DIMTAD
 70
     0
  9
$DIMZIN
 70
     0
  9
$DIMBLK
  1

  9
$DIMASO
 70
     1
  9
$DIMSHO
 70
     1
  9
$DIMPOST
  1

  9
$DIMAPOST
  1

  9
$DIMALT
 70
     0
  9
$DIMALTD
 70
     2
  9
$DIMALTF
 40
25.399999999999999
  9
$DIMLFAC
 40
1.0
  9
$DIMTOFL
 70
     0
  9
$DIMTVP
 40
0.0
  9
$DIMTIX
 70
     0
  9
$DIMSOXD
 70
     0
  9
$DIMSAH
 70
     0
  9
$DIMBLK1
  1

  9
$DIMBLK2
  1

  9
$DIMSTYLE
  2
STANDARD
  9
$DIMCLRD
 70
     0
  9
$DIMCLRE
 70
     0
  9
$DIMCLRT
 70
     0
  9
$DIMTFAC
 40
1.0
  9
$DIMGAP
 40
0.09
  9
$LUNITS
 70
     2
  9
$LUPREC
 70
     4
  9
$SKETCHINC
 40
0.1
  9
$FILLETRAD
 40
2.0
  9
$AUNITS
 70
     0
  9
$AUPREC
 70
     0
  9
$MENU
  1
ACAD
  9
$ELEVATION
 40
0.0
  9
$PELEVATION
 40
0.0
  9
$THICKNESS
 40
0.0
  9
$LIMCHECK
 70
     0
  9
$BLIPMODE
 70
     0
  9
$CHAMFERA
 40
0.0
  9
$CHAMFERB
 40
0.0
  9
$SKPOLY
 70
     0
  9
$TDCREATE
 40
2452094.9811421288
  9
$TDUPDATE
 40
2452094.9818059029
  9
$TDINDWG
 40
0.0006738426
  9
$TDUSRTIMER
 40
0.0006738426
  9
$USRTIMER
 70
     1
  9
$ANGBASE
 50
0.0
  9
$ANGDIR
 70
     0
  9
$PDMODE
 70
     0
  9
$PDSIZE
 40
0.0
  9
$PLINEWID
 40
0.0
  9
$COORDS
 70
     1
  9
$SPLFRAME
 70
     0
  9
$SPLINETYPE
 70
     6
  9
$SPLINESEGS
 70
     8
  9
$ATTDIA
 70
     0
  9
$ATTREQ
 70
     1
  9
$HANDLING
 70
 10241
  9
$HANDSEED
  5
1DE
  9
$SURFTAB1
 70
     6
  9
$SURFTAB2
 70
     6
  9
$SURFTYPE
 70
     6
  9
$SURFU
 70
     6
  9
$SURFV
 70
     6
  9
$UCSNAME
  2

  9
$UCSORG
 10
0.0
 20
0.0
 30
0.0
  9
$UCSXDIR
 10
1.0
 20
0.0
 30
0.0
  9
$UCSYDIR
 10
0.0
 20
1.0
 30
0.0
  9
$PUCSNAME
  2

  9
$PUCSORG
 10
0.0
 20
0.0
 30
0.0
  9
$PUCSXDIR
 10
1.0
 20
0.0
 30
0.0
  9
$PUCSYDIR
 10
0.0
 20
1.0
 30
0.0
  9
$USERI1
 70
     0
  9
$USERI2
 70
     0
  9
$USERI3
 70
     0
  9
$USERI4
 70
     0
  9
$USERI5
 70
     0
  9
$USERR1
 40
0.0
  9
$USERR2
 40
0.0
  9
$USERR3
 40
0.0
  9
$USERR4
 40
0.0
  9
$USERR5
 40
0.0
  9
$WORLDVIEW
 70
     1
  9
$SHADEDGE
 70
     3
  9
$SHADEDIF
 70
    70
  9
$TILEMODE
 70
     1
  9
$MAXACTVP
 70
    64
  9
$PLIMCHECK
 70
     0
  9
$PEXTMIN
 10
1.0000000000000000E+020
 20
1.0000000000000000E+020
 30
1.0000000000000000E+020
  9
$PEXTMAX
 10
-1.0000000000000000E+020
 20
-1.0000000000000000E+020
 30
-1.0000000000000000E+020
  9
$PLIMMIN
 10
0.0
 20
0.0
  9
$PLIMMAX
 10
12.0
 20
9.0
  9
$UNITMODE
 70
     0
  9
$VISRETAIN
 70
     1
  9
$PLINEGEN
 70
     0
  9
$PSLTSCALE
 70
     1
  0
ENDSEC
  0
SECTION
  2
TABLES
  0
TABLE
  2
VPORT
 70
     2
  0
VPORT
  2
*ACTIVE
 70
     0
 10
0.0
 20
0.0
 11
1.0
 21
1.0
 12
-78.830300262739684
 22
94.023792576655623
 13
0.0
 23
0.0
 14
1.0
 24
1.0
 15
0.0
 25
0.0
 16
0.0
 26
0.0
 36
1.0
 17
0.0
 27
0.0
 37
0.0
 40
8.9999998264983923
 41
2.4144144144144142
 42
50.0
 43
0.0
 44
0.0
 50
0.0
 51
0.0
 71
     0
 72
   100
 73
     1
 74
     1
 75
     0
 76
     0
 77
     0
 78
     0
  0
ENDTAB
  0
TABLE
  2
LTYPE
 70
     9
  0
LTYPE
  2
CONTINUOUS
 70
     0
  3
Solid line
 72
    65
 73
     0
 40
0.0
  0
LTYPE
  2
BORDER
 70
     0
  3
__ __ . __ __ .
 72
    65
 73
     6
 40
12.378290987248899
 49
3.5366545677854031
 49
-1.7683272838927011
 49
3.5366545677854031
 49
-1.7683272838927011
 49
0.0
 49
-1.7683272838927011
  0
LTYPE
  2
CENTER
 70
     0
  3
____ _ ____ _
 72
    65
 73
     4
 40
14.146618271141611
 49
8.8416364194635086
 49
-1.7683272838927011
 49
1.7683272838927011
 49
-1.7683272838927011
  0
LTYPE
  2
DASHDOT
 70
     0
  3
__ . __ . __ .
 72
    65
 73
     4
 40
7.0733091355708071
 49
3.5366545677854031
 49
-1.7683272838927011
 49
0.0
 49
-1.7683272838927011
  0
LTYPE
  2
DASHED
 70
     0
  3
__ __ __ __ __
 72
    65
 73
     2
 40
5.3049818516781064
 49
3.5366545677854031
 49
-1.7683272838927011
  0
LTYPE
  2
DIVIDE
 70
     0
  3
__ . . __ . . 
 72
    65
 73
     6
 40
8.8416364194635086
 49
3.5366545677854031
 49
-1.7683272838927011
 49
0.0
 49
-1.7683272838927011
 49
0.0
 49
-1.7683272838927011
  0
LTYPE
  2
DOT
 70
     0
  3
..............
 72
    65
 73
     4
 40
3.5366545677854031
 49
0.0
 49
-1.7683272838927011
 49
0.0
 49
-1.7683272838927011
  0
LTYPE
  2
HIDDEN
 70
     0
  3
_ _ _ _ _ _ _
 72
    65
 73
     2
 40
2.6524909258390532
 49
1.7683272838927011
 49
-0.8841636419463508
  0
LTYPE
  2
PHANTOM
 70
     0
  3
_____ _ _ _____ _ _ 
 72
    65
 73
     6
 40
17.68327283892701
 49
8.8416364194635086
 49
-1.7683272838927011
 49
1.7683272838927011
 49
-1.7683272838927011
 49
1.7683272838927011
 49
-1.7683272838927011
  0
ENDTAB
  0
TABLE
  2
LAYER
 70
     2
  0
LAYER
  2
0
 70
     0
 62
     7
  6
CONTINUOUS
  0
LAYER
  2
1
 70
     0
 62
     7
  6
CONTINUOUS
  0
ENDTAB
  0
TABLE
  2
STYLE
 70
     4
  0
STYLE
  2
STANDARD
 70
     0
 40
0.0
 41
1.0
 50
0.0
 71
     0
 42
3.5
  3
txt
  4

  0
STYLE
  2
SIMPLEX
 70
     0
 40
0.0
 41
1.0
 50
0.0
 71
     0
 42
3.5
  3
simplex
  4

  0
STYLE
  2
COMPLEX
 70
     0
 40
0.0
 41
1.0
 50
0.0
 71
     0
 42
3.5
  3
complex
  4

  0
STYLE
  2
ITALIC
 70
     0
 40
0.0
 41
1.0
 50
0.0
 71
     0
 42
3.5
  3
italic
  4

  0
ENDTAB
  0
TABLE
  2
VIEW
 70
     0
  0
ENDTAB
  0
TABLE
  2
UCS
 70
     0
  0
ENDTAB
  0
TABLE
  2
APPID
 70
     1
  0
APPID
  2
ACAD
 70
     0
  0
ENDTAB
  0
TABLE
  2
DIMSTYLE
 70
     1
  0
DIMSTYLE
  2
STANDARD
 70
     0
  3

  4

  5

  6

  7

 40
1.0
 41
0.18
 42
0.0625
 43
0.38
 44
0.18
 45
0.0
 46
0.0
 47
0.0
 48
0.0
140
0.18
141
0.09
142
0.0
143
25.399999999999999
144
1.0
145
0.0
146
1.0
147
0.09
 71
     0
 72
     0
 73
     1
 74
     1
 75
     0
 76
     0
 77
     0
 78
     0
170
     0
171
     2
172
     0
173
     0
174
     0
175
     0
176
     0
177
     0
178
     0
  0
ENDTAB
  0
ENDSEC
  0
SECTION
  2
BLOCKS
  0
BLOCK
  8
0
  2
$MODEL_SPACE
 70
     0
 10
0.0
 20
0.0
 30
0.0
  3
$MODEL_SPACE
  1

  0
ENDBLK
  5
20
  8
0
  0
BLOCK
 67
     1
  8
0
  2
$PAPER_SPACE
 70
     0
 10
0.0
 20
0.0
 30
0.0
  3
$PAPER_SPACE
  1

  0
ENDBLK
  5
1C
 67
     1
  8
0
  0
ENDSEC
  0
SECTION
  2
ENTITIES
  0
LINE
  5
33
  8
1
 62
     3
 10
47.300000000000033
 20
38.600000000000001
 30
0.0
 11
50.5
 21
38.600000000000001
 31
0.0
  0
LINE
  5
34
  8
1
 62
     7
 10
37.10000000000003
 20
35.0
 30
0.0
 11
21.0
 21
35.0
 31
0.0
  0
LINE
  5
35
  8
1
 62
     3
 10
37.10000000000003
 20
35.399999999999999
 30
0.0
 11
21.0
 21
35.399999999999999
 31
0.0
  0
LINE
  5
36
  8
1
 62
     3
 10
37.10000000000003
 20
38.600000000000001
 30
0.0
 11
21.0
 21
38.600000000000001
 31
0.0
  0
LINE
  5
37
  8
1
 62
     7
 10
3.9000000000000061
 20
17.25
 30
0.0
 11
3.4000000000000061
 21
16.75
 31
0.0
  0
LINE
  5
38
  8
1
 62
     7
 10
9.2000000000000153
 20
17.25
 30
0.0
 11
3.9000000000000061
 21
17.25
 31
0.0
  0
LINE
  5
39
  8
1
 62
     7
 10
3.4000000000000061
 20
14.25
 30
0.0
 11
9.7000000000000153
 21
14.25
 31
0.0
  0
LINE
  5
3A
  8
1
 62
     7
 10
3.4000000000000061
 20
12.0
 30
0.0
 11
3.4000000000000061
 21
16.75
 31
0.0
  0
LINE
  5
3B
  8
1
 62
     7
 10
2.7999999999999972
 20
12.0
 30
0.0
 11
3.4000000000000061
 21
12.0
 31
0.0
  0
LINE
  5
3C
  8
1
 62
     7
 10
9.7000000000000153
 20
-20.0
 30
0.0
 11
10.599999999999991
 21
-20.0
 31
0.0
  0
LINE
  5
3D
  8
1
 62
     7
 10
9.7000000000000153
 20
20.0
 30
0.0
 11
10.599999999999991
 21
20.0
 31
0.0
  0
LINE
  5
3E
  8
1
 62
     7
 10
9.7000000000000153
 20
31.0
 30
0.0
 11
10.599999999999991
 21
31.0
 31
0.0
  0
LINE
  5
3F
  8
1
 62
     7
 10
10.599999999999991
 20
-32.0
 30
0.0
 11
15.200000000000021
 21
-32.0
 31
0.0
  0
LINE
  5
40
  8
1
 62
     7
 10
10.599999999999991
 20
42.5
 30
0.0
 11
15.200000000000021
 21
42.5
 31
0.0
  0
LINE
  5
41
  8
1
 62
     7
 10
10.599999999999991
 20
42.5
 30
0.0
 11
10.599999999999991
 21
39.649999999999991
 31
0.0
  0
LINE
  5
42
  8
1
 62
     7
 10
15.700000000000021
 20
-30.75
 30
0.0
 11
39.800000000000033
 21
-30.75
 31
0.0
  0
LINE
  5
43
  8
1
 62
     7
 10
40.300000000000033
 20
-31.5
 30
0.0
 11
40.300000000000033
 21
42.0
 31
0.0
  0
LINE
  5
44
  8
1
 62
     7
 10
15.700000000000021
 20
30.75
 30
0.0
 11
39.800000000000033
 21
30.75
 31
0.0
  0
LINE
  5
45
  8
1
 62
     7
 10
15.700000000000021
 20
30.75
 30
0.0
 11
15.700000000000021
 21
12.0
 31
0.0
  0
LINE
  5
46
  8
1
 62
     7
 10
39.800000000000033
 20
30.75
 30
0.0
 11
40.300000000000033
 21
30.25
 31
0.0
  0
LINE
  5
47
  8
1
 62
     7
 10
40.300000000000033
 20
-30.25
 30
0.0
 11
39.800000000000033
 21
-30.75
 31
0.0
  0
LINE
  5
48
  8
1
 62
     7
 10
43.0
 20
42.5
 30
0.0
 11
40.800000000000033
 21
42.5
 31
0.0
  0
LINE
  5
49
  8
1
 62
     7
 10
43.5
 20
-31.5
 30
0.0
 11
43.5
 21
42.0
 31
0.0
  0
LINE
  5
4A
  8
1
 62
     7
 10
43.0
 20
-32.0
 30
0.0
 11
40.800000000000033
 21
-32.0
 31
0.0
  0
LINE
  5
4B
  8
1
 62
     7
 10
40.300000000000033
 20
10.0
 30
0.0
 11
43.5
 21
10.0
 31
0.0
  0
LINE
  5
4C
  8
1
 62
     7
 10
40.300000000000033
 20
-10.0
 30
0.0
 11
43.5
 21
-10.0
 31
0.0
  0
LINE
  5
4D
  8
1
 62
     7
 10
15.700000000000021
 20
-13.5
 30
0.0
 11
40.300000000000033
 21
-13.5
 31
0.0
  0
LINE
  5
4E
  8
1
 62
     7
 10
15.700000000000021
 20
13.5
 30
0.0
 11
40.300000000000033
 21
13.5
 31
0.0
  0
LINE
  5
4F
  8
1
 62
     7
 10
0.5
 20
-42.5
 30
0.0
 11
4.200000000000002
 21
-42.5
 31
0.0
  0
LINE
  5
50
  8
1
 62
     7
 10
4.200000000000002
 20
42.5
 30
0.0
 11
0.5
 21
42.5
 31
0.0
  0
LINE
  5
51
  8
1
 62
     7
 10
0.0
 20
42.0
 30
0.0
 11
0.0
 21
-34.5
 31
0.0
  0
LINE
  5
52
  8
1
 62
     7
 10
15.200000000000021
 20
39.649999999999991
 30
0.0
 11
15.200000000000021
 21
42.5
 31
0.0
  0
LINE
  5
53
  8
1
 62
     7
 10
4.700000000000002
 20
31.0
 30
0.0
 11
9.7000000000000153
 21
31.0
 31
0.0
  0
LINE
  5
54
  8
1
 62
     7
 10
4.700000000000002
 20
-31.0
 30
0.0
 11
10.599999999999991
 21
-31.0
 31
0.0
  0
LINE
  5
55
  8
1
 62
     7
 10
4.700000000000002
 20
15.0
 30
0.0
 11
9.7000000000000153
 21
15.0
 31
0.0
  0
LINE
  5
56
  8
1
 62
     7
 10
4.700000000000002
 20
-15.0
 30
0.0
 11
9.7000000000000153
 21
-15.0
 31
0.0
  0
LINE
  5
57
  8
1
 62
     7
 10
0.0
 20
22.0
 30
0.0
 11
4.700000000000002
 21
22.0
 31
0.0
  0
LINE
  5
58
  8
1
 62
     7
 10
0.0
 20
-22.0
 30
0.0
 11
4.700000000000002
 21
-22.0
 31
0.0
  0
LINE
  5
59
  8
1
 62
     7
 10
4.700000000000002
 20
18.0
 30
0.0
 11
9.7000000000000153
 21
18.0
 31
0.0
  0
LINE
  5
5A
  8
1
 62
     7
 10
4.700000000000002
 20
-18.0
 30
0.0
 11
9.7000000000000153
 21
-18.0
 31
0.0
  0
LINE
  5
5B
  8
1
 62
     7
 10
50.09999999999998
 20
39.0
 30
0.0
 11
50.5
 21
38.600000000000001
 31
0.0
  0
LINE
  5
5C
  8
1
 62
     7
 10
50.5
 20
38.600000000000001
 30
0.0
 11
50.5
 21
35.399999999999999
 31
0.0
  0
LINE
  5
5D
  8
1
 62
     7
 10
50.5
 20
35.399999999999999
 30
0.0
 11
50.09999999999998
 21
35.0
 31
0.0
  0
LINE
  5
5E
  8
1
 62
     7
 10
50.09999999999998
 20
35.0
 30
0.0
 11
47.300000000000033
 21
35.0
 31
0.0
  0
LINE
  5
5F
  8
1
 62
     7
 10
50.09999999999998
 20
39.0
 30
0.0
 11
50.09999999999998
 21
35.0
 31
0.0
  0
LINE
  5
60
  8
1
 62
     3
 10
50.5
 20
35.399999999999999
 30
0.0
 11
47.300000000000033
 21
35.399999999999999
 31
0.0
  0
LINE
  5
61
  8
1
 62
     7
 10
4.700000000000002
 20
39.649999999999991
 30
0.0
 11
17.200000000000021
 21
39.649999999999991
 31
0.0
  0
LINE
  5
62
  8
1
 62
     7
 10
17.200000000000021
 20
34.350000000000001
 30
0.0
 11
4.700000000000002
 21
34.350000000000001
 31
0.0
  0
LINE
  5
63
  8
1
 62
     7
 10
4.700000000000002
 20
42.0
 30
0.0
 11
4.700000000000002
 21
14.25
 31
0.0
  0
LINE
  5
64
  8
1
 62
     7
 10
15.200000000000021
 20
34.350000000000001
 30
0.0
 11
15.200000000000021
 21
12.0
 31
0.0
  0
LINE
  5
65
  8
1
 62
     7
 10
20.400000000000009
 20
40.037500000000001
 30
0.0
 11
20.400000000000009
 21
33.962500000000013
 31
0.0
  0
LINE
  5
66
  8
1
 62
     7
 10
20.024722325026708
 20
41.050000000000011
 30
0.0
 11
17.200000000000021
 21
41.050000000000011
 31
0.0
  0
LINE
  5
67
  8
1
 62
     7
 10
20.024722325026708
 20
39.024999999999991
 30
0.0
 11
17.200000000000021
 21
39.024999999999991
 31
0.0
  0
LINE
  5
68
  8
1
 62
     7
 10
20.024722325026708
 20
34.975000000000001
 30
0.0
 11
17.200000000000021
 21
34.975000000000001
 31
0.0
  0
LINE
  5
69
  8
1
 62
     7
 10
20.024722325026708
 20
32.950000000000003
 30
0.0
 11
17.200000000000021
 21
32.950000000000003
 31
0.0
  0
LINE
  5
6A
  8
1
 62
     7
 10
17.200000000000021
 20
41.050000000000011
 30
0.0
 11
17.200000000000021
 21
32.950000000000003
 31
0.0
  0
LINE
  5
6B
  8
1
 62
     7
 10
21.0
 20
39.437500000000007
 30
0.0
 11
21.0
 21
34.562499999999993
 31
0.0
  0
LINE
  5
6C
  8
1
 62
     7
 10
21.0
 20
39.0
 30
0.0
 11
37.10000000000003
 21
39.0
 31
0.0
  0
LINE
  5
6D
  8
1
 62
     7
 10
47.300000000000033
 20
39.437500000000007
 30
0.0
 11
47.300000000000033
 21
34.562499999999993
 31
0.0
  0
LINE
  5
6E
  8
1
 62
     7
 10
46.324722325026713
 20
32.950000000000003
 30
0.0
 11
43.5
 21
32.950000000000003
 31
0.0
  0
LINE
  5
6F
  8
1
 62
     7
 10
46.324722325026713
 20
34.975000000000001
 30
0.0
 11
43.5
 21
34.975000000000001
 31
0.0
  0
LINE
  5
70
  8
1
 62
     7
 10
46.324722325026713
 20
39.024999999999991
 30
0.0
 11
43.5
 21
39.024999999999991
 31
0.0
  0
LINE
  5
71
  8
1
 62
     7
 10
46.324722325026713
 20
41.050000000000011
 30
0.0
 11
43.5
 21
41.050000000000011
 31
0.0
  0
LINE
  5
72
  8
1
 62
     7
 10
46.70000000000001
 20
40.037500000000001
 30
0.0
 11
46.70000000000001
 21
33.962500000000013
 31
0.0
  0
LINE
  5
73
  8
1
 62
     7
 10
50.09999999999998
 20
39.0
 30
0.0
 11
47.300000000000033
 21
39.0
 31
0.0
  0
LINE
  5
74
  8
1
 62
     7
 10
37.10000000000003
 20
33.962500000000013
 30
0.0
 11
37.10000000000003
 21
40.037500000000001
 31
0.0
  0
LINE
  5
75
  8
1
 62
     7
 10
37.475277674973199
 20
32.950000000000003
 30
0.0
 11
40.300000000000033
 21
32.950000000000003
 31
0.0
  0
LINE
  5
76
  8
1
 62
     7
 10
37.475277674973199
 20
34.975000000000001
 30
0.0
 11
40.300000000000033
 21
34.975000000000001
 31
0.0
  0
LINE
  5
77
  8
1
 62
     7
 10
37.475277674973199
 20
39.024999999999991
 30
0.0
 11
40.300000000000033
 21
39.024999999999991
 31
0.0
  0
LINE
  5
78
  8
1
 62
     7
 10
37.475277674973199
 20
41.050000000000011
 30
0.0
 11
40.300000000000033
 21
41.050000000000011
 31
0.0
  0
LINE
  5
79
  8
1
 62
     7
 10
43.0
 20
-32.0
 30
0.0
 11
43.5
 21
-31.5
 31
0.0
  0
LINE
  5
7A
  8
1
 62
     7
 10
40.800000000000033
 20
-32.0
 30
0.0
 11
40.300000000000033
 21
-31.5
 31
0.0
  0
LINE
  5
7B
  8
1
 62
     7
 10
43.5
 20
42.0
 30
0.0
 11
43.0
 21
42.5
 31
0.0
  0
LINE
  5
7C
  8
1
 62
     7
 10
40.800000000000033
 20
42.5
 30
0.0
 11
40.300000000000033
 21
42.0
 31
0.0
  0
LINE
  5
7D
  8
1
 62
     7
 10
4.700000000000002
 20
42.0
 30
0.0
 11
4.200000000000002
 21
42.5
 31
0.0
  0
LINE
  5
7E
  8
1
 62
     7
 10
0.0
 20
42.0
 30
0.0
 11
0.5
 21
42.5
 31
0.0
  0
LINE
  5
7F
  8
1
 62
     7
 10
0.0
 20
-42.0
 30
0.0
 11
0.5
 21
-42.5
 31
0.0
  0
LINE
  5
80
  8
1
 62
     7
 10
4.700000000000002
 20
-42.0
 30
0.0
 11
4.200000000000002
 21
-42.5
 31
0.0
  0
LINE
  5
81
  8
1
 62
     7
 10
32.300000000000033
 20
35.0
 30
0.0
 11
32.300000000000033
 21
30.75
 31
0.0
  0
LINE
  5
82
  8
1
 62
     7
 10
34.300000000000033
 20
35.0
 30
0.0
 11
34.300000000000033
 21
30.75
 31
0.0
  0
LINE
  5
83
  8
1
 62
     7
 10
32.300000000000033
 20
39.0
 30
0.0
 11
32.300000000000033
 21
51.920384555664853
 31
0.0
  0
LINE
  5
84
  8
1
 62
     7
 10
32.300000000000033
 20
51.920384555664853
 30
0.0
 11
34.300000000000033
 21
51.920384555664853
 31
0.0
  0
LINE
  5
85
  8
1
 62
     7
 10
34.300000000000033
 20
51.920384555664853
 30
0.0
 11
34.300000000000033
 21
39.0
 31
0.0
  0
LINE
  5
86
  8
1
 62
     7
 10
32.900000000000013
 20
54.920384555664839
 30
0.0
 11
32.900000000000013
 21
51.920384555664853
 31
0.0
  0
LINE
  5
87
  8
1
 62
     7
 10
33.10000000000003
 20
51.920384555664853
 30
0.0
 11
33.10000000000003
 21
54.920384555664839
 31
0.0
  0
LINE
  5
88
  8
1
 62
     7
 10
33.300000000000033
 20
54.920384555664839
 30
0.0
 11
33.300000000000033
 21
51.920384555664853
 31
0.0
  0
LINE
  5
89
  8
1
 62
     7
 10
33.5
 20
51.920384555664853
 30
0.0
 11
33.5
 21
54.920384555664839
 31
0.0
  0
LINE
  5
8A
  8
1
 62
     7
 10
33.70000000000001
 20
54.920384555664839
 30
0.0
 11
33.70000000000001
 21
51.920384555664853
 31
0.0
  0
LINE
  5
8B
  8
1
 62
     7
 10
15.200000000000021
 20
13.5
 30
0.0
 11
10.599999999999991
 21
13.5
 31
0.0
  0
LINE
  5
8C
  8
1
 62
     7
 10
15.200000000000021
 20
-13.5
 30
0.0
 11
10.599999999999991
 21
-13.5
 31
0.0
  0
LINE
  5
8D
  8
1
 62
     7
 10
2.7999999999999972
 20
12.0
 30
0.0
 11
2.7999999999999972
 21
-12.0
 31
0.0
  0
LINE
  5
8E
  8
1
 62
     7
 10
9.7000000000000153
 20
12.0
 30
0.0
 11
9.7000000000000153
 21
20.0
 31
0.0
  0
LINE
  5
8F
  8
1
 62
     7
 10
9.7000000000000153
 20
12.0
 30
0.0
 11
18.300000000000011
 21
12.0
 31
0.0
  0
LINE
  5
90
  8
1
 62
     7
 10
18.800000000000011
 20
11.5
 30
0.0
 11
18.800000000000011
 21
-11.5
 31
0.0
  0
LINE
  5
91
  8
1
 62
     7
 10
2.7999999999999972
 20
7.5
 30
0.0
 11
18.800000000000011
 21
7.5
 31
0.0
  0
LINE
  5
92
  8
1
 62
     7
 10
9.7000000000000153
 20
16.75
 30
0.0
 11
9.2000000000000153
 21
17.25
 31
0.0
  0
LINE
  5
93
  8
1
 62
     7
 10
18.800000000000011
 20
11.5
 30
0.0
 11
18.300000000000011
 21
12.0
 31
0.0
  0
LINE
  5
94
  8
1
 62
     7
 10
4.700000000000002
 20
-14.25
 30
0.0
 11
4.700000000000002
 21
-42.0
 31
0.0
  0
LINE
  5
95
  8
1
 62
     3
 10
13.300000000000001
 20
12.0
 30
0.0
 11
13.300000000000001
 21
11.1
 31
0.0
  0
LINE
  5
96
  8
1
 62
     3
 10
16.300000000000001
 20
12.0
 30
0.0
 11
16.300000000000001
 21
11.1
 31
0.0
  0
LINE
  5
97
  8
1
 62
     7
 10
13.599999999999991
 20
12.0
 30
0.0
 11
13.599999999999991
 21
11.5
 31
0.0
  0
LINE
  5
98
  8
1
 62
     7
 10
16.0
 20
12.0
 30
0.0
 11
16.0
 21
11.5
 31
0.0
  0
LINE
  5
99
  8
1
 62
     7
 10
13.599999999999991
 20
11.5
 30
0.0
 11
16.0
 21
11.5
 31
0.0
  0
LINE
  5
9A
  8
1
 62
     7
 10
13.300000000000001
 20
7.8999999999999977
 30
0.0
 11
16.300000000000001
 21
7.8999999999999977
 31
0.0
  0
LINE
  5
9B
  8
1
 62
     7
 10
13.300000000000001
 20
11.1
 30
0.0
 11
16.300000000000001
 21
11.1
 31
0.0
  0
LINE
  5
9C
  8
1
 62
     7
 10
13.599999999999991
 20
11.5
 30
0.0
 11
13.300000000000001
 21
11.1
 31
0.0
  0
LINE
  5
9D
  8
1
 62
     7
 10
16.0
 20
11.5
 30
0.0
 11
16.300000000000001
 21
11.1
 31
0.0
  0
LINE
  5
9E
  8
1
 62
     7
 10
16.300000000000001
 20
7.8999999999999977
 30
0.0
 11
16.0
 21
7.5
 31
0.0
  0
LINE
  5
9F
  8
1
 62
     7
 10
13.300000000000001
 20
7.8999999999999977
 30
0.0
 11
13.599999999999991
 21
7.5
 31
0.0
  0
LINE
  5
A0
  8
1
 62
     3
 10
16.0
 20
11.5
 30
0.0
 11
16.0
 21
7.5
 31
0.0
  0
LINE
  5
A1
  8
1
 62
     3
 10
13.599999999999991
 20
11.5
 30
0.0
 11
13.599999999999991
 21
7.5
 31
0.0
  0
LINE
  5
A2
  8
1
 62
     7
 10
13.300000000000001
 20
11.1
 30
0.0
 11
13.300000000000001
 21
7.8999999999999977
 31
0.0
  0
LINE
  5
A3
  8
1
 62
     3
 10
13.300000000000001
 20
7.8999999999999977
 30
0.0
 11
13.300000000000001
 21
7.5
 31
0.0
  0
LINE
  5
A4
  8
1
 62
     3
 10
16.300000000000001
 20
7.8999999999999977
 30
0.0
 11
16.300000000000001
 21
7.5
 31
0.0
  0
LINE
  5
A5
  8
1
 62
     7
 10
16.300000000000001
 20
11.1
 30
0.0
 11
16.300000000000001
 21
7.8999999999999977
 31
0.0
  0
LINE
  5
A6
  8
1
  6
DASHDOT
 62
     3
 10
14.80000000000001
 20
13.03373363354884
 30
0.0
 11
14.80000000000001
 21
6.8151487091358183
 31
0.0
  0
LINE
  5
A7
  8
1
 62
     7
 10
0.0
 20
-34.25
 30
0.0
 11
4.700000000000002
 21
-34.25
 31
0.0
  0
LINE
  5
A8
  8
1
 62
     7
 10
0.0
 20
-39.75
 30
0.0
 11
4.700000000000002
 21
-39.75
 31
0.0
  0
LINE
  5
A9
  8
1
 62
     7
 10
4.700000000000002
 20
-37.0
 30
0.0
 11
6.0
 21
-35.700000000000003
 31
0.0
  0
LINE
  5
AA
  8
1
 62
     7
 10
4.700000000000002
 20
-38.299999999999997
 30
0.0
 11
6.0
 21
-37.0
 31
0.0
  0
LINE
  5
AB
  8
1
 62
     7
 10
4.700000000000002
 20
-32.399999999999991
 30
0.0
 11
6.0
 21
-32.399999999999991
 31
0.0
  0
LINE
  5
AC
  8
1
 62
     7
 10
6.0
 20
-32.399999999999991
 30
0.0
 11
6.0
 21
-41.599999999999987
 31
0.0
  0
LINE
  5
AD
  8
1
 62
     7
 10
6.0
 20
-41.599999999999987
 30
0.0
 11
4.700000000000002
 21
-41.599999999999987
 31
0.0
  0
LINE
  5
AE
  8
1
 62
     7
 10
6.0
 20
-32.75
 30
0.0
 11
10.70000000000001
 21
-32.75
 31
0.0
  0
LINE
  5
AF
  8
1
 62
     7
 10
10.70000000000001
 20
-32.75
 30
0.0
 11
11.0
 21
-33.26961524227066
 31
0.0
  0
LINE
  5
B0
  8
1
 62
     7
 10
11.0
 20
-33.26961524227066
 30
0.0
 11
11.0
 21
-40.730384757729347
 31
0.0
  0
LINE
  5
B1
  8
1
 62
     7
 10
11.0
 20
-40.730384757729347
 30
0.0
 11
10.70000000000001
 21
-41.25
 31
0.0
  0
LINE
  5
B2
  8
1
 62
     7
 10
10.70000000000001
 20
-41.25
 30
0.0
 11
6.0
 21
-41.25
 31
0.0
  0
LINE
  5
B3
  8
1
 62
     7
 10
10.70000000000001
 20
-32.75
 30
0.0
 11
10.70000000000001
 21
-41.25
 31
0.0
  0
LINE
  5
B4
  8
1
 62
     7
 10
-7.5
 20
-34.5
 30
0.0
 11
-8.0
 21
-35.0
 31
0.0
  0
LINE
  5
B5
  8
1
 62
     7
 10
-8.0
 20
-35.0
 30
0.0
 11
-8.0
 21
-39.0
 31
0.0
  0
LINE
  5
B6
  8
1
 62
     7
 10
-8.0
 20
-39.0
 30
0.0
 11
-7.5
 21
-39.5
 31
0.0
  0
LINE
  5
B7
  8
1
 62
     7
 10
-7.5
 20
-39.5
 30
0.0
 11
4.700000000000002
 21
-39.5
 31
0.0
  0
LINE
  5
B8
  8
1
 62
     7
 10
-7.5
 20
-34.5
 30
0.0
 11
-7.5
 21
-39.5
 31
0.0
  0
LINE
  5
B9
  8
1
 62
     3
 10
-8.0
 20
-35.0
 30
0.0
 11
4.6339745962156069
 21
-35.0
 31
0.0
  0
LINE
  5
BA
  8
1
 62
     3
 10
4.6339745962156069
 20
-35.0
 30
0.0
 11
4.700000000000002
 21
-34.961880215351698
 31
0.0
  0
LINE
  5
BB
  8
1
 62
     3
 10
-8.0
 20
-39.0
 30
0.0
 11
4.6339745962156069
 21
-39.0
 31
0.0
  0
LINE
  5
BC
  8
1
 62
     3
 10
4.6339745962156069
 20
-39.0
 30
0.0
 11
4.700000000000002
 21
-39.038119784648302
 31
0.0
  0
LINE
  5
BD
  8
1
 62
     3
 10
4.6339745962156069
 20
-34.5
 30
0.0
 11
4.6339745962156069
 21
-39.5
 31
0.0
  0
LINE
  5
BE
  8
1
 62
     7
 10
-7.5
 20
-34.5
 30
0.0
 11
4.700000000000002
 21
-34.5
 31
0.0
  0
LINE
  5
BF
  8
1
 62
     7
 10
0.0
 20
-39.5
 30
0.0
 11
0.0
 21
-42.0
 31
0.0
  0
LINE
  5
C0
  8
1
  6
DASHDOT
 62
     3
 10
-11.056241869953
 20
-37.0
 30
0.0
 11
14.231006149963489
 21
-37.0
 31
0.0
  0
LINE
  5
C1
  8
1
 62
     7
 10
97.260772739843731
 20
-32.0
 30
0.0
 11
153.1982378236317
 21
-32.0
 31
0.0
  0
LINE
  5
C2
  8
1
 62
     7
 10
166.92668447378659
 20
-8.2216328929327496
 30
0.0
 11
138.95795193189261
 21
40.22163289293271
 31
0.0
  0
LINE
  5
C3
  8
1
 62
     7
 10
111.50105863158269
 20
40.221632892932739
 30
0.0
 11
83.53232608968861
 21
-8.221632892932714
 31
0.0
  0
LINE
  5
C4
  8
1
 62
     7
 10
138.70955270130739
 20
36.785260290224919
 30
0.0
 11
135.85181466806031
 21
39.642998323471971
 31
0.0
  0
LINE
  5
C5
  8
1
 62
     7
 10
135.85181466806031
 20
39.642998323471971
 30
0.0
 11
131.9480719172839
 21
38.596993605942572
 31
0.0
  0
LINE
  5
C6
  8
1
 62
     7
 10
131.9480719172839
 20
38.596993605942572
 30
0.0
 11
130.9020671997545
 21
34.69325085516612
 31
0.0
  0
LINE
  5
C7
  8
1
 62
     7
 10
130.9020671997545
 20
34.69325085516612
 30
0.0
 11
133.7598052330014
 21
31.835512821919082
 31
0.0
  0
LINE
  5
C8
  8
1
 62
     7
 10
133.7598052330014
 20
31.835512821919082
 30
0.0
 11
137.66354798377799
 21
32.881517539448481
 31
0.0
  0
LINE
  5
C9
  8
1
 62
     7
 10
137.66354798377799
 20
32.881517539448481
 30
0.0
 11
138.70955270130739
 21
36.785260290224919
 31
0.0
  0
LINE
  5
CA
  8
1
 62
     7
 10
118.51093864619151
 20
38.596993605942572
 30
0.0
 11
114.607195895415
 21
39.642998323471971
 31
0.0
  0
LINE
  5
CB
  8
1
 62
     7
 10
114.607195895415
 20
39.642998323471971
 30
0.0
 11
111.749457862168
 21
36.785260290224919
 31
0.0
  0
LINE
  5
CC
  8
1
 62
     7
 10
111.749457862168
 20
36.785260290224919
 30
0.0
 11
112.7954625796973
 21
32.881517539448481
 31
0.0
  0
LINE
  5
CD
  8
1
 62
     7
 10
112.7954625796973
 20
32.881517539448481
 30
0.0
 11
116.6992053304737
 21
31.835512821919082
 31
0.0
  0
LINE
  5
CE
  8
1
 62
     7
 10
116.6992053304737
 20
31.835512821919082
 30
0.0
 11
119.5569433637209
 21
34.69325085516612
 31
0.0
  0
LINE
  5
CF
  8
1
 62
     7
 10
119.5569433637209
 20
34.69325085516612
 30
0.0
 11
118.51093864619151
 21
38.596993605942572
 31
0.0
  0
LINE
  5
D0
  8
1
 62
     7
 10
98.020549660306031
 20
-22.259208153125801
 30
0.0
 11
95.162811627058986
 21
-25.11694618637285
 31
0.0
  0
LINE
  5
D1
  8
1
 62
     7
 10
101.9242924110824
 20
-23.305212870655211
 30
0.0
 11
98.020549660306031
 21
-22.259208153125801
 31
0.0
  0
LINE
  5
D2
  8
1
 62
     7
 10
102.9702971286118
 20
-27.208955621431642
 30
0.0
 11
101.9242924110824
 21
-23.305212870655211
 31
0.0
  0
LINE
  5
D3
  8
1
 62
     7
 10
100.1125590953648
 20
-30.066693654678691
 30
0.0
 11
102.9702971286118
 21
-27.208955621431642
 31
0.0
  0
LINE
  5
D4
  8
1
 62
     7
 10
96.208816344588413
 20
-29.020688937149291
 30
0.0
 11
100.1125590953648
 21
-30.066693654678691
 31
0.0
  0
LINE
  5
D5
  8
1
 62
     7
 10
95.162811627058986
 20
-25.11694618637285
 30
0.0
 11
96.208816344588413
 21
-29.020688937149291
 31
0.0
  0
LINE
  5
D6
  8
1
 62
     7
 10
90.536254426571617
 20
-5.6725619180168616
 30
0.0
 11
86.632511675795115
 21
-6.7185666355462494
 31
0.0
  0
LINE
  5
D7
  8
1
 62
     7
 10
93.393992459818591
 20
-8.5302999512638813
 30
0.0
 11
90.536254426571617
 21
-5.6725619180168616
 31
0.0
  0
LINE
  5
D8
  8
1
 62
     7
 10
92.347987742289206
 20
-12.434042702040291
 30
0.0
 11
93.393992459818591
 21
-8.5302999512638813
 31
0.0
  0
LINE
  5
D9
  8
1
 62
     7
 10
88.444244991512775
 20
-13.48004741956969
 30
0.0
 11
92.347987742289206
 21
-12.434042702040291
 31
0.0
  0
LINE
  5
DA
  8
1
 62
     7
 10
85.586506958265716
 20
-10.622309386322661
 30
0.0
 11
88.444244991512775
 21
-13.48004741956969
 31
0.0
  0
LINE
  5
DB
  8
1
 62
     7
 10
86.632511675795115
 20
-6.7185666355462494
 30
0.0
 11
85.586506958265716
 21
-10.622309386322661
 31
0.0
  0
LINE
  5
DC
  8
1
 62
     7
 10
158.11102282118611
 20
-12.434042702040349
 30
0.0
 11
162.0147655719625
 21
-13.48004741956975
 31
0.0
  0
LINE
  5
DD
  8
1
 62
     7
 10
157.0650181036568
 20
-8.5302999512639097
 30
0.0
 11
158.11102282118611
 21
-12.434042702040349
 31
0.0
  0
LINE
  5
DE
  8
1
 62
     7
 10
159.92275613690381
 20
-5.6725619180168616
 30
0.0
 11
157.0650181036568
 21
-8.5302999512639097
 31
0.0
  0
LINE
  5
DF
  8
1
 62
     7
 10
163.82649888768029
 20
-6.7185666355462628
 30
0.0
 11
159.92275613690381
 21
-5.6725619180168616
 31
0.0
  0
LINE
  5
E0
  8
1
 62
     7
 10
164.8725036052096
 20
-10.622309386322691
 30
0.0
 11
163.82649888768029
 21
-6.7185666355462628
 31
0.0
  0
LINE
  5
E1
  8
1
 62
     7
 10
162.0147655719625
 20
-13.48004741956975
 30
0.0
 11
164.8725036052096
 21
-10.622309386322691
 31
0.0
  0
LINE
  5
E2
  8
1
 62
     7
 10
147.4887134348634
 20
-27.208955621431642
 30
0.0
 11
150.3464514681105
 21
-30.066693654678691
 31
0.0
  0
LINE
  5
E3
  8
1
 62
     7
 10
148.53471815239291
 20
-23.305212870655222
 30
0.0
 11
147.4887134348634
 21
-27.208955621431642
 31
0.0
  0
LINE
  5
E4
  8
1
 62
     7
 10
152.4384609031693
 20
-22.259208153125851
 30
0.0
 11
148.53471815239291
 21
-23.305212870655222
 31
0.0
  0
LINE
  5
E5
  8
1
 62
     7
 10
155.29619893641629
 20
-25.1169461863729
 30
0.0
 11
152.4384609031693
 21
-22.259208153125851
 31
0.0
  0
LINE
  5
E6
  8
1
 62
     7
 10
154.250194218887
 20
-29.020688937149309
 30
0.0
 11
155.29619893641629
 21
-25.1169461863729
 31
0.0
  0
LINE
  5
E7
  8
1
 62
     7
 10
150.3464514681105
 20
-30.066693654678691
 30
0.0
 11
154.250194218887
 21
-29.020688937149309
 31
0.0
  0
LINE
  5
E8
  8
1
 62
     7
 10
159.2724452217619
 20
19.654700538379249
 30
0.0
 11
157.2724452217619
 21
20.809401076758501
 31
0.0
  0
LINE
  5
E9
  8
1
 62
     7
 10
157.2724452217619
 20
20.809401076758501
 30
0.0
 11
155.2724452217619
 21
19.654700538379249
 31
0.0
  0
LINE
  5
EA
  8
1
 62
     7
 10
155.2724452217619
 20
19.654700538379249
 30
0.0
 11
155.2724452217619
 21
17.345299461620751
 31
0.0
  0
LINE
  5
EB
  8
1
 62
     7
 10
155.2724452217619
 20
17.345299461620751
 30
0.0
 11
157.2724452217619
 21
16.190598923241499
 31
0.0
  0
LINE
  5
EC
  8
1
 62
     7
 10
157.2724452217619
 20
16.190598923241499
 30
0.0
 11
159.2724452217619
 21
17.345299461620751
 31
0.0
  0
LINE
  5
ED
  8
1
 62
     7
 10
159.2724452217619
 20
17.345299461620751
 30
0.0
 11
159.2724452217619
 21
19.654700538379249
 31
0.0
  0
LINE
  5
EE
  8
1
 62
     7
 10
95.186565341713404
 20
19.654700538379249
 30
0.0
 11
93.186565341713404
 21
20.809401076758501
 31
0.0
  0
LINE
  5
EF
  8
1
 62
     7
 10
93.186565341713404
 20
20.809401076758501
 30
0.0
 11
91.186565341713404
 21
19.654700538379249
 31
0.0
  0
LINE
  5
F0
  8
1
 62
     7
 10
91.186565341713404
 20
19.654700538379249
 30
0.0
 11
91.186565341713404
 21
17.345299461620751
 31
0.0
  0
LINE
  5
F1
  8
1
 62
     7
 10
91.186565341713404
 20
17.345299461620751
 30
0.0
 11
93.186565341713404
 21
16.190598923241499
 31
0.0
  0
LINE
  5
F2
  8
1
 62
     7
 10
93.186565341713404
 20
16.190598923241499
 30
0.0
 11
95.186565341713404
 21
17.345299461620751
 31
0.0
  0
LINE
  5
F3
  8
1
 62
     7
 10
95.186565341713404
 20
17.345299461620751
 30
0.0
 11
95.186565341713404
 21
19.654700538379249
 31
0.0
  0
LINE
  5
F4
  8
1
 62
     7
 10
127.2295052817377
 20
-35.845299461620741
 30
0.0
 11
125.2295052817377
 21
-34.690598923241502
 31
0.0
  0
LINE
  5
F5
  8
1
 62
     7
 10
125.2295052817377
 20
-34.690598923241502
 30
0.0
 11
123.2295052817377
 21
-35.845299461620741
 31
0.0
  0
LINE
  5
F6
  8
1
 62
     7
 10
123.2295052817377
 20
-35.845299461620741
 30
0.0
 11
123.2295052817377
 21
-38.154700538379252
 31
0.0
  0
LINE
  5
F7
  8
1
 62
     7
 10
123.2295052817377
 20
-38.154700538379252
 30
0.0
 11
125.2295052817377
 21
-39.309401076758498
 31
0.0
  0
LINE
  5
F8
  8
1
 62
     7
 10
125.2295052817377
 20
-39.309401076758498
 30
0.0
 11
127.2295052817377
 21
-38.154700538379252
 31
0.0
  0
LINE
  5
F9
  8
1
 62
     7
 10
127.2295052817377
 20
-38.154700538379252
 30
0.0
 11
127.2295052817377
 21
-35.845299461620741
 31
0.0
  0
LINE
  5
FA
  8
1
 62
     7
 10
127.2295052817377
 20
7.5
 30
0.0
 11
127.2295052817377
 21
5.656854249492369
 31
0.0
  0
LINE
  5
FB
  8
1
 62
     7
 10
123.2295052817377
 20
7.5
 30
0.0
 11
127.2295052817377
 21
7.5
 31
0.0
  0
LINE
  5
FC
  8
1
 62
     7
 10
123.2295052817377
 20
5.656854249492369
 30
0.0
 11
123.2295052817377
 21
7.5
 31
0.0
  0
LINE
  5
FD
  8
1
 62
     7
 10
92.77300616639269
 20
57.416305503591929
 30
0.0
 11
94.273006166392705
 21
54.818229292238627
 31
0.0
  0
LINE
  5
FE
  8
1
 62
     7
 10
94.44621124714952
 20
54.918229292238642
 30
0.0
 11
92.94621124714952
 21
57.516305503591958
 31
0.0
  0
LINE
  5
FF
  8
1
 62
     7
 10
93.119416327906407
 20
57.616305503591938
 30
0.0
 11
94.619416327906379
 21
55.01822929223863
 31
0.0
  0
LINE
  5
100
  8
1
 62
     7
 10
94.792621408663294
 20
55.11822929223861
 30
0.0
 11
93.292621408663308
 21
57.716305503591947
 31
0.0
  0
LINE
  5
101
  8
1
 62
     7
 10
93.465826489420209
 20
57.816305503591963
 30
0.0
 11
94.965826489420209
 21
55.21822929223864
 31
0.0
  0
LINE
  5
102
  8
1
 62
     7
 10
93.753390924122016
 20
54.518229292238637
 30
0.0
 11
95.485441731690926
 21
55.51822929223863
 31
0.0
  0
LINE
  5
103
  8
1
 62
     7
 10
103.9795052817377
 20
36.806079660838648
 30
0.0
 11
93.753390924122016
 21
54.518229292238637
 31
0.0
  0
LINE
  5
104
  8
1
 62
     7
 10
95.485441731690926
 20
55.51822929223863
 30
0.0
 11
105.7350985421791
 21
37.765302936328453
 31
0.0
  0
LINE
  5
105
  8
1
 62
     7
 10
102.27099692704139
 20
35.765302936328432
 30
0.0
 11
92.021340116553077
 21
53.518229292238637
 31
0.0
  0
LINE
  5
106
  8
1
 62
     7
 10
92.021340116553077
 20
53.518229292238637
 30
0.0
 11
93.753390924122016
 21
54.518229292238637
 31
0.0
  0
LINE
  5
107
  8
1
 62
     7
 10
91.733775681851313
 20
56.816305503591927
 30
0.0
 11
93.233775681851313
 21
54.21822929223864
 31
0.0
  0
LINE
  5
108
  8
1
 62
     7
 10
93.060570601094398
 20
54.118229292238617
 30
0.0
 11
91.560570601094383
 21
56.716305503591947
 31
0.0
  0
LINE
  5
109
  8
1
 62
     7
 10
91.387365520337525
 20
56.616305503591938
 30
0.0
 11
92.887365520337596
 21
54.018229292238637
 31
0.0
  0
LINE
  5
10A
  8
1
 62
     7
 10
92.714160439580596
 20
53.918229292238628
 30
0.0
 11
91.214160439580695
 21
56.516305503591958
 31
0.0
  0
LINE
  5
10B
  8
1
 62
     7
 10
91.040955358823794
 20
56.416305503591929
 30
0.0
 11
92.540955358823794
 21
53.818229292238627
 31
0.0
  0
LINE
  5
10C
  8
1
 62
     7
 10
105.7350985421791
 20
37.765302936328453
 30
0.0
 11
107.90899720604889
 21
34.00000000000005
 31
0.0
  0
LINE
  5
10D
  8
1
 62
     7
 10
103.9795052817377
 20
36.806079660838648
 30
0.0
 11
106.75429666766961
 21
32.000000000000121
 31
0.0
  0
LINE
  5
10E
  8
1
 62
     7
 10
102.27099692704139
 20
35.765302936328432
 30
0.0
 11
105.5995961292893
 21
29.99999999999811
 31
0.0
  0
LINE
  5
10F
  8
1
 62
     7
 10
18.800000000000011
 20
6.0
 30
0.0
 11
2.7999999999999972
 21
6.0
 31
0.0
  0
LINE
  5
110
  8
1
  6
DASHED
 62
     7
 10
131.22950528173769
 20
1.2000000000000091
 30
0.0
 11
131.5295052817377
 21
1.5
 31
0.0
  0
LINE
  5
111
  8
1
  6
DASHED
 62
     7
 10
131.5295052817377
 20
1.5
 30
0.0
 11
134.92950528173751
 21
1.5
 31
0.0
  0
LINE
  5
112
  8
1
  6
DASHED
 62
     7
 10
134.92950528173751
 20
1.5
 30
0.0
 11
135.1469119107222
 21
1.282593371015436
 31
0.0
  0
LINE
  5
113
  8
1
 62
     7
 10
135.22950528173769
 20
1.2000000000000091
 30
0.0
 11
135.22950528173769
 21
-1.2000000000000031
 31
0.0
  0
LINE
  5
114
  8
1
 62
     7
 10
135.22950528173769
 20
-1.2000000000000031
 30
0.0
 11
135.1469119107222
 21
-1.28259337101543
 31
0.0
  0
LINE
  5
115
  8
1
  6
DASHED
 62
     7
 10
134.92950528173751
 20
-1.5
 30
0.0
 11
131.5295052817377
 21
-1.5
 31
0.0
  0
LINE
  5
116
  8
1
  6
DASHED
 62
     7
 10
131.5295052817377
 20
-1.5
 30
0.0
 11
131.22950528173769
 21
-1.2000000000000031
 31
0.0
  0
LINE
  5
117
  8
1
  6
DASHED
 62
     7
 10
131.22950528173769
 20
-1.2000000000000031
 30
0.0
 11
131.22950528173769
 21
1.2000000000000091
 31
0.0
  0
LINE
  5
118
  8
1
  6
DASHED
 62
     7
 10
134.92950528173751
 20
1.5
 30
0.0
 11
134.92950528173751
 21
-1.5
 31
0.0
  0
LINE
  5
119
  8
1
  6
DASHED
 62
     7
 10
131.5295052817377
 20
-1.5
 30
0.0
 11
131.5295052817377
 21
1.5
 31
0.0
  0
LINE
  5
11A
  8
1
  6
DASHED
 62
     7
 10
131.22950528173769
 20
1.2000000000000091
 30
0.0
 11
131.10828066441721
 21
1.2000000000000091
 31
0.0
  0
LINE
  5
11B
  8
1
  6
DASHED
 62
     7
 10
131.22950528173769
 20
-1.2000000000000031
 30
0.0
 11
131.10828066441721
 21
-1.2000000000000031
 31
0.0
  0
LINE
  5
11C
  8
1
  6
DASHED
 62
     3
 10
131.0389803010487
 20
1.5
 30
0.0
 11
131.5295052817377
 21
1.5
 31
0.0
  0
LINE
  5
11D
  8
1
  6
DASHED
 62
     3
 10
131.22950528173769
 20
1.2000000000000091
 30
0.0
 11
135.22950528173769
 21
1.2000000000000091
 31
0.0
  0
LINE
  5
11E
  8
1
  6
DASHED
 62
     3
 10
131.0389803010487
 20
-1.5
 30
0.0
 11
131.5295052817377
 21
-1.5
 31
0.0
  0
LINE
  5
11F
  8
1
  6
DASHED
 62
     3
 10
131.22950528173769
 20
-1.2000000000000031
 30
0.0
 11
135.22950528173769
 21
-1.2000000000000031
 31
0.0
  0
LINE
  5
120
  8
1
  6
DASHED
 62
     3
 10
124.0295052817377
 20
7.5
 30
0.0
 11
124.0295052817377
 21
9.9277389167926877
 31
0.0
  0
LINE
  5
121
  8
1
  6
DASHED
 62
     3
 10
126.7295052817377
 20
7.5
 30
0.0
 11
126.7295052817377
 21
7.799999999999998
 31
0.0
  0
LINE
  5
122
  8
1
  6
DASHED
 62
     3
 10
123.7295052817377
 20
7.799999999999998
 30
0.0
 11
123.7295052817377
 21
7.5
 31
0.0
  0
LINE
  5
123
  8
1
  6
DASHED
 62
     7
 10
126.7295052817377
 20
7.799999999999998
 30
0.0
 11
126.7295052817377
 21
9.8868599666425876
 31
0.0
  0
LINE
  5
124
  8
1
  6
DASHED
 62
     7
 10
123.7295052817377
 20
7.799999999999998
 30
0.0
 11
123.7295052817377
 21
9.8868599666425876
 31
0.0
  0
LINE
  5
125
  8
1
  6
DASHED
 62
     7
 10
126.7295052817377
 20
7.799999999999998
 30
0.0
 11
126.4295052817377
 21
7.5
 31
0.0
  0
LINE
  5
126
  8
1
  6
DASHED
 62
     7
 10
124.0295052817377
 20
7.5
 30
0.0
 11
123.7295052817377
 21
7.799999999999998
 31
0.0
  0
LINE
  5
127
  8
1
  6
DASHED
 62
     7
 10
123.7295052817377
 20
7.799999999999998
 30
0.0
 11
126.7295052817377
 21
7.799999999999998
 31
0.0
  0
LINE
  5
128
  8
1
  6
DASHED
 62
     7
 10
135.1469119107222
 20
-1.28259337101543
 30
0.0
 11
134.92950528173751
 21
-1.5
 31
0.0
  0
LINE
  5
129
  8
1
 62
     7
 10
135.1469119107222
 20
1.282593371015436
 30
0.0
 11
135.22950528173769
 21
1.2000000000000091
 31
0.0
  0
LINE
  5
12A
  8
1
  6
DASHED
 62
     3
 10
126.4295052817377
 20
9.9277389167926877
 30
0.0
 11
126.4295052817377
 21
7.5
 31
0.0
  0
LINE
  5
12B
  8
1
 62
     7
 10
10.599999999999991
 20
34.350000000000001
 30
0.0
 11
10.599999999999991
 21
12.0
 31
0.0
  0
LINE
  5
12C
  8
1
 62
     7
 10
2.7999999999999972
 20
-6.0000000000000027
 30
0.0
 11
18.800000000000011
 21
-6.0000000000000027
 31
0.0
  0
LINE
  5
12D
  8
1
 62
     7
 10
18.300000000000011
 20
-12.0
 30
0.0
 11
18.800000000000011
 21
-11.5
 31
0.0
  0
LINE
  5
12E
  8
1
 62
     7
 10
18.300000000000011
 20
-12.0
 30
0.0
 11
9.7000000000000153
 21
-12.0
 31
0.0
  0
LINE
  5
12F
  8
1
 62
     7
 10
9.7000000000000153
 20
-20.0
 30
0.0
 11
9.7000000000000153
 21
-12.0
 31
0.0
  0
LINE
  5
130
  8
1
 62
     7
 10
9.7000000000000153
 20
-14.25
 30
0.0
 11
3.4000000000000061
 21
-14.25
 31
0.0
  0
LINE
  5
131
  8
1
 62
     7
 10
3.9000000000000061
 20
-17.25
 30
0.0
 11
9.2000000000000153
 21
-17.25
 31
0.0
  0
LINE
  5
132
  8
1
 62
     7
 10
9.2000000000000153
 20
-17.25
 30
0.0
 11
9.7000000000000153
 21
-16.75
 31
0.0
  0
LINE
  5
133
  8
1
 62
     7
 10
3.4000000000000061
 20
-16.75
 30
0.0
 11
3.9000000000000061
 21
-17.25
 31
0.0
  0
LINE
  5
134
  8
1
 62
     7
 10
3.4000000000000061
 20
-16.75
 30
0.0
 11
3.4000000000000061
 21
-12.0
 31
0.0
  0
LINE
  5
135
  8
1
 62
     7
 10
3.4000000000000061
 20
-12.0
 30
0.0
 11
2.7999999999999972
 21
-12.0
 31
0.0
  0
LINE
  5
136
  8
1
 62
     7
 10
10.599999999999991
 20
-12.0
 30
0.0
 11
10.599999999999991
 21
-32.0
 31
0.0
  0
LINE
  5
137
  8
1
 62
     7
 10
15.200000000000021
 20
-12.0
 30
0.0
 11
15.200000000000021
 21
-32.0
 31
0.0
  0
LINE
  5
138
  8
1
 62
     7
 10
15.700000000000021
 20
-12.0
 30
0.0
 11
15.700000000000021
 21
-30.75
 31
0.0
  0
LINE
  5
139
  8
1
 62
     3
 10
-5.0
 20
0.0
 30
0.0
 11
0.0
 21
0.0
 31
0.0
  0
LINE
  5
13A
  8
1
 62
     3
 10
43.5
 20
0.0
 30
0.0
 11
48.5
 21
0.0
 31
0.0
  0
LINE
  5
13B
  8
1
  6
DASHDOT
 62
     3
 10
12.50138907417031
 20
0.0
 30
0.0
 11
16.99749072508628
 21
0.0
 31
0.0
  0
LINE
  5
13C
  8
1
  6
DASHDOT
 62
     3
 10
14.80000000000001
 20
2.390413751091919
 30
0.0
 11
14.80000000000001
 21
-2.5711028775854801
 31
0.0
  0
LINE
  5
13D
  8
1
 62
     3
 10
-42.69999999999996
 20
38.600000000000001
 30
0.0
 11
-39.5
 21
38.600000000000001
 31
0.0
  0
LINE
  5
13E
  8
1
 62
     7
 10
-52.89999999999997
 20
35.0
 30
0.0
 11
-69.0
 21
35.0
 31
0.0
  0
LINE
  5
13F
  8
1
 62
     3
 10
-52.89999999999997
 20
35.399999999999999
 30
0.0
 11
-69.0
 21
35.399999999999999
 31
0.0
  0
LINE
  5
140
  8
1
 62
     3
 10
-52.89999999999997
 20
38.600000000000001
 30
0.0
 11
-69.0
 21
38.600000000000001
 31
0.0
  0
LINE
  5
141
  8
1
 62
     7
 10
-79.399999999999963
 20
-32.0
 30
0.0
 11
-74.799999999999983
 21
-32.0
 31
0.0
  0
LINE
  5
142
  8
1
 62
     7
 10
-79.399999999999963
 20
42.5
 30
0.0
 11
-74.799999999999983
 21
42.5
 31
0.0
  0
LINE
  5
143
  8
1
 62
     7
 10
-79.399999999999963
 20
42.5
 30
0.0
 11
-79.399999999999963
 21
-32.0
 31
0.0
  0
LINE
  5
144
  8
1
 62
     7
 10
-74.299999999999983
 20
-30.75
 30
0.0
 11
-50.199999999999967
 21
-30.75
 31
0.0
  0
LINE
  5
145
  8
1
 62
     7
 10
-49.699999999999967
 20
-31.5
 30
0.0
 11
-49.699999999999967
 21
42.0
 31
0.0
  0
LINE
  5
146
  8
1
 62
     7
 10
-74.299999999999983
 20
30.75
 30
0.0
 11
-50.199999999999967
 21
30.75
 31
0.0
  0
LINE
  5
147
  8
1
 62
     7
 10
-50.199999999999967
 20
30.75
 30
0.0
 11
-49.699999999999967
 21
30.25
 31
0.0
  0
LINE
  5
148
  8
1
 62
     7
 10
-49.699999999999967
 20
-30.25
 30
0.0
 11
-50.199999999999967
 21
-30.75
 31
0.0
  0
LINE
  5
149
  8
1
 62
     7
 10
-47.0
 20
42.5
 30
0.0
 11
-49.199999999999982
 21
42.5
 31
0.0
  0
LINE
  5
14A
  8
1
 62
     7
 10
-46.5
 20
-31.5
 30
0.0
 11
-46.5
 21
42.0
 31
0.0
  0
LINE
  5
14B
  8
1
 62
     7
 10
-47.0
 20
-32.0
 30
0.0
 11
-49.199999999999982
 21
-32.0
 31
0.0
  0
LINE
  5
14C
  8
1
 62
     7
 10
-89.500000000000014
 20
-42.5
 30
0.0
 11
-85.799999999999997
 21
-42.5
 31
0.0
  0
LINE
  5
14D
  8
1
 62
     7
 10
-85.799999999999997
 20
42.5
 30
0.0
 11
-89.500000000000014
 21
42.5
 31
0.0
  0
LINE
  5
14E
  8
1
 62
     7
 10
-90.0
 20
42.0
 30
0.0
 11
-90.0
 21
-42.0
 31
0.0
  0
LINE
  5
14F
  8
1
 62
     7
 10
-85.299999999999983
 20
31.0
 30
0.0
 11
-79.40000000000002
 21
31.0
 31
0.0
  0
LINE
  5
150
  8
1
 62
     7
 10
-85.299999999999983
 20
-31.0
 30
0.0
 11
-79.40000000000002
 21
-31.0
 31
0.0
  0
LINE
  5
151
  8
1
 62
     7
 10
-39.900000000000013
 20
39.0
 30
0.0
 11
-39.5
 21
38.600000000000001
 31
0.0
  0
LINE
  5
152
  8
1
 62
     7
 10
-39.5
 20
38.600000000000001
 30
0.0
 11
-39.5
 21
35.399999999999999
 31
0.0
  0
LINE
  5
153
  8
1
 62
     7
 10
-39.5
 20
35.399999999999999
 30
0.0
 11
-39.900000000000013
 21
35.0
 31
0.0
  0
LINE
  5
154
  8
1
 62
     7
 10
-39.900000000000013
 20
35.0
 30
0.0
 11
-42.69999999999996
 21
35.0
 31
0.0
  0
LINE
  5
155
  8
1
 62
     7
 10
-39.900000000000013
 20
39.0
 30
0.0
 11
-39.900000000000013
 21
35.0
 31
0.0
  0
LINE
  5
156
  8
1
 62
     3
 10
-39.5
 20
35.399999999999999
 30
0.0
 11
-42.69999999999996
 21
35.399999999999999
 31
0.0
  0
LINE
  5
157
  8
1
 62
     7
 10
-85.299999999999983
 20
39.649999999999991
 30
0.0
 11
-79.399999999999963
 21
39.649999999999991
 31
0.0
  0
LINE
  5
158
  8
1
 62
     7
 10
-72.800000000000026
 20
34.350000000000001
 30
0.0
 11
-74.799999999999983
 21
34.350000000000001
 31
0.0
  0
LINE
  5
159
  8
1
 62
     7
 10
-74.799999999999983
 20
-32.0
 30
0.0
 11
-74.799999999999983
 21
42.5
 31
0.0
  0
LINE
  5
15A
  8
1
 62
     7
 10
-69.599999999999994
 20
40.037500000000001
 30
0.0
 11
-69.599999999999994
 21
33.962500000000013
 31
0.0
  0
LINE
  5
15B
  8
1
 62
     7
 10
-69.975277674973256
 20
41.050000000000011
 30
0.0
 11
-72.800000000000026
 21
41.050000000000011
 31
0.0
  0
LINE
  5
15C
  8
1
 62
     7
 10
-69.975277674973256
 20
39.024999999999991
 30
0.0
 11
-72.800000000000026
 21
39.024999999999991
 31
0.0
  0
LINE
  5
15D
  8
1
 62
     7
 10
-69.975277674973256
 20
34.975000000000001
 30
0.0
 11
-72.800000000000026
 21
34.975000000000001
 31
0.0
  0
LINE
  5
15E
  8
1
 62
     7
 10
-69.975277674973256
 20
32.950000000000003
 30
0.0
 11
-72.800000000000026
 21
32.950000000000003
 31
0.0
  0
LINE
  5
15F
  8
1
 62
     7
 10
-72.800000000000026
 20
41.050000000000011
 30
0.0
 11
-72.800000000000026
 21
32.950000000000003
 31
0.0
  0
LINE
  5
160
  8
1
 62
     7
 10
-69.0
 20
39.437500000000007
 30
0.0
 11
-69.0
 21
34.562499999999993
 31
0.0
  0
LINE
  5
161
  8
1
 62
     7
 10
-69.0
 20
39.0
 30
0.0
 11
-52.899999999999991
 21
39.0
 31
0.0
  0
LINE
  5
162
  8
1
 62
     7
 10
-42.69999999999996
 20
39.437500000000007
 30
0.0
 11
-42.69999999999996
 21
34.562499999999993
 31
0.0
  0
LINE
  5
163
  8
1
 62
     7
 10
-43.675277674973238
 20
32.950000000000003
 30
0.0
 11
-46.5
 21
32.950000000000003
 31
0.0
  0
LINE
  5
164
  8
1
 62
     7
 10
-43.675277674973238
 20
34.975000000000001
 30
0.0
 11
-46.5
 21
34.975000000000001
 31
0.0
  0
LINE
  5
165
  8
1
 62
     7
 10
-43.675277674973238
 20
39.024999999999991
 30
0.0
 11
-46.5
 21
39.024999999999991
 31
0.0
  0
LINE
  5
166
  8
1
 62
     7
 10
-43.675277674973238
 20
41.050000000000011
 30
0.0
 11
-46.5
 21
41.050000000000011
 31
0.0
  0
LINE
  5
167
  8
1
 62
     7
 10
-43.299999999999997
 20
40.037500000000001
 30
0.0
 11
-43.299999999999997
 21
33.962500000000013
 31
0.0
  0
LINE
  5
168
  8
1
 62
     7
 10
-39.900000000000013
 20
39.0
 30
0.0
 11
-42.69999999999996
 21
39.0
 31
0.0
  0
LINE
  5
169
  8
1
 62
     7
 10
-52.89999999999997
 20
33.962500000000013
 30
0.0
 11
-52.89999999999997
 21
40.037500000000001
 31
0.0
  0
LINE
  5
16A
  8
1
 62
     7
 10
-52.524722325026737
 20
32.950000000000003
 30
0.0
 11
-49.699999999999967
 21
32.950000000000003
 31
0.0
  0
LINE
  5
16B
  8
1
 62
     7
 10
-52.524722325026737
 20
34.975000000000001
 30
0.0
 11
-49.699999999999967
 21
34.975000000000001
 31
0.0
  0
LINE
  5
16C
  8
1
 62
     7
 10
-52.524722325026737
 20
39.024999999999991
 30
0.0
 11
-49.699999999999967
 21
39.024999999999991
 31
0.0
  0
LINE
  5
16D
  8
1
 62
     7
 10
-52.524722325026737
 20
41.050000000000011
 30
0.0
 11
-49.699999999999967
 21
41.050000000000011
 31
0.0
  0
LINE
  5
16E
  8
1
 62
     7
 10
-47.0
 20
-32.0
 30
0.0
 11
-46.5
 21
-31.5
 31
0.0
  0
LINE
  5
16F
  8
1
 62
     7
 10
-49.199999999999982
 20
-32.0
 30
0.0
 11
-49.699999999999967
 21
-31.5
 31
0.0
  0
LINE
  5
170
  8
1
 62
     7
 10
-46.5
 20
42.0
 30
0.0
 11
-47.0
 21
42.5
 31
0.0
  0
LINE
  5
171
  8
1
 62
     7
 10
-49.199999999999982
 20
42.5
 30
0.0
 11
-49.699999999999967
 21
42.0
 31
0.0
  0
LINE
  5
172
  8
1
 62
     7
 10
-85.299999999999983
 20
42.0
 30
0.0
 11
-85.799999999999997
 21
42.5
 31
0.0
  0
LINE
  5
173
  8
1
 62
     7
 10
-90.0
 20
42.0
 30
0.0
 11
-89.500000000000014
 21
42.5
 31
0.0
  0
LINE
  5
174
  8
1
 62
     7
 10
-90.0
 20
-42.0
 30
0.0
 11
-89.500000000000014
 21
-42.5
 31
0.0
  0
LINE
  5
175
  8
1
 62
     7
 10
-85.299999999999983
 20
-42.0
 30
0.0
 11
-85.799999999999997
 21
-42.5
 31
0.0
  0
LINE
  5
176
  8
1
 62
     7
 10
-57.699999999999967
 20
35.0
 30
0.0
 11
-57.699999999999967
 21
30.75
 31
0.0
  0
LINE
  5
177
  8
1
 62
     7
 10
-55.699999999999967
 20
35.0
 30
0.0
 11
-55.699999999999967
 21
30.75
 31
0.0
  0
LINE
  5
178
  8
1
 62
     7
 10
-57.699999999999967
 20
39.0
 30
0.0
 11
-57.699999999999967
 21
51.920384555664853
 31
0.0
  0
LINE
  5
179
  8
1
 62
     7
 10
-57.699999999999967
 20
51.920384555664853
 30
0.0
 11
-55.699999999999967
 21
51.920384555664853
 31
0.0
  0
LINE
  5
17A
  8
1
 62
     7
 10
-55.699999999999967
 20
51.920384555664853
 30
0.0
 11
-55.699999999999967
 21
39.0
 31
0.0
  0
LINE
  5
17B
  8
1
 62
     7
 10
-57.099999999999973
 20
54.920384555664839
 30
0.0
 11
-57.099999999999973
 21
51.920384555664853
 31
0.0
  0
LINE
  5
17C
  8
1
 62
     7
 10
-56.89999999999997
 20
51.920384555664853
 30
0.0
 11
-56.89999999999997
 21
54.920384555664839
 31
0.0
  0
LINE
  5
17D
  8
1
 62
     7
 10
-56.699999999999982
 20
54.920384555664839
 30
0.0
 11
-56.699999999999982
 21
51.920384555664853
 31
0.0
  0
LINE
  5
17E
  8
1
 62
     7
 10
-56.5
 20
51.920384555664853
 30
0.0
 11
-56.5
 21
54.920384555664839
 31
0.0
  0
LINE
  5
17F
  8
1
 62
     7
 10
-56.29999999999999
 20
54.920384555664839
 30
0.0
 11
-56.29999999999999
 21
51.920384555664853
 31
0.0
  0
LINE
  5
180
  8
1
 62
     7
 10
-85.299999999999983
 20
-42.0
 30
0.0
 11
-85.299999999999983
 21
42.0
 31
0.0
  0
LINE
  5
181
  8
1
 62
     7
 10
-85.299999999999983
 20
-37.0
 30
0.0
 11
-84.0
 21
-35.700000000000003
 31
0.0
  0
LINE
  5
182
  8
1
 62
     7
 10
-85.299999999999983
 20
-38.299999999999997
 30
0.0
 11
-84.0
 21
-37.0
 31
0.0
  0
LINE
  5
183
  8
1
 62
     7
 10
-85.299999999999983
 20
-32.399999999999991
 30
0.0
 11
-84.0
 21
-32.399999999999991
 31
0.0
  0
LINE
  5
184
  8
1
 62
     7
 10
-84.0
 20
-32.399999999999991
 30
0.0
 11
-84.0
 21
-41.599999999999987
 31
0.0
  0
LINE
  5
185
  8
1
 62
     7
 10
-84.0
 20
-41.599999999999987
 30
0.0
 11
-85.299999999999983
 21
-41.599999999999987
 31
0.0
  0
LINE
  5
186
  8
1
 62
     7
 10
-84.0
 20
-32.75
 30
0.0
 11
-79.300000000000026
 21
-32.75
 31
0.0
  0
LINE
  5
187
  8
1
 62
     7
 10
-79.300000000000026
 20
-32.75
 30
0.0
 11
-79.0
 21
-33.26961524227066
 31
0.0
  0
LINE
  5
188
  8
1
 62
     7
 10
-79.0
 20
-33.26961524227066
 30
0.0
 11
-79.0
 21
-40.730384757729347
 31
0.0
  0
LINE
  5
189
  8
1
 62
     7
 10
-79.0
 20
-40.730384757729347
 30
0.0
 11
-79.300000000000026
 21
-41.25
 31
0.0
  0
LINE
  5
18A
  8
1
 62
     7
 10
-79.300000000000026
 20
-41.25
 30
0.0
 11
-84.0
 21
-41.25
 31
0.0
  0
LINE
  5
18B
  8
1
 62
     7
 10
-79.300000000000026
 20
-32.75
 30
0.0
 11
-79.300000000000026
 21
-41.25
 31
0.0
  0
LINE
  5
18C
  8
1
 62
     7
 10
-97.5
 20
-34.5
 30
0.0
 11
-98.0
 21
-35.0
 31
0.0
  0
LINE
  5
18D
  8
1
 62
     7
 10
-98.0
 20
-35.0
 30
0.0
 11
-98.0
 21
-39.0
 31
0.0
  0
LINE
  5
18E
  8
1
 62
     7
 10
-98.0
 20
-39.0
 30
0.0
 11
-97.5
 21
-39.5
 31
0.0
  0
LINE
  5
18F
  8
1
 62
     7
 10
-97.5
 20
-39.5
 30
0.0
 11
-90.0
 21
-39.5
 31
0.0
  0
LINE
  5
190
  8
1
 62
     7
 10
-97.5
 20
-34.5
 30
0.0
 11
-97.5
 21
-39.5
 31
0.0
  0
LINE
  5
191
  8
1
 62
     3
 10
-98.0
 20
-35.0
 30
0.0
 11
-90.0
 21
-35.0
 31
0.0
  0
LINE
  5
192
  8
1
 62
     3
 10
-98.0
 20
-39.0
 30
0.0
 11
-90.0
 21
-39.0
 31
0.0
  0
LINE
  5
193
  8
1
 62
     7
 10
-97.5
 20
-34.5
 30
0.0
 11
-90.0
 21
-34.5
 31
0.0
  0
LINE
  5
194
  8
1
  6
DASHDOT
 62
     3
 10
-101.0562418699529
 20
-37.0
 30
0.0
 11
-75.768993850036523
 21
-37.0
 31
0.0
  0
LINE
  5
195
  8
1
 62
     7
 10
-74.299999999999983
 20
-30.75
 30
0.0
 11
-74.299999999999983
 21
30.75
 31
0.0
  0
LINE
  5
196
  8
1
 62
     3
 10
-95.0
 20
0.0
 30
0.0
 11
-90.0
 21
0.0
 31
0.0
  0
LINE
  5
197
  8
1
 62
     3
 10
-46.5
 20
0.0
 30
0.0
 11
-41.5
 21
0.0
 31
0.0
  0
LINE
  5
198
  8
1
 62
     7
 10
-79.399999999999963
 20
34.350000000000001
 30
0.0
 11
-85.299999999999983
 21
34.350000000000001
 31
0.0
  0
LINE
  5
199
  8
1
 62
     7
 10
-74.799999999999983
 20
39.649999999999991
 30
0.0
 11
-72.800000000000026
 21
39.649999999999991
 31
0.0
  0
LINE
  5
19A
  8
1
  6
DASHDOT
 62
     3
 10
87.873426877499497
 20
21.567541922555691
 30
0.0
 11
98.284109129977395
 21
15.556931721639859
 31
0.0
  0
LINE
  5
19B
  8
1
  6
DASHDOT
 62
     3
 10
152.4583549262924
 20
15.720583672007569
 30
0.0
 11
163.0127961932287
 21
21.814193178619249
 31
0.0
  0
LINE
  5
19C
  8
1
  6
DASHDOT
 62
     3
 10
125.2295052817377
 20
-31.217272317060281
 30
0.0
 11
125.2295052817377
 21
-43.02677985117878
 31
0.0
  0
LINE
  5
19D
  8
1
 62
     3
 10
128.65594433551431
 20
0.0
 30
0.0
 11
121.8030662279611
 21
0.0
 31
0.0
  0
LINE
  5
19E
  8
1
 62
     3
 10
125.2295052817377
 20
3.4264390537766181
 30
0.0
 11
125.2295052817377
 21
-3.4264390537766221
 31
0.0
  0
LINE
  5
19F
  8
1
  6
DASHDOT
 62
     3
 10
125.2295052817377
 20
11.17705566370652
 30
0.0
 11
125.2295052817377
 21
7.0084836305598177
 31
0.0
  0
LINE
  5
1A0
  8
1
  6
DASHDOT
 62
     3
 10
130.49116375269421
 20
0.0
 30
0.0
 11
135.98147813781529
 21
0.0
 31
0.0
  0
ARC
  5
1A1
  8
1
 62
     7
 10
18.846497538900511
 20
40.037500000000009
 30
0.0
 40
1.553502461099489
 50
319.32609330901261
 51
40.673906690987103
  0
ARC
  5
1A2
  8
1
 62
     7
 10
14.74890666806181
 20
37.0
 30
0.0
 40
5.6510933319381724
 50
339.001854153561
 51
20.99814584643897
  0
ARC
  5
1A3
  8
1
 62
     7
 10
18.846497538900511
 20
33.962500000000013
 30
0.0
 40
1.553502461099489
 50
319.32609330901261
 51
40.673906690986712
  0
ARC
  5
1A4
  8
1
 62
     7
 10
45.146497538900519
 20
33.962500000000013
 30
0.0
 40
1.5535024610994661
 50
319.32609330901192
 51
40.673906690987387
  0
ARC
  5
1A5
  8
1
 62
     7
 10
41.048906668061818
 20
37.0
 30
0.0
 40
5.651093331938144
 50
339.00185415356083
 51
20.998145846439069
  0
ARC
  5
1A6
  8
1
 62
     7
 10
45.146497538900519
 20
40.037500000000009
 30
0.0
 40
1.5535024610994661
 50
319.32609330901192
 51
40.673906690987778
  0
ARC
  5
1A7
  8
1
 62
     7
 10
38.653502461099613
 20
33.962500000000013
 30
0.0
 40
1.55350246109963
 50
139.3260933090182
 51
220.67390669098239
  0
ARC
  5
1A8
  8
1
 62
     7
 10
42.751093331938613
 20
37.0
 30
0.0
 40
5.6510933319386476
 50
159.0018541535629
 51
200.9981458464371
  0
ARC
  5
1A9
  8
1
 62
     7
 10
38.653502461099613
 20
40.037500000000009
 30
0.0
 40
1.5535024610996391
 50
139.32609330901769
 51
220.67390669098239
  0
ARC
  5
1AA
  8
1
 62
     7
 10
125.2295052817377
 20
0.0
 30
0.0
 40
5.9999999999999876
 50
109.47122063449071
 51
70.528779365509266
  0
ARC
  5
1AB
  8
1
 62
     7
 10
125.2295052817377
 20
0.0
 30
0.0
 40
42.499999999999993
 50
122.6972681339365
 51
117.3027318660633
  0
ARC
  5
1AC
  8
1
 62
     7
 10
-71.153502461099521
 20
40.037500000000009
 30
0.0
 40
1.5535024610995321
 50
319.32609330901408
 51
40.673906690985717
  0
ARC
  5
1AD
  8
1
 62
     7
 10
-75.251093331938193
 20
37.0
 30
0.0
 40
5.6510933319381991
 50
339.00185415356111
 51
20.99814584643886
  0
ARC
  5
1AE
  8
1
 62
     7
 10
-71.153502461099521
 20
33.962500000000013
 30
0.0
 40
1.5535024610995321
 50
319.32609330901408
 51
40.673906690985348
  0
ARC
  5
1AF
  8
1
 62
     7
 10
-44.853502461099531
 20
33.962500000000013
 30
0.0
 40
1.5535024610995529
 50
319.32609330901471
 51
40.673906690984651
  0
ARC
  5
1B0
  8
1
 62
     7
 10
-48.951093331938182
 20
37.0
 30
0.0
 40
5.6510933319382044
 50
339.00185415356111
 51
20.998145846438831
  0
ARC
  5
1B1
  8
1
 62
     7
 10
-44.853502461099531
 20
40.037500000000009
 30
0.0
 40
1.5535024610995529
 50
319.32609330901471
 51
40.673906690985064
  0
ARC
  5
1B2
  8
1
 62
     7
 10
-51.346497538900358
 20
33.962500000000013
 30
0.0
 40
1.5535024610996031
 50
139.32609330901741
 51
220.67390669098319
  0
ARC
  5
1B3
  8
1
 62
     7
 10
-47.24890666806138
 20
37.0
 30
0.0
 40
5.6510933319385881
 50
159.00185415356259
 51
200.9981458464373
  0
ARC
  5
1B4
  8
1
 62
     7
 10
-51.346497538900358
 20
40.037500000000009
 30
0.0
 40
1.5535024610996131
 50
139.3260933090169
 51
220.67390669098319
  0
ARC
  5
1B5
  8
1
  6
DASHDOT
 62
     3
 10
125.2295052817377
 20
0.0
 30
0.0
 40
37.0
 50
141.18980309383531
 51
158.3986127982958
  0
ARC
  5
1B6
  8
1
  6
DASHDOT
 62
     3
 10
125.2295052817377
 20
0.0
 30
0.0
 40
37.000000000000021
 50
21.71362138310278
 51
38.636158071025221
  0
ARC
  5
1B7
  8
1
  6
DASHDOT
 62
     3
 10
125.2295052817377
 20
0.0
 30
0.0
 40
37.000000000000007
 50
261.9776145562862
 51
278.60564811943078
  0
ARC
  5
1B8
  8
1
 62
     7
 10
20.400000000000009
 20
39.437500000000007
 30
0.0
 40
0.5999999999999908
 50
0.0
 51
90.0
  0
ARC
  5
1B9
  8
1
 62
     7
 10
20.400000000000009
 20
34.562499999999993
 30
0.0
 40
0.5999999999999801
 50
270.0
 51
0.0
  0
ARC
  5
1BA
  8
1
 62
     7
 10
46.70000000000001
 20
34.562499999999993
 30
0.0
 40
0.5999999999999801
 50
270.0
 51
0.0
  0
ARC
  5
1BB
  8
1
 62
     7
 10
46.70000000000001
 20
39.437500000000007
 30
0.0
 40
0.6000000000000157
 50
0.0
 51
90.0
  0
ARC
  5
1BC
  8
1
 62
     7
 10
-69.599999999999994
 20
39.437500000000007
 30
0.0
 40
0.5999999999999944
 50
0.0
 51
90.0
  0
ARC
  5
1BD
  8
1
 62
     7
 10
-69.599999999999994
 20
34.562499999999993
 30
0.0
 40
0.5999999999999801
 50
270.0
 51
0.0
  0
ARC
  5
1BE
  8
1
 62
     7
 10
-43.299999999999997
 20
34.562499999999993
 30
0.0
 40
0.5999999999999801
 50
270.0
 51
0.0
  0
ARC
  5
1BF
  8
1
 62
     7
 10
-43.299999999999997
 20
39.437500000000007
 30
0.0
 40
0.60000000000003
 50
0.0
 51
90.0
  0
CIRCLE
  5
1C0
  8
1
 62
     7
 10
14.80000000000001
 20
0.0
 30
0.0
 40
1.1999999999999891
  0
CIRCLE
  5
1C1
  8
1
 62
     7
 10
125.2295052817377
 20
0.0
 30
0.0
 40
9.9999999999999876
  0
CIRCLE
  5
1C2
  8
1
 62
     7
 10
125.2295052817377
 20
37.0
 30
0.0
 40
2.25
  0
CIRCLE
  5
1C3
  8
1
 62
     7
 10
134.80580995053089
 20
35.739255572695527
 30
0.0
 40
3.5
  0
CIRCLE
  5
1C4
  8
1
 62
     7
 10
134.80580995053089
 20
35.739255572695527
 30
0.0
 40
2.0
  0
CIRCLE
  5
1C5
  8
1
 62
     3
 10
134.80580995053089
 20
35.739255572695527
 30
0.0
 40
1.600000000000108
  0
CIRCLE
  5
1C6
  8
1
 62
     7
 10
115.6532006129444
 20
35.739255572695527
 30
0.0
 40
3.5
  0
CIRCLE
  5
1C7
  8
1
 62
     7
 10
99.066554377835431
 20
-26.162950903902239
 30
0.0
 40
3.4999999999999858
  0
CIRCLE
  5
1C8
  8
1
 62
     3
 10
89.490249709042246
 20
-9.5763046687932736
 30
0.0
 40
1.600000000000023
  0
CIRCLE
  5
1C9
  8
1
 62
     7
 10
89.490249709042246
 20
-9.5763046687932736
 30
0.0
 40
2.0
  0
CIRCLE
  5
1CA
  8
1
 62
     7
 10
89.490249709042246
 20
-9.5763046687932736
 30
0.0
 40
3.5
  0
CIRCLE
  5
1CB
  8
1
 62
     7
 10
93.186565341713504
 20
-18.5
 30
0.0
 40
2.2499999999999711
  0
CIRCLE
  5
1CC
  8
1
 62
     7
 10
160.9687608544331
 20
-9.5763046687933002
 30
0.0
 40
3.5
  0
CIRCLE
  5
1CD
  8
1
 62
     3
 10
151.3924561856399
 20
-26.16295090390226
 30
0.0
 40
1.600000000000023
  0
CIRCLE
  5
1CE
  8
1
 62
     7
 10
151.3924561856399
 20
-26.16295090390226
 30
0.0
 40
2.0
  0
CIRCLE
  5
1CF
  8
1
 62
     7
 10
151.3924561856399
 20
-26.16295090390226
 30
0.0
 40
3.5
  0
CIRCLE
  5
1D0
  8
1
 62
     7
 10
157.2724452217619
 20
-18.500000000000011
 30
0.0
 40
2.25
  0
CIRCLE
  5
1D1
  8
1
 62
     7
 10
157.2724452217619
 20
18.5
 30
0.0
 40
4.25
  0
CIRCLE
  5
1D2
  8
1
 62
     7
 10
93.186565341713404
 20
18.5
 30
0.0
 40
4.25
  0
CIRCLE
  5
1D3
  8
1
 62
     7
 10
125.2295052817377
 20
-37.0
 30
0.0
 40
4.2499999999999858
  0
CIRCLE
  5
1D4
  8
1
 62
     3
 10
14.80000000000001
 20
0.0
 30
0.0
 40
1.5000000000000011
  0
TEXT
  5
1D5
  8
1
 62
     7
 10
-88.431277017020193
 20
94.781640030123313
 30
0.0
 40
3.5
  1
MNB 0.2
 41
0.9
  7
SIMPLEX
  0
ENDSEC
  0
EOF
