  0
SECTION
  2
HEADER
  9
$ACADVER
  1
AC1009
  9
$INSBASE
 10
0.0
 20
0.0
 30
0.0
  9
$EXTMIN
 10
-102.44472294708601
 20
-48.500000000000057
 30
0.0
  9
$EXTMAX
 10
180.1622164459809
 20
112.9613107092428
 30
0.0
  9
$LIMMIN
 10
-102.44472294708601
 20
-48.500000000000028
  9
$LIMMAX
 10
180.1622164459809
 20
112.9613107092428
  9
$ORTHOMODE
 70
     0
  9
$REGENMODE
 70
     1
  9
$FILLMODE
 70
     1
  9
$QTEXTMODE
 70
     0
  9
$MIRRTEXT
 70
     1
  9
$DRAGMODE
 70
     2
  9
$LTSCALE
 40
1.0
  9
$OSMODE
 70
    37
  9
$ATTMODE
 70
     1
  9
$TEXTSIZE
 40
3.5
  9
$TRACEWID
 40
0.5
  9
$TEXTSTYLE
  7
STANDARD
  9
$CLAYER
  8
0
  9
$CELTYPE
  6
BYLAYER
  9
$CECOLOR
 62
   256
  9
$DIMSCALE
 40
1.0
  9
$DIMASZ
 40
0.18
  9
$DIMEXO
 40
0.0625
  9
$DIMDLI
 40
0.38
  9
$DIMRND
 40
0.0
  9
$DIMDLE
 40
0.0
  9
$DIMEXE
 40
0.18
  9
$DIMTP
 40
0.0
  9
$DIMTM
 40
0.0
  9
$DIMTXT
 40
0.18
  9
$DIMCEN
 40
0.09
  9
$DIMTSZ
 40
0.0
  9
$DIMTOL
 70
     0
  9
$DIMLIM
 70
     0
  9
$DIMTIH
 70
     1
  9
$DIMTOH
 70
     1
  9
$DIMSE1
 70
     0
  9
$DIMSE2
 70
     0
  9
$DIMTAD
 70
     0
  9
$DIMZIN
 70
     0
  9
$DIMBLK
  1

  9
$DIMASO
 70
     1
  9
$DIMSHO
 70
     1
  9
$DIMPOST
  1

  9
$DIMAPOST
  1

  9
$DIMALT
 70
     0
  9
$DIMALTD
 70
     2
  9
$DIMALTF
 40
25.399999999999999
  9
$DIMLFAC
 40
1.0
  9
$DIMTOFL
 70
     0
  9
$DIMTVP
 40
0.0
  9
$DIMTIX
 70
     0
  9
$DIMSOXD
 70
     0
  9
$DIMSAH
 70
     0
  9
$DIMBLK1
  1

  9
$DIMBLK2
  1

  9
$DIMSTYLE
  2
STANDARD
  9
$DIMCLRD
 70
     0
  9
$DIMCLRE
 70
     0
  9
$DIMCLRT
 70
     0
  9
$DIMTFAC
 40
1.0
  9
$DIMGAP
 40
0.09
  9
$LUNITS
 70
     2
  9
$LUPREC
 70
     4
  9
$SKETCHINC
 40
0.1
  9
$FILLETRAD
 40
2.0
  9
$AUNITS
 70
     0
  9
$AUPREC
 70
     0
  9
$MENU
  1
ACAD
  9
$ELEVATION
 40
0.0
  9
$PELEVATION
 40
0.0
  9
$THICKNESS
 40
0.0
  9
$LIMCHECK
 70
     0
  9
$BLIPMODE
 70
     0
  9
$CHAMFERA
 40
0.0
  9
$CHAMFERB
 40
0.0
  9
$SKPOLY
 70
     0
  9
$TDCREATE
 40
2452094.9822094901
  9
$TDUPDATE
 40
2452094.9827657412
  9
$TDINDWG
 40
0.0005696759
  9
$TDUSRTIMER
 40
0.0005696759
  9
$USRTIMER
 70
     1
  9
$ANGBASE
 50
0.0
  9
$ANGDIR
 70
     0
  9
$PDMODE
 70
     0
  9
$PDSIZE
 40
0.0
  9
$PLINEWID
 40
0.0
  9
$COORDS
 70
     1
  9
$SPLFRAME
 70
     0
  9
$SPLINETYPE
 70
     6
  9
$SPLINESEGS
 70
     8
  9
$ATTDIA
 70
     0
  9
$ATTREQ
 70
     1
  9
$HANDLING
 70
 10241
  9
$HANDSEED
  5
1E6
  9
$SURFTAB1
 70
     6
  9
$SURFTAB2
 70
     6
  9
$SURFTYPE
 70
     6
  9
$SURFU
 70
     6
  9
$SURFV
 70
     6
  9
$UCSNAME
  2

  9
$UCSORG
 10
0.0
 20
0.0
 30
0.0
  9
$UCSXDIR
 10
1.0
 20
0.0
 30
0.0
  9
$UCSYDIR
 10
0.0
 20
1.0
 30
0.0
  9
$PUCSNAME
  2

  9
$PUCSORG
 10
0.0
 20
0.0
 30
0.0
  9
$PUCSXDIR
 10
1.0
 20
0.0
 30
0.0
  9
$PUCSYDIR
 10
0.0
 20
1.0
 30
0.0
  9
$USERI1
 70
     0
  9
$USERI2
 70
     0
  9
$USERI3
 70
     0
  9
$USERI4
 70
     0
  9
$USERI5
 70
     0
  9
$USERR1
 40
0.0
  9
$USERR2
 40
0.0
  9
$USERR3
 40
0.0
  9
$USERR4
 40
0.0
  9
$USERR5
 40
0.0
  9
$WORLDVIEW
 70
     1
  9
$SHADEDGE
 70
     3
  9
$SHADEDIF
 70
    70
  9
$TILEMODE
 70
     1
  9
$MAXACTVP
 70
    64
  9
$PLIMCHECK
 70
     0
  9
$PEXTMIN
 10
1.0000000000000000E+020
 20
1.0000000000000000E+020
 30
1.0000000000000000E+020
  9
$PEXTMAX
 10
-1.0000000000000000E+020
 20
-1.0000000000000000E+020
 30
-1.0000000000000000E+020
  9
$PLIMMIN
 10
0.0
 20
0.0
  9
$PLIMMAX
 10
12.0
 20
9.0
  9
$UNITMODE
 70
     0
  9
$VISRETAIN
 70
     1
  9
$PLINEGEN
 70
     0
  9
$PSLTSCALE
 70
     1
  0
ENDSEC
  0
SECTION
  2
TABLES
  0
TABLE
  2
VPORT
 70
     2
  0
VPORT
  2
*ACTIVE
 70
     0
 10
0.0
 20
0.0
 11
1.0
 21
1.0
 12
-79.570893559189244
 22
108.70346303446691
 13
0.0
 23
0.0
 14
1.0
 24
1.0
 15
0.0
 25
0.0
 16
0.0
 26
0.0
 36
1.0
 17
0.0
 27
0.0
 37
0.0
 40
9.0000001903726456
 41
2.4144144144144142
 42
50.0
 43
0.0
 44
0.0
 50
0.0
 51
0.0
 71
     0
 72
   100
 73
     1
 74
     1
 75
     0
 76
     0
 77
     0
 78
     0
  0
ENDTAB
  0
TABLE
  2
LTYPE
 70
     9
  0
LTYPE
  2
CONTINUOUS
 70
     0
  3
Solid line
 72
    65
 73
     0
 40
0.0
  0
LTYPE
  2
BORDER
 70
     0
  3
__ __ . __ __ .
 72
    65
 73
     6
 40
13.01479326152282
 49
3.718512360435092
 49
-1.859256180217546
 49
3.718512360435092
 49
-1.859256180217546
 49
0.0
 49
-1.859256180217546
  0
LTYPE
  2
CENTER
 70
     0
  3
____ _ ____ _
 72
    65
 73
     4
 40
14.87404944174037
 49
9.2962809010877319
 49
-1.859256180217546
 49
1.859256180217546
 49
-1.859256180217546
  0
LTYPE
  2
DASHDOT
 70
     0
  3
__ . __ . __ .
 72
    65
 73
     4
 40
7.4370247208701841
 49
3.718512360435092
 49
-1.859256180217546
 49
0.0
 49
-1.859256180217546
  0
LTYPE
  2
DASHED
 70
     0
  3
__ __ __ __ __
 72
    65
 73
     2
 40
5.5777685406526381
 49
3.718512360435092
 49
-1.859256180217546
  0
LTYPE
  2
DIVIDE
 70
     0
  3
__ . . __ . . 
 72
    65
 73
     6
 40
9.2962809010877319
 49
3.718512360435092
 49
-1.859256180217546
 49
0.0
 49
-1.859256180217546
 49
0.0
 49
-1.859256180217546
  0
LTYPE
  2
DOT
 70
     0
  3
..............
 72
    65
 73
     4
 40
3.718512360435092
 49
0.0
 49
-1.859256180217546
 49
0.0
 49
-1.859256180217546
  0
LTYPE
  2
HIDDEN
 70
     0
  3
_ _ _ _ _ _ _
 72
    65
 73
     2
 40
2.788884270326319
 49
1.859256180217546
 49
-0.9296280901087731
  0
LTYPE
  2
PHANTOM
 70
     0
  3
_____ _ _ _____ _ _ 
 72
    65
 73
     6
 40
18.59256180217546
 49
9.2962809010877319
 49
-1.859256180217546
 49
1.859256180217546
 49
-1.859256180217546
 49
1.859256180217546
 49
-1.859256180217546
  0
ENDTAB
  0
TABLE
  2
LAYER
 70
     2
  0
LAYER
  2
0
 70
     0
 62
     7
  6
CONTINUOUS
  0
LAYER
  2
1
 70
     0
 62
     7
  6
CONTINUOUS
  0
ENDTAB
  0
TABLE
  2
STYLE
 70
     4
  0
STYLE
  2
STANDARD
 70
     0
 40
0.0
 41
1.0
 50
0.0
 71
     0
 42
3.5
  3
txt
  4

  0
STYLE
  2
SIMPLEX
 70
     0
 40
0.0
 41
1.0
 50
0.0
 71
     0
 42
3.5
  3
simplex
  4

  0
STYLE
  2
COMPLEX
 70
     0
 40
0.0
 41
1.0
 50
0.0
 71
     0
 42
3.5
  3
complex
  4

  0
STYLE
  2
ITALIC
 70
     0
 40
0.0
 41
1.0
 50
0.0
 71
     0
 42
3.5
  3
italic
  4

  0
ENDTAB
  0
TABLE
  2
VIEW
 70
     0
  0
ENDTAB
  0
TABLE
  2
UCS
 70
     0
  0
ENDTAB
  0
TABLE
  2
APPID
 70
     1
  0
APPID
  2
ACAD
 70
     0
  0
ENDTAB
  0
TABLE
  2
DIMSTYLE
 70
     1
  0
DIMSTYLE
  2
STANDARD
 70
     0
  3

  4

  5

  6

  7

 40
1.0
 41
0.18
 42
0.0625
 43
0.38
 44
0.18
 45
0.0
 46
0.0
 47
0.0
 48
0.0
140
0.18
141
0.09
142
0.0
143
25.399999999999999
144
1.0
145
0.0
146
1.0
147
0.09
 71
     0
 72
     0
 73
     1
 74
     1
 75
     0
 76
     0
 77
     0
 78
     0
170
     0
171
     2
172
     0
173
     0
174
     0
175
     0
176
     0
177
     0
178
     0
  0
ENDTAB
  0
ENDSEC
  0
SECTION
  2
BLOCKS
  0
BLOCK
  8
0
  2
$MODEL_SPACE
 70
     0
 10
0.0
 20
0.0
 30
0.0
  3
$MODEL_SPACE
  1

  0
ENDBLK
  5
20
  8
0
  0
BLOCK
 67
     1
  8
0
  2
$PAPER_SPACE
 70
     0
 10
0.0
 20
0.0
 30
0.0
  3
$PAPER_SPACE
  1

  0
ENDBLK
  5
1C
 67
     1
  8
0
  0
ENDSEC
  0
SECTION
  2
ENTITIES
  0
LINE
  5
33
  8
1
  6
DASHDOT
 62
     3
 10
131.6622164459809
 20
3.739883140035126
 30
0.0
 11
131.6622164459809
 21
-3.739883140035118
 31
0.0
  0
LINE
  5
34
  8
1
  6
DASHDOT
 62
     3
 10
135.40209958601591
 20
0.0
 30
0.0
 11
127.9223333059458
 21
0.0
 31
0.0
  0
LINE
  5
35
  8
1
  6
DASHDOT
 62
     3
 10
137.89526519936189
 20
0.0
 30
0.0
 11
144.07623828244789
 21
0.0
 31
0.0
  0
LINE
  5
36
  8
1
  6
DASHDOT
 62
     3
 10
131.6622164459809
 20
12.427604782746
 30
0.0
 11
131.6622164459809
 21
8.3762106610587992
 31
0.0
  0
LINE
  5
37
  8
1
  6
DASHDOT
 62
     3
 10
89.802353952635954
 20
24.167802878773418
 30
0.0
 11
99.932905832008146
 21
18.318926024178442
 31
0.0
  0
LINE
  5
38
  8
1
  6
DASHDOT
 62
     3
 10
131.6622164459809
 20
-36.936652210326493
 30
0.0
 11
131.6622164459809
 21
-48.262409292472597
 31
0.0
  0
LINE
  5
39
  8
1
  6
DASHDOT
 62
     3
 10
163.41301915762281
 20
18.331334492553118
 30
0.0
 11
173.46106561840341
 21
24.132576821514711
 31
0.0
  0
LINE
  5
3A
  8
1
 62
     7
 10
-77.59999999999998
 20
38.350000000000001
 30
0.0
 11
-84.299999999999983
 21
38.350000000000001
 31
0.0
  0
LINE
  5
3B
  8
1
 62
     7
 10
-73.0
 20
44.649999999999991
 30
0.0
 11
-70.299999999999997
 21
44.649999999999991
 31
0.0
  0
LINE
  5
3C
  8
1
 62
     3
 10
-45.700000000000003
 20
0.0
 30
0.0
 11
-40.700000000000003
 21
0.0
 31
0.0
  0
LINE
  5
3D
  8
1
 62
     3
 10
-90.0
 20
0.0
 30
0.0
 11
-95.0
 21
0.0
 31
0.0
  0
LINE
  5
3E
  8
1
 62
     7
 10
-72.5
 20
-34.999999999999993
 30
0.0
 11
-72.5
 21
35.0
 31
0.0
  0
LINE
  5
3F
  8
1
 62
     7
 10
-73.0
 20
48.5
 30
0.0
 11
-73.0
 21
-36.999999999999993
 31
0.0
  0
LINE
  5
40
  8
1
 62
     7
 10
-73.90000000000002
 20
-36.999999999999993
 30
0.0
 11
-73.0
 21
-36.999999999999993
 31
0.0
  0
LINE
  5
41
  8
1
 62
     7
 10
-78.799999999999983
 20
-35.999999999999993
 30
0.0
 11
-77.59999999999998
 21
-35.999999999999993
 31
0.0
  0
LINE
  5
42
  8
1
 62
     7
 10
-77.59999999999998
 20
48.5
 30
0.0
 11
-77.59999999999998
 21
-36.999999999999993
 31
0.0
  0
LINE
  5
43
  8
1
 62
     7
 10
-84.299999999999983
 20
48.0
 30
0.0
 11
-84.299999999999983
 21
-47.999999999999993
 31
0.0
  0
LINE
  5
44
  8
1
 62
     3
 10
-52.900000000000013
 20
43.5
 30
0.0
 11
-65.700000000000003
 21
43.5
 31
0.0
  0
LINE
  5
45
  8
1
 62
     3
 10
-52.900000000000013
 20
39.500000000000007
 30
0.0
 11
-65.700000000000003
 21
39.5
 31
0.0
  0
LINE
  5
46
  8
1
 62
     7
 10
-52.900000000000013
 20
39.0
 30
0.0
 11
-65.700000000000003
 21
39.0
 31
0.0
  0
LINE
  5
47
  8
1
 62
     7
 10
-41.100000000000009
 20
44.0
 30
0.0
 11
-40.0
 21
44.0
 31
0.0
  0
LINE
  5
48
  8
1
 62
     7
 10
-65.700000000000003
 20
44.0
 30
0.0
 11
-52.900000000000013
 21
44.0
 31
0.0
  0
LINE
  5
49
  8
1
 62
     7
 10
-65.700000000000003
 20
44.150000000000013
 30
0.0
 11
-65.700000000000003
 21
38.850000000000009
 31
0.0
  0
LINE
  5
4A
  8
1
 62
     7
 10
-41.100000000000009
 20
38.850000000000009
 30
0.0
 11
-41.100000000000009
 21
44.150000000000013
 31
0.0
  0
LINE
  5
4B
  8
1
 62
     7
 10
-70.299999999999997
 20
46.100000000000009
 30
0.0
 11
-70.299999999999997
 21
36.900000000000013
 31
0.0
  0
LINE
  5
4C
  8
1
 62
     7
 10
-66.904145188432736
 20
36.900000000000013
 30
0.0
 11
-70.299999999999997
 21
36.900000000000013
 31
0.0
  0
LINE
  5
4D
  8
1
 62
     7
 10
-66.904145188432736
 20
39.20000000000001
 30
0.0
 11
-70.299999999999997
 21
39.20000000000001
 31
0.0
  0
LINE
  5
4E
  8
1
 62
     7
 10
-66.904145188432736
 20
43.79999999999999
 30
0.0
 11
-70.299999999999997
 21
43.79999999999999
 31
0.0
  0
LINE
  5
4F
  8
1
 62
     7
 10
-66.904145188432736
 20
46.100000000000009
 30
0.0
 11
-70.299999999999997
 21
46.100000000000009
 31
0.0
  0
LINE
  5
50
  8
1
 62
     7
 10
-66.5
 20
44.950000000000003
 30
0.0
 11
-66.5
 21
38.04999999999999
 31
0.0
  0
LINE
  5
51
  8
1
 62
     7
 10
-42.304145188432742
 20
36.900000000000013
 30
0.0
 11
-45.700000000000003
 21
36.900000000000013
 31
0.0
  0
LINE
  5
52
  8
1
 62
     7
 10
-42.304145188432742
 20
39.20000000000001
 30
0.0
 11
-45.700000000000003
 21
39.20000000000001
 31
0.0
  0
LINE
  5
53
  8
1
 62
     7
 10
-42.304145188432742
 20
43.800000000000011
 30
0.0
 11
-45.700000000000003
 21
43.800000000000011
 31
0.0
  0
LINE
  5
54
  8
1
 62
     7
 10
-42.304145188432742
 20
46.100000000000009
 30
0.0
 11
-45.700000000000003
 21
46.100000000000009
 31
0.0
  0
LINE
  5
55
  8
1
 62
     7
 10
-41.899999999999999
 20
44.950000000000003
 30
0.0
 11
-41.899999999999999
 21
38.050000000000011
 31
0.0
  0
LINE
  5
56
  8
1
 62
     7
 10
-52.495854811567277
 20
46.100000000000009
 30
0.0
 11
-48.900000000000013
 21
46.100000000000009
 31
0.0
  0
LINE
  5
57
  8
1
 62
     7
 10
-52.495854811567277
 20
43.800000000000011
 30
0.0
 11
-48.900000000000013
 21
43.800000000000011
 31
0.0
  0
LINE
  5
58
  8
1
 62
     7
 10
-52.495854811567277
 20
39.20000000000001
 30
0.0
 11
-48.900000000000013
 21
39.20000000000001
 31
0.0
  0
LINE
  5
59
  8
1
 62
     7
 10
-52.495854811567277
 20
36.900000000000013
 30
0.0
 11
-48.900000000000013
 21
36.900000000000013
 31
0.0
  0
LINE
  5
5A
  8
1
 62
     7
 10
-52.900000000000013
 20
38.050000000000011
 30
0.0
 11
-52.900000000000013
 21
44.950000000000003
 31
0.0
  0
LINE
  5
5B
  8
1
 62
     7
 10
-70.299999999999997
 20
38.350000000000001
 30
0.0
 11
-73.0
 21
38.350000000000001
 31
0.0
  0
LINE
  5
5C
  8
1
 62
     7
 10
-84.299999999999983
 20
44.649999999999991
 30
0.0
 11
-77.59999999999998
 21
44.649999999999991
 31
0.0
  0
LINE
  5
5D
  8
1
 62
     3
 10
-39.5
 20
39.5
 30
0.0
 11
-41.100000000000009
 21
39.500000000000007
 31
0.0
  0
LINE
  5
5E
  8
1
 62
     3
 10
-39.5
 20
43.5
 30
0.0
 11
-41.100000000000009
 21
43.5
 31
0.0
  0
LINE
  5
5F
  8
1
 62
     7
 10
-40.0
 20
44.0
 30
0.0
 11
-40.0
 21
39.0
 31
0.0
  0
LINE
  5
60
  8
1
 62
     7
 10
-40.0
 20
39.0
 30
0.0
 11
-41.100000000000009
 21
39.0
 31
0.0
  0
LINE
  5
61
  8
1
 62
     7
 10
-39.5
 20
39.5
 30
0.0
 11
-40.0
 21
39.0
 31
0.0
  0
LINE
  5
62
  8
1
 62
     7
 10
-39.5
 20
43.5
 30
0.0
 11
-39.5
 21
39.5
 31
0.0
  0
LINE
  5
63
  8
1
 62
     7
 10
-40.0
 20
44.0
 30
0.0
 11
-39.5
 21
43.5
 31
0.0
  0
LINE
  5
64
  8
1
 62
     7
 10
-84.299999999999983
 20
-35.999999999999993
 30
0.0
 11
-78.799999999999983
 21
-35.999999999999993
 31
0.0
  0
LINE
  5
65
  8
1
 62
     7
 10
-84.299999999999983
 20
36.0
 30
0.0
 11
-77.59999999999998
 21
36.0
 31
0.0
  0
LINE
  5
66
  8
1
 62
     7
 10
-73.90000000000002
 20
-36.999999999999993
 30
0.0
 11
-77.59999999999998
 21
-36.999999999999993
 31
0.0
  0
LINE
  5
67
  8
1
 62
     7
 10
-90.0
 20
48.0
 30
0.0
 11
-90.0
 21
-47.999999999999993
 31
0.0
  0
LINE
  5
68
  8
1
 62
     7
 10
-89.500000000000014
 20
48.5
 30
0.0
 11
-84.799999999999997
 21
48.5
 31
0.0
  0
LINE
  5
69
  8
1
 62
     7
 10
-84.799999999999997
 20
-48.499999999999993
 30
0.0
 11
-89.500000000000014
 21
-48.499999999999993
 31
0.0
  0
LINE
  5
6A
  8
1
 62
     7
 10
-48.400000000000013
 20
48.500000000000007
 30
0.0
 11
-46.200000000000003
 21
48.500000000000007
 31
0.0
  0
LINE
  5
6B
  8
1
 62
     7
 10
-45.700000000000003
 20
48.0
 30
0.0
 11
-45.700000000000003
 21
-36.499999999999993
 31
0.0
  0
LINE
  5
6C
  8
1
 62
     7
 10
-46.200000000000003
 20
-36.999999999999993
 30
0.0
 11
-48.400000000000013
 21
-36.999999999999993
 31
0.0
  0
LINE
  5
6D
  8
1
 62
     7
 10
-48.900000000000013
 20
-34.499999999999993
 30
0.0
 11
-49.400000000000013
 21
-34.999999999999993
 31
0.0
  0
LINE
  5
6E
  8
1
 62
     7
 10
-49.400000000000013
 20
35.0
 30
0.0
 11
-48.900000000000013
 21
34.500000000000007
 31
0.0
  0
LINE
  5
6F
  8
1
 62
     7
 10
-72.5
 20
35.0
 30
0.0
 11
-49.400000000000013
 21
35.0
 31
0.0
  0
LINE
  5
70
  8
1
 62
     7
 10
-48.900000000000013
 20
48.0
 30
0.0
 11
-48.900000000000013
 21
-36.499999999999993
 31
0.0
  0
LINE
  5
71
  8
1
 62
     7
 10
-72.5
 20
-34.999999999999993
 30
0.0
 11
-49.400000000000013
 21
-34.999999999999993
 31
0.0
  0
LINE
  5
72
  8
1
 62
     7
 10
-84.299999999999983
 20
-42.499999999999993
 30
0.0
 11
-83.0
 21
-41.200000000000003
 31
0.0
  0
LINE
  5
73
  8
1
 62
     7
 10
-84.299999999999983
 20
-43.79999999999999
 30
0.0
 11
-83.0
 21
-42.499999999999993
 31
0.0
  0
LINE
  5
74
  8
1
 62
     7
 10
-84.299999999999983
 20
-37.899999999999999
 30
0.0
 11
-83.0
 21
-37.899999999999999
 31
0.0
  0
LINE
  5
75
  8
1
 62
     7
 10
-83.0
 20
-37.899999999999999
 30
0.0
 11
-83.0
 21
-47.099999999999987
 31
0.0
  0
LINE
  5
76
  8
1
 62
     7
 10
-83.0
 20
-47.099999999999987
 30
0.0
 11
-84.299999999999983
 21
-47.099999999999987
 31
0.0
  0
LINE
  5
77
  8
1
 62
     7
 10
-83.0
 20
-38.249999999999993
 30
0.0
 11
-78.299999999999997
 21
-38.249999999999993
 31
0.0
  0
LINE
  5
78
  8
1
 62
     7
 10
-78.299999999999997
 20
-38.249999999999993
 30
0.0
 11
-78.0
 21
-38.769615242270639
 31
0.0
  0
LINE
  5
79
  8
1
 62
     7
 10
-78.0
 20
-38.769615242270639
 30
0.0
 11
-78.0
 21
-46.230384757729333
 31
0.0
  0
LINE
  5
7A
  8
1
 62
     7
 10
-78.0
 20
-46.230384757729333
 30
0.0
 11
-78.299999999999997
 21
-46.749999999999993
 31
0.0
  0
LINE
  5
7B
  8
1
 62
     7
 10
-78.299999999999997
 20
-46.749999999999993
 30
0.0
 11
-83.0
 21
-46.749999999999993
 31
0.0
  0
LINE
  5
7C
  8
1
 62
     7
 10
-78.299999999999997
 20
-38.249999999999993
 30
0.0
 11
-78.299999999999997
 21
-46.749999999999993
 31
0.0
  0
LINE
  5
7D
  8
1
 62
     7
 10
-98.500000000000014
 20
-39.999999999999993
 30
0.0
 11
-99.0
 21
-40.499999999999993
 31
0.0
  0
LINE
  5
7E
  8
1
 62
     7
 10
-99.0
 20
-40.499999999999993
 30
0.0
 11
-99.0
 21
-44.499999999999993
 31
0.0
  0
LINE
  5
7F
  8
1
 62
     7
 10
-99.0
 20
-44.499999999999993
 30
0.0
 11
-98.500000000000014
 21
-44.999999999999993
 31
0.0
  0
LINE
  5
80
  8
1
 62
     7
 10
-98.500000000000014
 20
-44.999999999999993
 30
0.0
 11
-90.0
 21
-45.0
 31
0.0
  0
LINE
  5
81
  8
1
 62
     7
 10
-98.500000000000014
 20
-39.999999999999993
 30
0.0
 11
-98.500000000000014
 21
-44.999999999999993
 31
0.0
  0
LINE
  5
82
  8
1
 62
     3
 10
-99.0
 20
-40.499999999999993
 30
0.0
 11
-90.0
 21
-40.499999999999993
 31
0.0
  0
LINE
  5
83
  8
1
 62
     3
 10
-99.0
 20
-44.499999999999993
 30
0.0
 11
-90.0
 21
-44.499999999999993
 31
0.0
  0
LINE
  5
84
  8
1
  6
DASHDOT
 62
     3
 10
-102.44472294708601
 20
-42.499999999999993
 30
0.0
 11
-74.810190572985348
 21
-42.499999999999993
 31
0.0
  0
LINE
  5
85
  8
1
 62
     7
 10
-89.500000000000014
 20
48.5
 30
0.0
 11
-90.0
 21
48.0
 31
0.0
  0
LINE
  5
86
  8
1
 62
     7
 10
-84.799999999999997
 20
48.5
 30
0.0
 11
-84.299999999999983
 21
48.0
 31
0.0
  0
LINE
  5
87
  8
1
 62
     7
 10
-73.0
 20
48.5
 30
0.0
 11
-77.59999999999998
 21
48.5
 31
0.0
  0
LINE
  5
88
  8
1
 62
     7
 10
-48.900000000000013
 20
48.0
 30
0.0
 11
-48.400000000000013
 21
48.500000000000007
 31
0.0
  0
LINE
  5
89
  8
1
 62
     7
 10
-45.700000000000003
 20
48.0
 30
0.0
 11
-46.200000000000003
 21
48.500000000000007
 31
0.0
  0
LINE
  5
8A
  8
1
 62
     7
 10
-46.200000000000003
 20
-36.999999999999993
 30
0.0
 11
-45.700000000000003
 21
-36.499999999999993
 31
0.0
  0
LINE
  5
8B
  8
1
 62
     7
 10
-48.900000000000013
 20
-36.499999999999993
 30
0.0
 11
-48.400000000000013
 21
-36.999999999999993
 31
0.0
  0
LINE
  5
8C
  8
1
 62
     7
 10
-84.799999999999997
 20
-48.499999999999993
 30
0.0
 11
-84.299999999999983
 21
-47.999999999999993
 31
0.0
  0
LINE
  5
8D
  8
1
 62
     7
 10
-90.0
 20
-47.999999999999993
 30
0.0
 11
-89.500000000000014
 21
-48.499999999999993
 31
0.0
  0
LINE
  5
8E
  8
1
 62
     7
 10
-54.5
 20
61.556592735907323
 30
0.0
 11
-54.5
 21
58.556592735907309
 31
0.0
  0
LINE
  5
8F
  8
1
 62
     7
 10
-54.700000000000003
 20
58.556592735907309
 30
0.0
 11
-54.700000000000003
 21
61.556592735907323
 31
0.0
  0
LINE
  5
90
  8
1
 62
     7
 10
-54.900000000000013
 20
61.556592735907323
 30
0.0
 11
-54.900000000000013
 21
58.556592735907309
 31
0.0
  0
LINE
  5
91
  8
1
 62
     7
 10
-55.100000000000009
 20
58.556592735907309
 30
0.0
 11
-55.100000000000009
 21
61.556592735907323
 31
0.0
  0
LINE
  5
92
  8
1
 62
     7
 10
-55.300000000000011
 20
61.556592735907323
 30
0.0
 11
-55.300000000000011
 21
58.556592735907309
 31
0.0
  0
LINE
  5
93
  8
1
 62
     7
 10
-55.900000000000013
 20
58.556592735907309
 30
0.0
 11
-53.900000000000013
 21
58.556592735907309
 31
0.0
  0
LINE
  5
94
  8
1
 62
     7
 10
-53.900000000000013
 20
58.556592735907309
 30
0.0
 11
-53.900000000000013
 21
44.0
 31
0.0
  0
LINE
  5
95
  8
1
 62
     7
 10
-53.900000000000013
 20
39.0
 30
0.0
 11
-53.900000000000013
 21
35.0
 31
0.0
  0
LINE
  5
96
  8
1
 62
     7
 10
-55.900000000000013
 20
35.0
 30
0.0
 11
-55.900000000000013
 21
39.0
 31
0.0
  0
LINE
  5
97
  8
1
 62
     7
 10
-55.900000000000013
 20
44.0
 30
0.0
 11
-55.900000000000013
 21
58.556592735907309
 31
0.0
  0
LINE
  5
98
  8
1
  6
DASHDOT
 62
     3
 10
16.0
 20
2.2844137967327991
 30
0.0
 11
16.0
 21
-2.2500930452218939
 31
0.0
  0
LINE
  5
99
  8
1
  6
DASHDOT
 62
     3
 10
13.00244520180139
 20
0.0
 30
0.0
 11
18.986955290045589
 21
0.0
 31
0.0
  0
LINE
  5
9A
  8
1
 62
     3
 10
44.299999999999983
 20
0.0
 30
0.0
 11
49.299999999999983
 21
0.0
 31
0.0
  0
LINE
  5
9B
  8
1
 62
     3
 10
0.0
 20
0.0
 30
0.0
 11
-5.0
 21
0.0
 31
0.0
  0
LINE
  5
9C
  8
1
 62
     7
 10
17.5
 20
-12.0
 30
0.0
 11
17.5
 21
-34.999999999999993
 31
0.0
  0
LINE
  5
9D
  8
1
 62
     7
 10
4.5999999999999943
 20
-16.75
 30
0.0
 11
4.5999999999999943
 21
-12.0
 31
0.0
  0
LINE
  5
9E
  8
1
 62
     7
 10
4.5999999999999943
 20
-12.0
 30
0.0
 11
4.0
 21
-12.0
 31
0.0
  0
LINE
  5
9F
  8
1
 62
     7
 10
4.5999999999999943
 20
-16.75
 30
0.0
 11
5.0999999999999943
 21
-17.25
 31
0.0
  0
LINE
  5
A0
  8
1
 62
     7
 10
4.5999999999999943
 20
-16.75
 30
0.0
 11
4.5999999999999943
 21
-12.0
 31
0.0
  0
LINE
  5
A1
  8
1
 62
     7
 10
10.4
 20
-17.25
 30
0.0
 11
10.9
 21
-16.75
 31
0.0
  0
LINE
  5
A2
  8
1
 62
     7
 10
5.0999999999999943
 20
-17.25
 30
0.0
 11
10.4
 21
-17.25
 31
0.0
  0
LINE
  5
A3
  8
1
 62
     7
 10
10.9
 20
-14.25
 30
0.0
 11
4.5999999999999943
 21
-14.25
 31
0.0
  0
LINE
  5
A4
  8
1
 62
     7
 10
10.9
 20
-16.75
 30
0.0
 11
10.9
 21
-12.0
 31
0.0
  0
LINE
  5
A5
  8
1
 62
     7
 10
10.9
 20
-12.0
 30
0.0
 11
19.5
 21
-12.0
 31
0.0
  0
LINE
  5
A6
  8
1
 62
     7
 10
19.5
 20
-12.0
 30
0.0
 11
20.0
 21
-11.5
 31
0.0
  0
LINE
  5
A7
  8
1
 62
     7
 10
20.0
 20
-7.0
 30
0.0
 11
4.0
 21
-7.0
 31
0.0
  0
LINE
  5
A8
  8
1
 62
     7
 10
12.400000000000009
 20
-15.5
 30
0.0
 11
17.0
 21
-15.5
 31
0.0
  0
LINE
  5
A9
  8
1
 62
     7
 10
17.0
 20
38.350000000000001
 30
0.0
 11
17.0
 21
13.0
 31
0.0
  0
LINE
  5
AA
  8
1
 62
     7
 10
17.0
 20
48.5
 30
0.0
 11
17.0
 21
44.649999999999991
 31
0.0
  0
LINE
  5
AB
  8
1
 62
     7
 10
17.0
 20
-36.999999999999993
 30
0.0
 11
17.0
 21
-12.0
 31
0.0
  0
LINE
  5
AC
  8
1
 62
     7
 10
16.099999999999991
 20
-36.999999999999993
 30
0.0
 11
17.0
 21
-36.999999999999993
 31
0.0
  0
LINE
  5
AD
  8
1
 62
     7
 10
12.400000000000009
 20
-36.999999999999993
 30
0.0
 11
12.400000000000009
 21
-12.0
 31
0.0
  0
LINE
  5
AE
  8
1
 62
     7
 10
11.19999999999999
 20
-35.999999999999993
 30
0.0
 11
12.400000000000009
 21
-35.999999999999993
 31
0.0
  0
LINE
  5
AF
  8
1
 62
     7
 10
11.19999999999999
 20
-22.499999999999989
 30
0.0
 11
12.400000000000009
 21
-22.499999999999989
 31
0.0
  0
LINE
  5
B0
  8
1
 62
     7
 10
12.400000000000009
 20
38.350000000000001
 30
0.0
 11
12.400000000000009
 21
12.0
 31
0.0
  0
LINE
  5
B1
  8
1
 62
     7
 10
11.19999999999999
 20
22.5
 30
0.0
 11
12.400000000000009
 21
22.5
 31
0.0
  0
LINE
  5
B2
  8
1
 62
     7
 10
12.400000000000009
 20
48.5
 30
0.0
 11
12.400000000000009
 21
44.649999999999991
 31
0.0
  0
LINE
  5
B3
  8
1
 62
     7
 10
5.7000000000000011
 20
36.0
 30
0.0
 11
12.400000000000009
 21
36.0
 31
0.0
  0
LINE
  5
B4
  8
1
 62
     7
 10
5.7000000000000011
 20
48.0
 30
0.0
 11
5.7000000000000011
 21
14.25
 31
0.0
  0
LINE
  5
B5
  8
1
 62
     3
 10
37.099999999999987
 20
43.5
 30
0.0
 11
24.299999999999969
 21
43.5
 31
0.0
  0
LINE
  5
B6
  8
1
 62
     3
 10
37.099999999999987
 20
39.500000000000007
 30
0.0
 11
24.299999999999969
 21
39.5
 31
0.0
  0
LINE
  5
B7
  8
1
 62
     7
 10
37.099999999999987
 20
39.0
 30
0.0
 11
24.299999999999969
 21
39.0
 31
0.0
  0
LINE
  5
B8
  8
1
 62
     7
 10
48.899999999999991
 20
44.0
 30
0.0
 11
50.0
 21
44.0
 31
0.0
  0
LINE
  5
B9
  8
1
 62
     7
 10
24.299999999999969
 20
44.0
 30
0.0
 11
37.099999999999987
 21
44.0
 31
0.0
  0
LINE
  5
BA
  8
1
 62
     7
 10
24.299999999999969
 20
44.150000000000013
 30
0.0
 11
24.299999999999969
 21
38.850000000000009
 31
0.0
  0
LINE
  5
BB
  8
1
 62
     7
 10
48.899999999999991
 20
38.850000000000009
 30
0.0
 11
48.899999999999991
 21
44.150000000000013
 31
0.0
  0
LINE
  5
BC
  8
1
 62
     7
 10
19.699999999999989
 20
46.100000000000009
 30
0.0
 11
19.699999999999989
 21
36.900000000000013
 31
0.0
  0
LINE
  5
BD
  8
1
 62
     7
 10
23.095854811567278
 20
36.900000000000013
 30
0.0
 11
19.699999999999989
 21
36.900000000000013
 31
0.0
  0
LINE
  5
BE
  8
1
 62
     7
 10
23.095854811567278
 20
39.20000000000001
 30
0.0
 11
19.699999999999989
 21
39.20000000000001
 31
0.0
  0
LINE
  5
BF
  8
1
 62
     7
 10
23.095854811567278
 20
43.79999999999999
 30
0.0
 11
19.699999999999989
 21
43.79999999999999
 31
0.0
  0
LINE
  5
C0
  8
1
 62
     7
 10
23.095854811567278
 20
46.100000000000009
 30
0.0
 11
19.699999999999989
 21
46.100000000000009
 31
0.0
  0
LINE
  5
C1
  8
1
 62
     7
 10
23.499999999999989
 20
44.950000000000003
 30
0.0
 11
23.499999999999989
 21
38.04999999999999
 31
0.0
  0
LINE
  5
C2
  8
1
 62
     7
 10
47.69585481156728
 20
36.900000000000013
 30
0.0
 11
44.299999999999983
 21
36.900000000000013
 31
0.0
  0
LINE
  5
C3
  8
1
 62
     7
 10
47.69585481156728
 20
39.20000000000001
 30
0.0
 11
44.299999999999983
 21
39.20000000000001
 31
0.0
  0
LINE
  5
C4
  8
1
 62
     7
 10
47.69585481156728
 20
43.800000000000011
 30
0.0
 11
44.299999999999983
 21
43.800000000000011
 31
0.0
  0
LINE
  5
C5
  8
1
 62
     7
 10
47.69585481156728
 20
46.100000000000009
 30
0.0
 11
44.299999999999983
 21
46.100000000000009
 31
0.0
  0
LINE
  5
C6
  8
1
 62
     7
 10
48.09999999999998
 20
44.950000000000003
 30
0.0
 11
48.09999999999998
 21
38.050000000000011
 31
0.0
  0
LINE
  5
C7
  8
1
 62
     7
 10
37.50414518843268
 20
46.100000000000009
 30
0.0
 11
41.09999999999998
 21
46.100000000000009
 31
0.0
  0
LINE
  5
C8
  8
1
 62
     7
 10
37.50414518843268
 20
43.800000000000011
 30
0.0
 11
41.09999999999998
 21
43.800000000000011
 31
0.0
  0
LINE
  5
C9
  8
1
 62
     7
 10
37.50414518843268
 20
39.20000000000001
 30
0.0
 11
41.09999999999998
 21
39.20000000000001
 31
0.0
  0
LINE
  5
CA
  8
1
 62
     7
 10
37.50414518843268
 20
36.900000000000013
 30
0.0
 11
41.09999999999998
 21
36.900000000000013
 31
0.0
  0
LINE
  5
CB
  8
1
 62
     7
 10
37.099999999999987
 20
38.050000000000011
 30
0.0
 11
37.099999999999987
 21
44.950000000000003
 31
0.0
  0
LINE
  5
CC
  8
1
 62
     7
 10
19.699999999999989
 20
38.350000000000001
 30
0.0
 11
5.7000000000000011
 21
38.350000000000001
 31
0.0
  0
LINE
  5
CD
  8
1
 62
     7
 10
5.7000000000000011
 20
44.649999999999991
 30
0.0
 11
19.699999999999989
 21
44.649999999999991
 31
0.0
  0
LINE
  5
CE
  8
1
 62
     3
 10
50.5
 20
39.5
 30
0.0
 11
48.899999999999991
 21
39.500000000000007
 31
0.0
  0
LINE
  5
CF
  8
1
 62
     3
 10
50.5
 20
43.5
 30
0.0
 11
48.899999999999991
 21
43.5
 31
0.0
  0
LINE
  5
D0
  8
1
 62
     7
 10
50.0
 20
44.0
 30
0.0
 11
50.0
 21
39.0
 31
0.0
  0
LINE
  5
D1
  8
1
 62
     7
 10
50.0
 20
39.0
 30
0.0
 11
48.899999999999991
 21
39.0
 31
0.0
  0
LINE
  5
D2
  8
1
 62
     7
 10
50.5
 20
39.5
 30
0.0
 11
50.0
 21
39.0
 31
0.0
  0
LINE
  5
D3
  8
1
 62
     7
 10
50.5
 20
43.5
 30
0.0
 11
50.5
 21
39.5
 31
0.0
  0
LINE
  5
D4
  8
1
 62
     7
 10
50.0
 20
44.0
 30
0.0
 11
50.5
 21
43.5
 31
0.0
  0
LINE
  5
D5
  8
1
 62
     7
 10
12.400000000000009
 20
15.5
 30
0.0
 11
17.0
 21
15.5
 31
0.0
  0
LINE
  5
D6
  8
1
 62
     7
 10
0.0
 20
-23.249999999999979
 30
0.0
 11
5.7000000000000011
 21
-23.249999999999979
 31
0.0
  0
LINE
  5
D7
  8
1
 62
     7
 10
0.0
 20
23.25
 30
0.0
 11
5.7000000000000011
 21
23.25
 31
0.0
  0
LINE
  5
D8
  8
1
 62
     7
 10
5.7000000000000011
 20
-18.0
 30
0.0
 11
11.19999999999999
 21
-18.0
 31
0.0
  0
LINE
  5
D9
  8
1
 62
     7
 10
5.7000000000000011
 20
-15.0
 30
0.0
 11
11.19999999999999
 21
-15.0
 31
0.0
  0
LINE
  5
DA
  8
1
 62
     7
 10
5.7000000000000011
 20
15.0
 30
0.0
 11
11.19999999999999
 21
15.0
 31
0.0
  0
LINE
  5
DB
  8
1
 62
     7
 10
5.7000000000000011
 20
18.0
 30
0.0
 11
11.19999999999999
 21
18.0
 31
0.0
  0
LINE
  5
DC
  8
1
 62
     7
 10
5.7000000000000011
 20
-35.999999999999993
 30
0.0
 11
11.19999999999999
 21
-35.999999999999993
 31
0.0
  0
LINE
  5
DD
  8
1
 62
     7
 10
16.099999999999991
 20
-36.999999999999993
 30
0.0
 11
12.400000000000009
 21
-36.999999999999993
 31
0.0
  0
LINE
  5
DE
  8
1
 62
     7
 10
0.0
 20
48.0
 30
0.0
 11
0.0
 21
-40.0
 31
0.0
  0
LINE
  5
DF
  8
1
 62
     7
 10
0.5
 20
48.5
 30
0.0
 11
5.200000000000002
 21
48.5
 31
0.0
  0
LINE
  5
E0
  8
1
 62
     7
 10
5.7000000000000011
 20
-14.25
 30
0.0
 11
5.7000000000000011
 21
-47.999999999999993
 31
0.0
  0
LINE
  5
E1
  8
1
 62
     7
 10
5.200000000000002
 20
-48.499999999999993
 30
0.0
 11
0.5
 21
-48.499999999999993
 31
0.0
  0
LINE
  5
E2
  8
1
 62
     7
 10
17.5
 20
-15.5
 30
0.0
 11
41.09999999999998
 21
-15.5
 31
0.0
  0
LINE
  5
E3
  8
1
 62
     7
 10
17.5
 20
15.5
 30
0.0
 11
41.09999999999998
 21
15.5
 31
0.0
  0
LINE
  5
E4
  8
1
 62
     7
 10
41.09999999999998
 20
-11.5
 30
0.0
 11
44.299999999999983
 21
-11.5
 31
0.0
  0
LINE
  5
E5
  8
1
 62
     7
 10
41.09999999999998
 20
11.5
 30
0.0
 11
44.299999999999983
 21
11.5
 31
0.0
  0
LINE
  5
E6
  8
1
 62
     7
 10
41.599999999999987
 20
48.500000000000007
 30
0.0
 11
43.799999999999983
 21
48.500000000000007
 31
0.0
  0
LINE
  5
E7
  8
1
 62
     7
 10
44.299999999999983
 20
48.0
 30
0.0
 11
44.299999999999983
 21
-36.499999999999993
 31
0.0
  0
LINE
  5
E8
  8
1
 62
     7
 10
43.799999999999983
 20
-36.999999999999993
 30
0.0
 11
41.599999999999987
 21
-36.999999999999993
 31
0.0
  0
LINE
  5
E9
  8
1
 62
     7
 10
41.09999999999998
 20
-34.499999999999993
 30
0.0
 11
40.59999999999998
 21
-34.999999999999993
 31
0.0
  0
LINE
  5
EA
  8
1
 62
     7
 10
40.59999999999998
 20
35.0
 30
0.0
 11
41.09999999999998
 21
34.500000000000007
 31
0.0
  0
LINE
  5
EB
  8
1
 62
     7
 10
17.5
 20
35.0
 30
0.0
 11
17.5
 21
12.0
 31
0.0
  0
LINE
  5
EC
  8
1
 62
     7
 10
17.5
 20
35.0
 30
0.0
 11
40.59999999999998
 21
35.0
 31
0.0
  0
LINE
  5
ED
  8
1
 62
     7
 10
41.09999999999998
 20
48.0
 30
0.0
 11
41.09999999999998
 21
-36.499999999999993
 31
0.0
  0
LINE
  5
EE
  8
1
 62
     7
 10
17.5
 20
-34.999999999999993
 30
0.0
 11
40.59999999999998
 21
-34.999999999999993
 31
0.0
  0
LINE
  5
EF
  8
1
 62
     7
 10
5.7000000000000011
 20
-42.499999999999993
 30
0.0
 11
7.0
 21
-41.200000000000003
 31
0.0
  0
LINE
  5
F0
  8
1
 62
     7
 10
5.7000000000000011
 20
-43.79999999999999
 30
0.0
 11
7.0
 21
-42.499999999999993
 31
0.0
  0
LINE
  5
F1
  8
1
 62
     7
 10
5.7000000000000011
 20
-37.899999999999999
 30
0.0
 11
7.0
 21
-37.899999999999999
 31
0.0
  0
LINE
  5
F2
  8
1
 62
     7
 10
7.0
 20
-37.899999999999999
 30
0.0
 11
7.0
 21
-47.099999999999987
 31
0.0
  0
LINE
  5
F3
  8
1
 62
     7
 10
7.0
 20
-47.099999999999987
 30
0.0
 11
5.7000000000000011
 21
-47.099999999999987
 31
0.0
  0
LINE
  5
F4
  8
1
 62
     7
 10
0.0
 20
-39.749999999999993
 30
0.0
 11
5.7000000000000011
 21
-39.749999999999993
 31
0.0
  0
LINE
  5
F5
  8
1
 62
     7
 10
0.0
 20
-45.249999999999993
 30
0.0
 11
5.7000000000000011
 21
-45.249999999999993
 31
0.0
  0
LINE
  5
F6
  8
1
 62
     7
 10
7.0
 20
-38.249999999999993
 30
0.0
 11
11.69999999999999
 21
-38.249999999999993
 31
0.0
  0
LINE
  5
F7
  8
1
 62
     7
 10
11.69999999999999
 20
-38.249999999999993
 30
0.0
 11
12.0
 21
-38.769615242270639
 31
0.0
  0
LINE
  5
F8
  8
1
 62
     7
 10
12.0
 20
-38.769615242270639
 30
0.0
 11
12.0
 21
-46.230384757729333
 31
0.0
  0
LINE
  5
F9
  8
1
 62
     7
 10
12.0
 20
-46.230384757729333
 30
0.0
 11
11.69999999999999
 21
-46.749999999999993
 31
0.0
  0
LINE
  5
FA
  8
1
 62
     7
 10
11.69999999999999
 20
-46.749999999999993
 30
0.0
 11
7.0
 21
-46.749999999999993
 31
0.0
  0
LINE
  5
FB
  8
1
 62
     7
 10
11.69999999999999
 20
-38.249999999999993
 30
0.0
 11
11.69999999999999
 21
-46.749999999999993
 31
0.0
  0
LINE
  5
FC
  8
1
 62
     7
 10
-8.5
 20
-39.999999999999993
 30
0.0
 11
-9.0
 21
-40.499999999999993
 31
0.0
  0
LINE
  5
FD
  8
1
 62
     7
 10
-9.0
 20
-40.499999999999993
 30
0.0
 11
-9.0
 21
-44.499999999999993
 31
0.0
  0
LINE
  5
FE
  8
1
 62
     7
 10
-9.0
 20
-44.499999999999993
 30
0.0
 11
-8.5
 21
-44.999999999999993
 31
0.0
  0
LINE
  5
FF
  8
1
 62
     7
 10
-8.5
 20
-44.999999999999993
 30
0.0
 11
5.7000000000000011
 21
-44.999999999999993
 31
0.0
  0
LINE
  5
100
  8
1
 62
     7
 10
-8.5
 20
-39.999999999999993
 30
0.0
 11
-8.5
 21
-44.999999999999993
 31
0.0
  0
LINE
  5
101
  8
1
 62
     3
 10
-9.0
 20
-40.499999999999993
 30
0.0
 11
5.6339745962155661
 21
-40.499999999999993
 31
0.0
  0
LINE
  5
102
  8
1
 62
     3
 10
5.6339745962155661
 20
-40.499999999999993
 30
0.0
 11
5.7000000000000011
 21
-40.461880215351677
 31
0.0
  0
LINE
  5
103
  8
1
 62
     3
 10
-9.0
 20
-44.499999999999993
 30
0.0
 11
5.6339745962155661
 21
-44.499999999999993
 31
0.0
  0
LINE
  5
104
  8
1
 62
     3
 10
5.6339745962155661
 20
-44.499999999999993
 30
0.0
 11
5.7000000000000011
 21
-44.538119784648288
 31
0.0
  0
LINE
  5
105
  8
1
 62
     3
 10
5.6339745962155661
 20
-39.999999999999993
 30
0.0
 11
5.6339745962155661
 21
-44.999999999999993
 31
0.0
  0
LINE
  5
106
  8
1
 62
     7
 10
5.7000000000000011
 20
-39.999999999999993
 30
0.0
 11
-8.5
 21
-39.999999999999993
 31
0.0
  0
LINE
  5
107
  8
1
 62
     7
 10
0.0
 20
-45.0
 30
0.0
 11
0.0
 21
-47.999999999999993
 31
0.0
  0
LINE
  5
108
  8
1
  6
DASHDOT
 62
     3
 10
-12.444722947086071
 20
-42.499999999999993
 30
0.0
 11
15.18980942701465
 21
-42.499999999999993
 31
0.0
  0
LINE
  5
109
  8
1
 62
     7
 10
4.0
 20
12.0
 30
0.0
 11
4.0
 21
-12.0
 31
0.0
  0
LINE
  5
10A
  8
1
 62
     7
 10
10.9
 20
12.0
 30
0.0
 11
10.9
 21
16.75
 31
0.0
  0
LINE
  5
10B
  8
1
 62
     7
 10
19.5
 20
12.0
 30
0.0
 11
10.9
 21
12.0
 31
0.0
  0
LINE
  5
10C
  8
1
 62
     7
 10
20.0
 20
11.5
 30
0.0
 11
20.0
 21
-11.5
 31
0.0
  0
LINE
  5
10D
  8
1
 62
     7
 10
4.5999999999999943
 20
14.25
 30
0.0
 11
10.9
 21
14.25
 31
0.0
  0
LINE
  5
10E
  8
1
 62
     7
 10
11.19999999999999
 20
-22.499999999999989
 30
0.0
 11
11.19999999999999
 21
-12.588406480813941
 31
0.0
  0
LINE
  5
10F
  8
1
 62
     7
 10
4.0
 20
9.0
 30
0.0
 11
20.0
 21
9.0
 31
0.0
  0
LINE
  5
110
  8
1
 62
     7
 10
4.0
 20
7.0
 30
0.0
 11
20.0
 21
7.0
 31
0.0
  0
LINE
  5
111
  8
1
 62
     7
 10
0.5
 20
48.5
 30
0.0
 11
0.0
 21
48.0
 31
0.0
  0
LINE
  5
112
  8
1
 62
     7
 10
5.200000000000002
 20
48.5
 30
0.0
 11
5.7000000000000011
 21
48.0
 31
0.0
  0
LINE
  5
113
  8
1
 62
     7
 10
17.0
 20
48.5
 30
0.0
 11
12.400000000000009
 21
48.5
 31
0.0
  0
LINE
  5
114
  8
1
 62
     7
 10
41.09999999999998
 20
48.0
 30
0.0
 11
41.599999999999987
 21
48.500000000000007
 31
0.0
  0
LINE
  5
115
  8
1
 62
     7
 10
44.299999999999983
 20
48.0
 30
0.0
 11
43.799999999999983
 21
48.500000000000007
 31
0.0
  0
LINE
  5
116
  8
1
 62
     7
 10
43.799999999999983
 20
-36.999999999999993
 30
0.0
 11
44.299999999999983
 21
-36.499999999999993
 31
0.0
  0
LINE
  5
117
  8
1
 62
     7
 10
41.09999999999998
 20
-36.499999999999993
 30
0.0
 11
41.599999999999987
 21
-36.999999999999993
 31
0.0
  0
LINE
  5
118
  8
1
 62
     7
 10
5.200000000000002
 20
-48.499999999999993
 30
0.0
 11
5.7000000000000011
 21
-47.999999999999993
 31
0.0
  0
LINE
  5
119
  8
1
 62
     7
 10
0.0
 20
-47.999999999999993
 30
0.0
 11
0.5
 21
-48.499999999999993
 31
0.0
  0
LINE
  5
11A
  8
1
 62
     7
 10
20.0
 20
11.5
 30
0.0
 11
19.5
 21
12.0
 31
0.0
  0
LINE
  5
11B
  8
1
 62
     7
 10
10.9
 20
16.75
 30
0.0
 11
10.4
 21
17.25
 31
0.0
  0
LINE
  5
11C
  8
1
 62
     7
 10
5.0999999999999943
 20
17.25
 30
0.0
 11
4.5999999999999943
 21
16.75
 31
0.0
  0
LINE
  5
11D
  8
1
 62
     7
 10
100.3053990054304
 20
-36.999999999999993
 30
0.0
 11
163.0190338865311
 21
-36.999999999999993
 31
0.0
  0
LINE
  5
11E
  8
1
 62
     7
 10
105.58327135045
 20
-26.07894509553082
 30
0.0
 11
101.1218510638483
 21
-24.883511132640091
 31
0.0
  0
LINE
  5
11F
  8
1
 62
     7
 10
101.1218510638483
 20
-24.883511132640091
 30
0.0
 11
97.855864740137477
 21
-28.149497456350979
 31
0.0
  0
LINE
  5
120
  8
1
 62
     7
 10
97.855864740137477
 20
-28.149497456350979
 30
0.0
 11
99.051298703028181
 21
-32.610917742952623
 31
0.0
  0
LINE
  5
121
  8
1
 62
     7
 10
99.051298703028181
 20
-32.610917742952623
 30
0.0
 11
103.5127189896299
 21
-33.806351705843348
 31
0.0
  0
LINE
  5
122
  8
1
 62
     7
 10
103.5127189896299
 20
-33.806351705843348
 30
0.0
 11
106.77870531334069
 21
-30.54036538213246
 31
0.0
  0
LINE
  5
123
  8
1
 62
     7
 10
106.77870531334069
 20
-30.54036538213246
 30
0.0
 11
105.58327135045
 21
-26.07894509553082
 31
0.0
  0
LINE
  5
124
  8
1
 62
     7
 10
96.037714941586216
 20
-9.5455564088638791
 30
0.0
 11
92.771728617875283
 21
-6.279570085152967
 31
0.0
  0
LINE
  5
125
  8
1
 62
     7
 10
92.771728617875283
 20
-6.279570085152967
 30
0.0
 11
88.310308331273575
 21
-7.475004048043707
 31
0.0
  0
LINE
  5
126
  8
1
 62
     7
 10
88.310308331273575
 20
-7.475004048043707
 30
0.0
 11
87.114874368382885
 21
-11.936424334645331
 31
0.0
  0
LINE
  5
127
  8
1
 62
     7
 10
87.114874368382885
 20
-11.936424334645331
 30
0.0
 11
90.38086069209379
 21
-15.202410658356261
 31
0.0
  0
LINE
  5
128
  8
1
 62
     7
 10
90.38086069209379
 20
-15.202410658356261
 30
0.0
 11
94.842280978695527
 21
-14.00697669546552
 31
0.0
  0
LINE
  5
129
  8
1
 62
     7
 10
94.842280978695527
 20
-14.00697669546552
 30
0.0
 11
96.037714941586216
 21
-9.5455564088638791
 31
0.0
  0
LINE
  5
12A
  8
1
 62
     7
 10
179.38356510628029
 20
-8.6558004853475907
 30
0.0
 11
148.02674766573
 21
45.655800485347477
 31
0.0
  0
LINE
  5
12B
  8
1
 62
     7
 10
115.29768522623191
 20
45.655800485347513
 30
0.0
 11
83.940867785681505
 21
-8.6558004853475268
 31
0.0
  0
LINE
  5
12C
  8
1
 62
     7
 10
162.20258182811321
 20
-24.88351113264012
 30
0.0
 11
157.74116154151159
 21
-26.078945095530852
 31
0.0
  0
LINE
  5
12D
  8
1
 62
     7
 10
165.4685681518242
 20
-28.149497456351028
 30
0.0
 11
162.20258182811321
 21
-24.88351113264012
 31
0.0
  0
LINE
  5
12E
  8
1
 62
     7
 10
164.27313418893351
 20
-32.610917742952672
 30
0.0
 11
165.4685681518242
 21
-28.149497456351028
 31
0.0
  0
LINE
  5
12F
  8
1
 62
     7
 10
159.81171390233169
 20
-33.80635170584339
 30
0.0
 11
164.27313418893351
 21
-32.610917742952672
 31
0.0
  0
LINE
  5
130
  8
1
 62
     7
 10
156.5457275786209
 20
-30.540365382132499
 30
0.0
 11
159.81171390233169
 21
-33.80635170584339
 31
0.0
  0
LINE
  5
131
  8
1
 62
     7
 10
157.74116154151159
 20
-26.078945095530852
 30
0.0
 11
156.5457275786209
 21
-30.540365382132499
 31
0.0
  0
LINE
  5
132
  8
1
 62
     7
 10
170.55270427408641
 20
-6.2795700851530043
 30
0.0
 11
167.2867179503755
 21
-9.5455564088639164
 31
0.0
  0
LINE
  5
133
  8
1
 62
     7
 10
175.014124560688
 20
-7.4750040480437496
 30
0.0
 11
170.55270427408641
 21
-6.2795700851530043
 31
0.0
  0
LINE
  5
134
  8
1
 62
     7
 10
176.20955852357889
 20
-11.936424334645389
 30
0.0
 11
175.014124560688
 21
-7.4750040480437496
 31
0.0
  0
LINE
  5
135
  8
1
 62
     7
 10
172.9435721998679
 20
-15.20241065835631
 30
0.0
 11
176.20955852357889
 21
-11.936424334645389
 31
0.0
  0
LINE
  5
136
  8
1
 62
     7
 10
168.48215191326631
 20
-14.006976695465561
 30
0.0
 11
172.9435721998679
 21
-15.20241065835631
 31
0.0
  0
LINE
  5
137
  8
1
 62
     7
 10
167.2867179503755
 20
-9.5455564088639164
 30
0.0
 11
168.48215191326631
 21
-14.006976695465561
 31
0.0
  0
LINE
  5
138
  8
1
 62
     7
 10
137.9417865311338
 20
38.89048782810557
 30
0.0
 11
141.20777285484479
 21
35.624501504394651
 31
0.0
  0
LINE
  5
139
  8
1
 62
     7
 10
139.1372204940246
 20
43.351908114707221
 30
0.0
 11
137.9417865311338
 21
38.89048782810557
 31
0.0
  0
LINE
  5
13A
  8
1
 62
     7
 10
143.59864078062631
 20
44.547342077597953
 30
0.0
 11
139.1372204940246
 21
43.351908114707221
 31
0.0
  0
LINE
  5
13B
  8
1
 62
     7
 10
146.8646271043371
 20
41.281355753887041
 30
0.0
 11
143.59864078062631
 21
44.547342077597953
 31
0.0
  0
LINE
  5
13C
  8
1
 62
     7
 10
145.6691931414465
 20
36.81993546728539
 30
0.0
 11
146.8646271043371
 21
41.281355753887041
 31
0.0
  0
LINE
  5
13D
  8
1
 62
     7
 10
141.20777285484479
 20
35.624501504394651
 30
0.0
 11
145.6691931414465
 21
36.81993546728539
 31
0.0
  0
LINE
  5
13E
  8
1
 62
     7
 10
117.65523975051541
 20
36.819935467285397
 30
0.0
 11
122.116660037117
 21
35.624501504394679
 31
0.0
  0
LINE
  5
13F
  8
1
 62
     7
 10
116.4598057876247
 20
41.281355753887063
 30
0.0
 11
117.65523975051541
 21
36.819935467285397
 31
0.0
  0
LINE
  5
140
  8
1
 62
     7
 10
119.72579211133559
 20
44.547342077597968
 30
0.0
 11
116.4598057876247
 21
41.281355753887063
 31
0.0
  0
LINE
  5
141
  8
1
 62
     7
 10
124.1872123979371
 20
43.351908114707243
 30
0.0
 11
119.72579211133559
 21
44.547342077597968
 31
0.0
  0
LINE
  5
142
  8
1
 62
     7
 10
125.38264636082801
 20
38.890487828105591
 30
0.0
 11
124.1872123979371
 21
43.351908114707243
 31
0.0
  0
LINE
  5
143
  8
1
 62
     7
 10
122.116660037117
 20
35.624501504394679
 30
0.0
 11
125.38264636082801
 21
38.890487828105591
 31
0.0
  0
LINE
  5
144
  8
1
 62
     7
 10
133.6622164459809
 20
-41.345299461620712
 30
0.0
 11
131.6622164459809
 21
-40.19059892324146
 31
0.0
  0
LINE
  5
145
  8
1
 62
     7
 10
131.6622164459809
 20
-40.19059892324146
 30
0.0
 11
129.6622164459809
 21
-41.345299461620712
 31
0.0
  0
LINE
  5
146
  8
1
 62
     7
 10
129.6622164459809
 20
-41.345299461620712
 30
0.0
 11
129.6622164459809
 21
-43.654700538379203
 31
0.0
  0
LINE
  5
147
  8
1
 62
     7
 10
129.6622164459809
 20
-43.654700538379203
 30
0.0
 11
131.6622164459809
 21
-44.809401076758469
 31
0.0
  0
LINE
  5
148
  8
1
 62
     7
 10
131.6622164459809
 20
-44.809401076758469
 30
0.0
 11
133.6622164459809
 21
-43.654700538379203
 31
0.0
  0
LINE
  5
149
  8
1
 62
     7
 10
133.6622164459809
 20
-43.654700538379203
 30
0.0
 11
133.6622164459809
 21
-41.345299461620712
 31
0.0
  0
LINE
  5
14A
  8
1
 62
     7
 10
96.856136785142283
 20
22.404700538379259
 30
0.0
 11
94.856136785142283
 21
23.559401076758508
 31
0.0
  0
LINE
  5
14B
  8
1
 62
     7
 10
94.856136785142283
 20
23.559401076758508
 30
0.0
 11
92.856136785142283
 21
22.404700538379259
 31
0.0
  0
LINE
  5
14C
  8
1
 62
     7
 10
92.856136785142283
 20
22.404700538379259
 30
0.0
 11
92.856136785142283
 21
20.095299461620751
 31
0.0
  0
LINE
  5
14D
  8
1
 62
     7
 10
92.856136785142283
 20
20.095299461620751
 30
0.0
 11
94.856136785142283
 21
18.940598923241499
 31
0.0
  0
LINE
  5
14E
  8
1
 62
     7
 10
94.856136785142283
 20
18.940598923241499
 30
0.0
 11
96.856136785142283
 21
20.095299461620751
 31
0.0
  0
LINE
  5
14F
  8
1
 62
     7
 10
96.856136785142283
 20
20.095299461620751
 30
0.0
 11
96.856136785142283
 21
22.404700538379259
 31
0.0
  0
LINE
  5
150
  8
1
 62
     7
 10
170.46829610681951
 20
22.40470053837927
 30
0.0
 11
168.46829610681951
 21
23.559401076758519
 31
0.0
  0
LINE
  5
151
  8
1
 62
     7
 10
168.46829610681951
 20
23.559401076758519
 30
0.0
 11
166.46829610681939
 21
22.40470053837927
 31
0.0
  0
LINE
  5
152
  8
1
 62
     7
 10
166.46829610681939
 20
22.40470053837927
 30
0.0
 11
166.46829610681939
 21
20.095299461620758
 31
0.0
  0
LINE
  5
153
  8
1
 62
     7
 10
166.46829610681939
 20
20.095299461620758
 30
0.0
 11
168.46829610681951
 21
18.94059892324151
 31
0.0
  0
LINE
  5
154
  8
1
 62
     7
 10
168.46829610681951
 20
18.94059892324151
 30
0.0
 11
170.46829610681951
 21
20.095299461620758
 31
0.0
  0
LINE
  5
155
  8
1
 62
     7
 10
170.46829610681951
 20
20.095299461620758
 30
0.0
 11
170.46829610681951
 21
22.40470053837927
 31
0.0
  0
LINE
  5
156
  8
1
 62
     7
 10
129.1622164459809
 20
6.5383484153110123
 30
0.0
 11
129.1622164459809
 21
9.0
 31
0.0
  0
LINE
  5
157
  8
1
 62
     7
 10
129.1622164459809
 20
9.0
 30
0.0
 11
134.16221644598079
 21
9.0
 31
0.0
  0
LINE
  5
158
  8
1
 62
     7
 10
134.16221644598079
 20
9.0
 30
0.0
 11
134.16221644598079
 21
6.5383484153110123
 31
0.0
  0
LINE
  5
159
  8
1
 62
     7
 10
97.572406468464777
 20
61.845282901426422
 30
0.0
 11
99.072406468464777
 21
59.247206690073099
 31
0.0
  0
LINE
  5
15A
  8
1
 62
     7
 10
97.399201387707876
 20
61.745282901426421
 30
0.0
 11
98.899201387707876
 21
59.147206690073112
 31
0.0
  0
LINE
  5
15B
  8
1
 62
     7
 10
98.725996306950975
 20
59.047206690073097
 30
0.0
 11
97.225996306951004
 21
61.645282901426427
 31
0.0
  0
LINE
  5
15C
  8
1
 62
     7
 10
97.052791226194074
 20
61.545282901426418
 30
0.0
 11
98.552791226194074
 21
58.947206690073102
 31
0.0
  0
LINE
  5
15D
  8
1
 62
     7
 10
98.379586145437216
 20
58.847206690073101
 30
0.0
 11
96.879586145437202
 21
61.445282901426403
 31
0.0
  0
LINE
  5
15E
  8
1
 62
     7
 10
95.840355660895867
 20
60.845282901426422
 30
0.0
 11
97.340355660895881
 21
58.247206690073099
 31
0.0
  0
LINE
  5
15F
  8
1
 62
     7
 10
97.167150580138994
 20
58.147206690073112
 30
0.0
 11
95.667150580138994
 21
60.745282901426421
 31
0.0
  0
LINE
  5
160
  8
1
 62
     7
 10
95.493945499382079
 20
60.645282901426427
 30
0.0
 11
96.993945499382079
 21
58.047206690073089
 31
0.0
  0
LINE
  5
161
  8
1
 62
     7
 10
96.820740418625178
 20
57.947206690073081
 30
0.0
 11
95.320740418625178
 21
60.545282901426397
 31
0.0
  0
LINE
  5
162
  8
1
 62
     7
 10
95.147535337868277
 20
60.445282901426403
 30
0.0
 11
96.647535337868291
 21
57.847206690073079
 31
0.0
  0
LINE
  5
163
  8
1
 62
     7
 10
96.127920095597588
 20
57.547206690073089
 30
0.0
 11
99.592021710735395
 21
59.547206690073097
 31
0.0
  0
LINE
  5
164
  8
1
 62
     7
 10
99.592021710735395
 20
59.547206690073097
 30
0.0
 11
111.454957024344
 21
38.999999999999957
 31
0.0
  0
LINE
  5
165
  8
1
 62
     7
 10
96.127920095597588
 20
57.547206690073089
 30
0.0
 11
109.14555594758551
 21
34.999999999999943
 31
0.0
  0
LINE
  5
166
  8
1
 62
     7
 10
110.3002564859647
 20
36.99999999999995
 30
0.0
 11
97.859970903166499
 21
58.547206690073097
 31
0.0
  0
LINE
  5
167
  8
1
 62
     7
 10
35.499999999999993
 20
61.556592735907323
 30
0.0
 11
35.499999999999993
 21
58.556592735907309
 31
0.0
  0
LINE
  5
168
  8
1
 62
     7
 10
35.299999999999969
 20
58.556592735907309
 30
0.0
 11
35.299999999999969
 21
61.556592735907323
 31
0.0
  0
LINE
  5
169
  8
1
 62
     7
 10
35.09999999999998
 20
61.556592735907323
 30
0.0
 11
35.09999999999998
 21
58.556592735907309
 31
0.0
  0
LINE
  5
16A
  8
1
 62
     7
 10
34.899999999999991
 20
58.556592735907309
 30
0.0
 11
34.899999999999991
 21
61.556592735907323
 31
0.0
  0
LINE
  5
16B
  8
1
 62
     7
 10
34.699999999999982
 20
61.556592735907323
 30
0.0
 11
34.699999999999982
 21
58.556592735907309
 31
0.0
  0
LINE
  5
16C
  8
1
 62
     7
 10
34.09999999999998
 20
58.556592735907309
 30
0.0
 11
36.09999999999998
 21
58.556592735907309
 31
0.0
  0
LINE
  5
16D
  8
1
 62
     7
 10
36.09999999999998
 20
58.556592735907309
 30
0.0
 11
36.09999999999998
 21
44.0
 31
0.0
  0
LINE
  5
16E
  8
1
 62
     7
 10
36.09999999999998
 20
39.0
 30
0.0
 11
36.09999999999998
 21
35.0
 31
0.0
  0
LINE
  5
16F
  8
1
 62
     7
 10
34.09999999999998
 20
35.0
 30
0.0
 11
34.09999999999998
 21
39.0
 31
0.0
  0
LINE
  5
170
  8
1
 62
     7
 10
34.09999999999998
 20
44.0
 30
0.0
 11
34.09999999999998
 21
58.556592735907309
 31
0.0
  0
LINE
  5
171
  8
1
 62
     7
 10
16.98038475772934
 20
13.0
 30
0.0
 11
17.5
 21
12.699999999999999
 31
0.0
  0
LINE
  5
172
  8
1
 62
     7
 10
17.5
 20
12.699999999999999
 30
0.0
 11
14.5
 21
12.699999999999999
 31
0.0
  0
LINE
  5
173
  8
1
 62
     7
 10
14.5
 20
12.699999999999999
 30
0.0
 11
15.01961524227066
 21
13.0
 31
0.0
  0
LINE
  5
174
  8
1
 62
     7
 10
15.01961524227066
 20
13.0
 30
0.0
 11
16.98038475772934
 21
13.0
 31
0.0
  0
LINE
  5
175
  8
1
 62
     7
 10
17.5
 20
12.699999999999999
 30
0.0
 11
17.5
 21
12.0
 31
0.0
  0
LINE
  5
176
  8
1
  6
DASHED
 62
     7
 10
17.5
 20
9.7999999999999901
 30
0.0
 11
14.5
 21
9.7999999999999901
 31
0.0
  0
LINE
  5
177
  8
1
  6
DASHED
 62
     7
 10
14.5
 20
9.7999999999999901
 30
0.0
 11
14.5
 21
12.0
 31
0.0
  0
LINE
  5
178
  8
1
  6
DASHED
 62
     7
 10
17.5
 20
9.7999999999999901
 30
0.0
 11
16.699999999999989
 21
9.0
 31
0.0
  0
LINE
  5
179
  8
1
  6
DASHED
 62
     7
 10
15.300000000000001
 20
9.0
 30
0.0
 11
14.5
 21
9.7999999999999901
 31
0.0
  0
LINE
  5
17A
  8
1
 62
     3
 10
17.199999999999989
 20
12.87320508075689
 30
0.0
 11
17.199999999999989
 21
12.0
 31
0.0
  0
LINE
  5
17B
  8
1
 62
     3
 10
14.800000000000001
 20
12.873205080756881
 30
0.0
 11
14.800000000000001
 21
12.0
 31
0.0
  0
LINE
  5
17C
  8
1
  6
DASHED
 62
     7
 10
17.5
 20
12.0
 30
0.0
 11
17.5
 21
9.7999999999999901
 31
0.0
  0
LINE
  5
17D
  8
1
  6
DASHED
 62
     3
 10
17.199999999999989
 20
12.0
 30
0.0
 11
17.199999999999989
 21
9.5
 31
0.0
  0
LINE
  5
17E
  8
1
  6
DASHED
 62
     3
 10
14.800000000000001
 20
12.0
 30
0.0
 11
14.800000000000001
 21
9.5
 31
0.0
  0
LINE
  5
17F
  8
1
 62
     7
 10
14.5
 20
12.0
 30
0.0
 11
14.5
 21
12.699999999999999
 31
0.0
  0
LINE
  5
180
  8
1
  6
DASHED
 62
     7
 10
17.199999999999989
 20
9.5
 30
0.0
 11
17.199999999999989
 21
9.0
 31
0.0
  0
LINE
  5
181
  8
1
  6
DASHED
 62
     7
 10
14.800000000000001
 20
9.5
 30
0.0
 11
14.800000000000001
 21
9.0
 31
0.0
  0
LINE
  5
182
  8
1
  6
DASHED
 62
     3
 10
17.5
 20
9.7999999999999901
 30
0.0
 11
17.5
 21
9.0
 31
0.0
  0
LINE
  5
183
  8
1
  6
DASHED
 62
     3
 10
14.5
 20
9.7999999999999901
 30
0.0
 11
14.5
 21
9.0
 31
0.0
  0
LINE
  5
184
  8
1
  6
DASHDOT
 62
     3
 10
16.0
 20
13.99468506991275
 30
0.0
 11
16.0
 21
7.5827414686789032
 31
0.0
  0
LINE
  5
185
  8
1
  6
DASHED
 62
     7
 10
130.46221644598091
 20
9.0
 30
0.0
 11
130.1622164459809
 21
9.2999999999999901
 31
0.0
  0
LINE
  5
186
  8
1
  6
DASHED
 62
     7
 10
130.1622164459809
 20
9.2999999999999901
 30
0.0
 11
130.1622164459809
 21
11.40175425099136
 31
0.0
  0
LINE
  5
187
  8
1
  6
DASHED
 62
     7
 10
133.16221644598079
 20
9.2999999999999901
 30
0.0
 11
132.86221644598089
 21
9.0
 31
0.0
  0
LINE
  5
188
  8
1
  6
DASHED
 62
     7
 10
133.16221644598079
 20
9.2999999999999901
 30
0.0
 11
130.1622164459809
 21
9.2999999999999901
 31
0.0
  0
LINE
  5
189
  8
1
  6
DASHED
 62
     3
 10
130.1622164459809
 20
9.2999999999999901
 30
0.0
 11
130.1622164459809
 21
9.0
 31
0.0
  0
LINE
  5
18A
  8
1
  6
DASHED
 62
     3
 10
133.16221644598079
 20
9.2999999999999901
 30
0.0
 11
133.16221644598079
 21
9.0
 31
0.0
  0
LINE
  5
18B
  8
1
  6
DASHED
 62
     7
 10
138.6622164459809
 20
-1.2000000000000091
 30
0.0
 11
138.6622164459809
 21
1.2000000000000031
 31
0.0
  0
LINE
  5
18C
  8
1
  6
DASHED
 62
     7
 10
138.6622164459809
 20
1.2000000000000031
 30
0.0
 11
138.9622164459808
 21
1.5
 31
0.0
  0
LINE
  5
18D
  8
1
  6
DASHED
 62
     7
 10
138.9622164459808
 20
1.5
 30
0.0
 11
142.36221644598089
 21
1.5
 31
0.0
  0
LINE
  5
18E
  8
1
  6
DASHED
 62
     7
 10
142.36221644598089
 20
1.5
 30
0.0
 11
142.6622164459809
 21
1.2000000000000031
 31
0.0
  0
LINE
  5
18F
  8
1
  6
DASHED
 62
     7
 10
142.6622164459809
 20
1.2000000000000031
 30
0.0
 11
142.6622164459809
 21
-1.2000000000000091
 31
0.0
  0
LINE
  5
190
  8
1
  6
DASHED
 62
     7
 10
142.6622164459809
 20
-1.2000000000000091
 30
0.0
 11
142.36221644598089
 21
-1.5
 31
0.0
  0
LINE
  5
191
  8
1
  6
DASHED
 62
     7
 10
142.36221644598089
 20
-1.5
 30
0.0
 11
138.9622164459808
 21
-1.5
 31
0.0
  0
LINE
  5
192
  8
1
  6
DASHED
 62
     7
 10
138.9622164459808
 20
-1.5
 30
0.0
 11
138.6622164459809
 21
-1.2000000000000091
 31
0.0
  0
LINE
  5
193
  8
1
  6
DASHED
 62
     7
 10
142.36221644598089
 20
1.5
 30
0.0
 11
142.36221644598089
 21
-1.5
 31
0.0
  0
LINE
  5
194
  8
1
  6
DASHED
 62
     7
 10
138.9622164459808
 20
1.5
 30
0.0
 11
138.9622164459808
 21
-1.5
 31
0.0
  0
LINE
  5
195
  8
1
  6
DASHED
 62
     7
 10
138.6622164459809
 20
-1.2000000000000091
 30
0.0
 11
138.55859230580751
 21
-1.2000000000000091
 31
0.0
  0
LINE
  5
196
  8
1
  6
DASHED
 62
     7
 10
138.6622164459809
 20
1.2000000000000031
 30
0.0
 11
138.55859230580751
 21
1.2000000000000031
 31
0.0
  0
LINE
  5
197
  8
1
  6
DASHED
 62
     7
 10
142.6622164459809
 20
1.2000000000000031
 30
0.0
 11
143.09943638790719
 21
1.2000000000000031
 31
0.0
  0
LINE
  5
198
  8
1
  6
DASHED
 62
     7
 10
142.6622164459809
 20
-1.2000000000000091
 30
0.0
 11
143.09943638790719
 21
-1.2000000000000091
 31
0.0
  0
LINE
  5
199
  8
1
  6
DASHED
 62
     3
 10
138.4996136115694
 20
1.5
 30
0.0
 11
138.9622164459808
 21
1.5
 31
0.0
  0
LINE
  5
19A
  8
1
  6
DASHED
 62
     3
 10
138.6622164459809
 20
1.2000000000000031
 30
0.0
 11
142.6622164459809
 21
1.2000000000000031
 31
0.0
  0
LINE
  5
19B
  8
1
  6
DASHED
 62
     3
 10
142.36221644598089
 20
1.5
 30
0.0
 11
143.06397069697229
 21
1.5
 31
0.0
  0
LINE
  5
19C
  8
1
  6
DASHED
 62
     3
 10
142.36221644598089
 20
-1.5
 30
0.0
 11
143.06397069697229
 21
-1.5
 31
0.0
  0
LINE
  5
19D
  8
1
  6
DASHED
 62
     3
 10
138.9622164459808
 20
-1.5
 30
0.0
 11
138.4996136115694
 21
-1.5
 31
0.0
  0
LINE
  5
19E
  8
1
  6
DASHED
 62
     3
 10
138.6622164459809
 20
-1.2000000000000091
 30
0.0
 11
142.6622164459809
 21
-1.2000000000000091
 31
0.0
  0
LINE
  5
19F
  8
1
  6
DASHED
 62
     7
 10
133.16221644598079
 20
11.401754250991379
 30
0.0
 11
133.16221644598079
 21
9.2999999999999901
 31
0.0
  0
LINE
  5
1A0
  8
1
  6
DASHED
 62
     3
 10
132.86221644598089
 20
11.437219941926431
 30
0.0
 11
132.86221644598089
 21
9.0
 31
0.0
  0
LINE
  5
1A1
  8
1
  6
DASHED
 62
     3
 10
130.46221644598091
 20
11.437219941926431
 30
0.0
 11
130.46221644598091
 21
9.0
 31
0.0
  0
LINE
  5
1A2
  8
1
 62
     7
 10
4.5999999999999943
 20
12.0
 30
0.0
 11
4.5999999999999943
 21
16.75
 31
0.0
  0
LINE
  5
1A3
  8
1
 62
     7
 10
4.0
 20
12.0
 30
0.0
 11
4.5999999999999943
 21
12.0
 31
0.0
  0
LINE
  5
1A4
  8
1
 62
     7
 10
10.4
 20
17.25
 30
0.0
 11
5.0999999999999943
 21
17.25
 31
0.0
  0
LINE
  5
1A5
  8
1
 62
     7
 10
11.19999999999999
 20
12.478834199849301
 30
0.0
 11
11.19999999999999
 21
22.5
 31
0.0
  0
LINE
  5
1A6
  8
1
 62
     7
 10
-90.0
 20
-40.0
 30
0.0
 11
-98.500000000000014
 21
-39.999999999999993
 31
0.0
  0
ARC
  5
1A7
  8
1
 62
     7
 10
-68.33824201779484
 20
38.04999999999999
 30
0.0
 40
1.8382420177948291
 50
321.27392863382431
 51
38.726071366176349
  0
ARC
  5
1A8
  8
1
 62
     7
 10
-73.246750288530237
 20
41.500000000000007
 30
0.0
 40
6.7467502885302348
 50
340.06798704944418
 51
19.93201295055573
  0
ARC
  5
1A9
  8
1
 62
     7
 10
-68.33824201779484
 20
44.950000000000003
 30
0.0
 40
1.838242017794846
 50
321.27392863382369
 51
38.726071366176001
  0
ARC
  5
1AA
  8
1
 62
     7
 10
-43.738242017794839
 20
38.050000000000011
 30
0.0
 40
1.838242017794832
 50
321.27392863382391
 51
38.726071366176143
  0
ARC
  5
1AB
  8
1
 62
     7
 10
-48.646750288530242
 20
41.500000000000007
 30
0.0
 40
6.7467502885302348
 50
340.06798704944418
 51
19.932012950555851
  0
ARC
  5
1AC
  8
1
 62
     7
 10
-43.738242017794839
 20
44.950000000000003
 30
0.0
 40
1.838242017794832
 50
321.27392863382391
 51
38.726071366176143
  0
ARC
  5
1AD
  8
1
 62
     7
 10
-51.061757982205172
 20
44.950000000000003
 30
0.0
 40
1.838242017794832
 50
141.27392863382391
 51
218.72607136617609
  0
ARC
  5
1AE
  8
1
 62
     7
 10
-46.153249711469783
 20
41.500000000000007
 30
0.0
 40
6.7467502885302366
 50
160.0679870494441
 51
199.9320129505557
  0
ARC
  5
1AF
  8
1
 62
     7
 10
-51.061757982205172
 20
38.050000000000011
 30
0.0
 40
1.838242017794832
 50
141.27392863382391
 51
218.72607136617609
  0
ARC
  5
1B0
  8
1
 62
     3
 10
16.0
 20
0.0
 30
0.0
 40
1.1999999999999991
 50
180.0
 51
0.0
  0
ARC
  5
1B1
  8
1
 62
     7
 10
16.0
 20
0.0
 30
0.0
 40
1.5
 50
180.0
 51
0.0
  0
ARC
  5
1B2
  8
1
 62
     7
 10
21.66175798220516
 20
38.04999999999999
 30
0.0
 40
1.8382420177948491
 50
321.27392863382482
 51
38.726071366175859
  0
ARC
  5
1B3
  8
1
 62
     7
 10
16.753249711469749
 20
41.500000000000007
 30
0.0
 40
6.7467502885302624
 50
340.06798704944418
 51
19.932012950555642
  0
ARC
  5
1B4
  8
1
 62
     7
 10
21.66175798220516
 20
44.950000000000003
 30
0.0
 40
1.838242017794866
 50
321.27392863382408
 51
38.72607136617551
  0
ARC
  5
1B5
  8
1
 62
     7
 10
46.261757982205182
 20
38.050000000000011
 30
0.0
 40
1.838242017794838
 50
321.27392863382403
 51
38.726071366176001
  0
ARC
  5
1B6
  8
1
 62
     7
 10
41.353249711469779
 20
41.500000000000007
 30
0.0
 40
6.746750288530226
 50
340.06798704944418
 51
19.932012950555869
  0
ARC
  5
1B7
  8
1
 62
     7
 10
46.261757982205182
 20
44.950000000000003
 30
0.0
 40
1.838242017794838
 50
321.27392863382403
 51
38.726071366176001
  0
ARC
  5
1B8
  8
1
 62
     7
 10
38.938242017794792
 20
44.950000000000003
 30
0.0
 40
1.838242017794838
 50
141.27392863382391
 51
218.72607136617589
  0
ARC
  5
1B9
  8
1
 62
     7
 10
43.846750288530188
 20
41.500000000000007
 30
0.0
 40
6.7467502885302366
 50
160.0679870494441
 51
199.9320129505557
  0
ARC
  5
1BA
  8
1
 62
     7
 10
38.938242017794792
 20
38.050000000000011
 30
0.0
 40
1.838242017794838
 50
141.27392863382391
 51
218.72607136617589
  0
ARC
  5
1BB
  8
1
 62
     7
 10
131.6622164459809
 20
0.0
 30
0.0
 40
7.0000000000000018
 50
110.92483242763829
 51
69.075167572361693
  0
ARC
  5
1BC
  8
1
 62
     7
 10
131.6622164459809
 20
0.0
 30
0.0
 40
48.500000000000057
 50
122.3633827021077
 51
117.6366172978922
  0
ARC
  5
1BD
  8
1
 62
     3
 10
16.0
 20
0.0
 30
0.0
 40
1.1999999999999991
 50
0.0
 51
180.0
  0
ARC
  5
1BE
  8
1
 62
     7
 10
16.0
 20
0.0
 30
0.0
 40
1.5
 50
0.0
 51
180.0
  0
ARC
  5
1BF
  8
1
 62
     7
 10
-41.899999999999999
 20
44.150000000000013
 30
0.0
 40
0.7999999999999901
 50
0.0
 51
90.0
  0
ARC
  5
1C0
  8
1
 62
     7
 10
-41.899999999999999
 20
38.850000000000009
 30
0.0
 40
0.7999999999999972
 50
270.0
 51
0.0
  0
ARC
  5
1C1
  8
1
 62
     7
 10
-66.5
 20
38.850000000000009
 30
0.0
 40
0.8000000000000113
 50
270.0
 51
0.0
  0
ARC
  5
1C2
  8
1
 62
     7
 10
-66.5
 20
44.150000000000013
 30
0.0
 40
0.7999999999999972
 50
0.0
 51
90.0
  0
ARC
  5
1C3
  8
1
 62
     7
 10
48.09999999999998
 20
44.150000000000013
 30
0.0
 40
0.8000000000000042
 50
0.0
 51
90.0
  0
ARC
  5
1C4
  8
1
 62
     7
 10
48.09999999999998
 20
38.850000000000009
 30
0.0
 40
0.7999999999999972
 50
270.0
 51
0.0
  0
ARC
  5
1C5
  8
1
 62
     7
 10
23.499999999999989
 20
38.850000000000009
 30
0.0
 40
0.8000000000000113
 50
270.0
 51
0.0
  0
ARC
  5
1C6
  8
1
 62
     7
 10
23.499999999999989
 20
44.150000000000013
 30
0.0
 40
0.7999999999999901
 50
0.0
 51
90.0
  0
ARC
  5
1C7
  8
1
  6
DASHDOT
 62
     3
 10
131.6622164459809
 20
0.0
 30
0.0
 40
42.5
 50
261.88407075919861
 51
278.11592924080128
  0
ARC
  5
1C8
  8
1
  6
DASHDOT
 62
     3
 10
131.6622164459809
 20
0.0
 30
0.0
 40
42.500000000000028
 50
21.884070759198622
 51
38.115929240801279
  0
ARC
  5
1C9
  8
1
  6
DASHDOT
 62
     3
 10
131.6622164459809
 20
0.0
 30
0.0
 40
42.499999999999979
 50
141.88407075919849
 51
158.11592924080131
  0
CIRCLE
  5
1CA
  8
1
 62
     7
 10
131.6622164459809
 20
0.0
 30
0.0
 40
11.5
  0
CIRCLE
  5
1CB
  8
1
 62
     7
 10
102.3172850267392
 20
-29.344931419241711
 30
0.0
 40
4.0
  0
CIRCLE
  5
1CC
  8
1
 62
     7
 10
91.576294654984494
 20
-10.740990371754609
 30
0.0
 40
4.0
  0
CIRCLE
  5
1CD
  8
1
 62
     7
 10
91.576294654984494
 20
-10.740990371754609
 30
0.0
 40
2.5
  0
CIRCLE
  5
1CE
  8
1
 62
     3
 10
91.576294654984494
 20
-10.740990371754609
 30
0.0
 40
2.0
  0
CIRCLE
  5
1CF
  8
1
 62
     7
 10
95.722162188926703
 20
-20.75
 30
0.0
 40
2.75
  0
CIRCLE
  5
1D0
  8
1
 62
     7
 10
167.602270703035
 20
-20.75000000000005
 30
0.0
 40
2.75
  0
CIRCLE
  5
1D1
  8
1
 62
     3
 10
161.00714786522249
 20
-29.344931419241771
 30
0.0
 40
2.0
  0
CIRCLE
  5
1D2
  8
1
 62
     7
 10
161.00714786522249
 20
-29.344931419241771
 30
0.0
 40
2.5
  0
CIRCLE
  5
1D3
  8
1
 62
     7
 10
161.00714786522249
 20
-29.344931419241771
 30
0.0
 40
4.0
  0
CIRCLE
  5
1D4
  8
1
 62
     7
 10
171.7481382369771
 20
-10.740990371754661
 30
0.0
 40
4.0
  0
CIRCLE
  5
1D5
  8
1
 62
     7
 10
131.6622164459809
 20
41.5
 30
0.0
 40
2.75
  0
CIRCLE
  5
1D6
  8
1
 62
     3
 10
142.40320681773551
 20
40.085921790996302
 30
0.0
 40
2.0
  0
CIRCLE
  5
1D7
  8
1
 62
     7
 10
142.40320681773551
 20
40.085921790996302
 30
0.0
 40
2.5
  0
CIRCLE
  5
1D8
  8
1
 62
     7
 10
142.40320681773551
 20
40.085921790996302
 30
0.0
 40
4.0
  0
CIRCLE
  5
1D9
  8
1
 62
     7
 10
120.9212260742263
 20
40.085921790996323
 30
0.0
 40
4.0
  0
CIRCLE
  5
1DA
  8
1
 62
     7
 10
131.6622164459809
 20
-42.499999999999957
 30
0.0
 40
4.25
  0
CIRCLE
  5
1DB
  8
1
 62
     7
 10
94.856136785142283
 20
21.25
 30
0.0
 40
4.25
  0
CIRCLE
  5
1DC
  8
1
 62
     7
 10
168.46829610681951
 20
21.250000000000011
 30
0.0
 40
4.25
  0
TEXT
  5
1DD
  8
1
 62
     7
 10
-89.78879924172945
 20
109.4613107092428
 30
0.0
 40
3.5
  1
MNB 0.4
 41
0.9
  7
SIMPLEX
  0
ENDSEC
  0
EOF
