  0
SECTION
  2
HEADER
  9
$ACADVER
  1
AC1009
  9
$INSBASE
 10
0.0
 20
0.0
 30
0.0
  9
$EXTMIN
 10
-122.1899853263217
 20
-61.877380545674001
 30
0.0
  9
$EXTMAX
 10
219.15223413328781
 20
124.71777053732001
 30
0.0
  9
$LIMMIN
 10
-122.1899853263217
 20
-61.877380545674001
  9
$LIMMAX
 10
219.15223413328781
 20
124.71777053732001
  9
$ORTHOMODE
 70
     0
  9
$REGENMODE
 70
     1
  9
$FILLMODE
 70
     1
  9
$QTEXTMODE
 70
     0
  9
$MIRRTEXT
 70
     1
  9
$DRAGMODE
 70
     2
  9
$LTSCALE
 40
1.0
  9
$OSMODE
 70
    37
  9
$ATTMODE
 70
     1
  9
$TEXTSIZE
 40
3.5
  9
$TRACEWID
 40
0.5
  9
$TEXTSTYLE
  7
STANDARD
  9
$CLAYER
  8
0
  9
$CELTYPE
  6
BYLAYER
  9
$CECOLOR
 62
   256
  9
$DIMSCALE
 40
1.0
  9
$DIMASZ
 40
0.18
  9
$DIMEXO
 40
0.0625
  9
$DIMDLI
 40
0.38
  9
$DIMRND
 40
0.0
  9
$DIMDLE
 40
0.0
  9
$DIMEXE
 40
0.18
  9
$DIMTP
 40
0.0
  9
$DIMTM
 40
0.0
  9
$DIMTXT
 40
0.18
  9
$DIMCEN
 40
0.09
  9
$DIMTSZ
 40
0.0
  9
$DIMTOL
 70
     0
  9
$DIMLIM
 70
     0
  9
$DIMTIH
 70
     1
  9
$DIMTOH
 70
     1
  9
$DIMSE1
 70
     0
  9
$DIMSE2
 70
     0
  9
$DIMTAD
 70
     0
  9
$DIMZIN
 70
     0
  9
$DIMBLK
  1

  9
$DIMASO
 70
     1
  9
$DIMSHO
 70
     1
  9
$DIMPOST
  1

  9
$DIMAPOST
  1

  9
$DIMALT
 70
     0
  9
$DIMALTD
 70
     2
  9
$DIMALTF
 40
25.399999999999999
  9
$DIMLFAC
 40
1.0
  9
$DIMTOFL
 70
     0
  9
$DIMTVP
 40
0.0
  9
$DIMTIX
 70
     0
  9
$DIMSOXD
 70
     0
  9
$DIMSAH
 70
     0
  9
$DIMBLK1
  1

  9
$DIMBLK2
  1

  9
$DIMSTYLE
  2
STANDARD
  9
$DIMCLRD
 70
     0
  9
$DIMCLRE
 70
     0
  9
$DIMCLRT
 70
     0
  9
$DIMTFAC
 40
1.0
  9
$DIMGAP
 40
0.09
  9
$LUNITS
 70
     2
  9
$LUPREC
 70
     4
  9
$SKETCHINC
 40
0.1
  9
$FILLETRAD
 40
2.0
  9
$AUNITS
 70
     0
  9
$AUPREC
 70
     0
  9
$MENU
  1
ACAD
  9
$ELEVATION
 40
0.0
  9
$PELEVATION
 40
0.0
  9
$THICKNESS
 40
0.0
  9
$LIMCHECK
 70
     0
  9
$BLIPMODE
 70
     0
  9
$CHAMFERA
 40
0.0
  9
$CHAMFERB
 40
0.0
  9
$SKPOLY
 70
     0
  9
$TDCREATE
 40
2452094.9831497679
  9
$TDUPDATE
 40
2452094.9837149312
  9
$TDINDWG
 40
0.0005778935
  9
$TDUSRTIMER
 40
0.0005778935
  9
$USRTIMER
 70
     1
  9
$ANGBASE
 50
0.0
  9
$ANGDIR
 70
     0
  9
$PDMODE
 70
     0
  9
$PDSIZE
 40
0.0
  9
$PLINEWID
 40
0.0
  9
$COORDS
 70
     1
  9
$SPLFRAME
 70
     0
  9
$SPLINETYPE
 70
     6
  9
$SPLINESEGS
 70
     8
  9
$ATTDIA
 70
     0
  9
$ATTREQ
 70
     1
  9
$HANDLING
 70
 10241
  9
$HANDSEED
  5
202
  9
$SURFTAB1
 70
     6
  9
$SURFTAB2
 70
     6
  9
$SURFTYPE
 70
     6
  9
$SURFU
 70
     6
  9
$SURFV
 70
     6
  9
$UCSNAME
  2

  9
$UCSORG
 10
0.0
 20
0.0
 30
0.0
  9
$UCSXDIR
 10
1.0
 20
0.0
 30
0.0
  9
$UCSYDIR
 10
0.0
 20
1.0
 30
0.0
  9
$PUCSNAME
  2

  9
$PUCSORG
 10
0.0
 20
0.0
 30
0.0
  9
$PUCSXDIR
 10
1.0
 20
0.0
 30
0.0
  9
$PUCSYDIR
 10
0.0
 20
1.0
 30
0.0
  9
$USERI1
 70
     0
  9
$USERI2
 70
     0
  9
$USERI3
 70
     0
  9
$USERI4
 70
     0
  9
$USERI5
 70
     0
  9
$USERR1
 40
0.0
  9
$USERR2
 40
0.0
  9
$USERR3
 40
0.0
  9
$USERR4
 40
0.0
  9
$USERR5
 40
0.0
  9
$WORLDVIEW
 70
     1
  9
$SHADEDGE
 70
     3
  9
$SHADEDIF
 70
    70
  9
$TILEMODE
 70
     1
  9
$MAXACTVP
 70
    64
  9
$PLIMCHECK
 70
     0
  9
$PEXTMIN
 10
1.0000000000000000E+020
 20
1.0000000000000000E+020
 30
1.0000000000000000E+020
  9
$PEXTMAX
 10
-1.0000000000000000E+020
 20
-1.0000000000000000E+020
 30
-1.0000000000000000E+020
  9
$PLIMMIN
 10
0.0
 20
0.0
  9
$PLIMMAX
 10
12.0
 20
9.0
  9
$UNITMODE
 70
     0
  9
$VISRETAIN
 70
     1
  9
$PLINEGEN
 70
     0
  9
$PSLTSCALE
 70
     1
  0
ENDSEC
  0
SECTION
  2
TABLES
  0
TABLE
  2
VPORT
 70
     2
  0
VPORT
  2
*ACTIVE
 70
     0
 10
0.0
 20
0.0
 11
1.0
 21
1.0
 12
-81.557800117998099
 22
112.3187130613005
 13
0.0
 23
0.0
 14
1.0
 24
1.0
 15
0.0
 25
0.0
 16
0.0
 26
0.0
 36
1.0
 17
0.0
 27
0.0
 37
0.0
 40
9.0000001558390732
 41
2.4144144144144142
 42
50.0
 43
0.0
 44
0.0
 50
0.0
 51
0.0
 71
     0
 72
   100
 73
     1
 74
     1
 75
     0
 76
     0
 77
     0
 78
     0
  0
ENDTAB
  0
TABLE
  2
LTYPE
 70
     9
  0
LTYPE
  2
CONTINUOUS
 70
     0
  3
Solid line
 72
    65
 73
     0
 40
0.0
  0
LTYPE
  2
BORDER
 70
     0
  3
__ __ . __ __ .
 72
    65
 73
     6
 40
15.7197074751136
 49
4.4913449928896014
 49
-2.2456724964447998
 49
4.4913449928896014
 49
-2.2456724964447998
 49
0.0
 49
-2.2456724964447998
  0
LTYPE
  2
CENTER
 70
     0
  3
____ _ ____ _
 72
    65
 73
     4
 40
17.965379971558409
 49
11.228362482224
 49
-2.2456724964447998
 49
2.2456724964447998
 49
-2.2456724964447998
  0
LTYPE
  2
DASHDOT
 70
     0
  3
__ . __ . __ .
 72
    65
 73
     4
 40
8.9826899857792029
 49
4.4913449928896014
 49
-2.2456724964447998
 49
0.0
 49
-2.2456724964447998
  0
LTYPE
  2
DASHED
 70
     0
  3
__ __ __ __ __
 72
    65
 73
     2
 40
6.7370174893344021
 49
4.4913449928896014
 49
-2.2456724964447998
  0
LTYPE
  2
DIVIDE
 70
     0
  3
__ . . __ . . 
 72
    65
 73
     6
 40
11.228362482224
 49
4.4913449928896014
 49
-2.2456724964447998
 49
0.0
 49
-2.2456724964447998
 49
0.0
 49
-2.2456724964447998
  0
LTYPE
  2
DOT
 70
     0
  3
..............
 72
    65
 73
     4
 40
4.4913449928896014
 49
0.0
 49
-2.2456724964447998
 49
0.0
 49
-2.2456724964447998
  0
LTYPE
  2
HIDDEN
 70
     0
  3
_ _ _ _ _ _ _
 72
    65
 73
     2
 40
3.3685087446672011
 49
2.2456724964447998
 49
-1.122836248222399
  0
LTYPE
  2
PHANTOM
 70
     0
  3
_____ _ _ _____ _ _ 
 72
    65
 73
     6
 40
22.456724964448011
 49
11.228362482224
 49
-2.2456724964447998
 49
2.2456724964447998
 49
-2.2456724964447998
 49
2.2456724964447998
 49
-2.2456724964447998
  0
ENDTAB
  0
TABLE
  2
LAYER
 70
     2
  0
LAYER
  2
0
 70
     0
 62
     7
  6
CONTINUOUS
  0
LAYER
  2
1
 70
     0
 62
     7
  6
CONTINUOUS
  0
ENDTAB
  0
TABLE
  2
STYLE
 70
     4
  0
STYLE
  2
STANDARD
 70
     0
 40
0.0
 41
1.0
 50
0.0
 71
     0
 42
3.5
  3
txt
  4

  0
STYLE
  2
SIMPLEX
 70
     0
 40
0.0
 41
1.0
 50
0.0
 71
     0
 42
3.5
  3
simplex
  4

  0
STYLE
  2
COMPLEX
 70
     0
 40
0.0
 41
1.0
 50
0.0
 71
     0
 42
3.5
  3
complex
  4

  0
STYLE
  2
ITALIC
 70
     0
 40
0.0
 41
1.0
 50
0.0
 71
     0
 42
3.5
  3
italic
  4

  0
ENDTAB
  0
TABLE
  2
VIEW
 70
     0
  0
ENDTAB
  0
TABLE
  2
UCS
 70
     0
  0
ENDTAB
  0
TABLE
  2
APPID
 70
     1
  0
APPID
  2
ACAD
 70
     0
  0
ENDTAB
  0
TABLE
  2
DIMSTYLE
 70
     1
  0
DIMSTYLE
  2
STANDARD
 70
     0
  3

  4

  5

  6

  7

 40
1.0
 41
0.18
 42
0.0625
 43
0.38
 44
0.18
 45
0.0
 46
0.0
 47
0.0
 48
0.0
140
0.18
141
0.09
142
0.0
143
25.399999999999999
144
1.0
145
0.0
146
1.0
147
0.09
 71
     0
 72
     0
 73
     1
 74
     1
 75
     0
 76
     0
 77
     0
 78
     0
170
     0
171
     2
172
     0
173
     0
174
     0
175
     0
176
     0
177
     0
178
     0
  0
ENDTAB
  0
ENDSEC
  0
SECTION
  2
BLOCKS
  0
BLOCK
  8
0
  2
$MODEL_SPACE
 70
     0
 10
0.0
 20
0.0
 30
0.0
  3
$MODEL_SPACE
  1

  0
ENDBLK
  5
20
  8
0
  0
BLOCK
 67
     1
  8
0
  2
$PAPER_SPACE
 70
     0
 10
0.0
 20
0.0
 30
0.0
  3
$PAPER_SPACE
  1

  0
ENDBLK
  5
1C
 67
     1
  8
0
  0
ENDSEC
  0
SECTION
  2
ENTITIES
  0
LINE
  5
33
  8
1
 62
     7
 10
-110.0
 20
-56.5
 30
0.0
 11
-118.2
 21
-56.5
 31
0.0
  0
LINE
  5
34
  8
1
 62
     3
 10
-110.0
 20
-55.700000000000003
 30
0.0
 11
-119.0
 21
-55.700000000000003
 31
0.0
  0
LINE
  5
35
  8
1
 62
     3
 10
-110.0
 20
-52.299999999999997
 30
0.0
 11
-119.0
 21
-52.299999999999997
 31
0.0
  0
LINE
  5
36
  8
1
 62
     7
 10
-110.0
 20
-51.5
 30
0.0
 11
-110.0
 21
-56.5
 31
0.0
  0
LINE
  5
37
  8
1
 62
     7
 10
-110.0
 20
-51.5
 30
0.0
 11
-118.2
 21
-51.5
 31
0.0
  0
LINE
  5
38
  8
1
  6
DASHDOT
 62
     3
 10
159.15223413328781
 20
5.3886182412908852
 30
0.0
 11
159.15223413328781
 21
-5.3886182412909127
 31
0.0
  0
LINE
  5
39
  8
1
  6
DASHDOT
 62
     3
 10
164.54085237457861
 20
0.0
 30
0.0
 11
153.76361589199681
 21
0.0
 31
0.0
  0
LINE
  5
3A
  8
1
  6
DASHDOT
 62
     3
 10
159.15223413328781
 20
17.538045709378991
 30
0.0
 11
159.15223413328781
 21
10.477412993096991
 31
0.0
  0
LINE
  5
3B
  8
1
  6
DASHDOT
 62
     3
 10
167.25099422527271
 20
0.0
 30
0.0
 11
176.0232954788336
 21
0.0
 31
0.0
  0
LINE
  5
3C
  8
1
  6
DASHDOT
 62
     3
 10
159.15223413328781
 20
-47.328956697114009
 30
0.0
 11
159.15223413328781
 21
-61.877380545674001
 31
0.0
  0
LINE
  5
3D
  8
1
 62
     7
 10
-97.200000000000003
 20
50.849999999999987
 30
0.0
 11
-104.2999999999999
 21
50.849999999999987
 31
0.0
  0
LINE
  5
3E
  8
1
 62
     7
 10
-92.599999999999994
 20
57.150000000000013
 30
0.0
 11
-90.400000000000006
 21
57.150000000000013
 31
0.0
  0
LINE
  5
3F
  8
1
 62
     3
 10
-115.0
 20
0.0
 30
0.0
 11
-110.0
 21
0.0
 31
0.0
  0
LINE
  5
40
  8
1
 62
     3
 10
-60.899999999999991
 20
0.0
 30
0.0
 11
-56.0
 21
0.0
 31
0.0
  0
LINE
  5
41
  8
1
 62
     7
 10
-64.100000000000023
 20
-48.0
 30
0.0
 11
-64.100000000000023
 21
59.5
 31
0.0
  0
LINE
  5
42
  8
1
 62
     7
 10
-92.599999999999994
 20
-48.5
 30
0.0
 11
-92.599999999999994
 21
60.0
 31
0.0
  0
LINE
  5
43
  8
1
 62
     7
 10
-97.200000000000003
 20
60.0
 30
0.0
 11
-92.599999999999994
 21
60.0
 31
0.0
  0
LINE
  5
44
  8
1
 62
     7
 10
-97.200000000000003
 20
60.0
 30
0.0
 11
-97.200000000000003
 21
-48.5
 31
0.0
  0
LINE
  5
45
  8
1
 62
     7
 10
-72.90000000000002
 20
47.5
 30
0.0
 11
-72.90000000000002
 21
51.5
 31
0.0
  0
LINE
  5
46
  8
1
 62
     7
 10
-70.90000000000002
 20
51.5
 30
0.0
 11
-70.90000000000002
 21
47.5
 31
0.0
  0
LINE
  5
47
  8
1
 62
     7
 10
-85.800000000000026
 20
56.5
 30
0.0
 11
-68.100000000000023
 21
56.5
 31
0.0
  0
LINE
  5
48
  8
1
 62
     7
 10
-72.90000000000002
 20
56.5
 30
0.0
 11
-72.90000000000002
 21
70.0
 31
0.0
  0
LINE
  5
49
  8
1
 62
     7
 10
-70.90000000000002
 20
70.0
 30
0.0
 11
-70.90000000000002
 21
56.5
 31
0.0
  0
LINE
  5
4A
  8
1
 62
     7
 10
-72.90000000000002
 20
70.0
 30
0.0
 11
-70.90000000000002
 21
70.0
 31
0.0
  0
LINE
  5
4B
  8
1
 62
     7
 10
-72.300000000000026
 20
70.0
 30
0.0
 11
-72.300000000000026
 21
73.0
 31
0.0
  0
LINE
  5
4C
  8
1
 62
     7
 10
-72.100000000000023
 20
73.0
 30
0.0
 11
-72.100000000000023
 21
70.0
 31
0.0
  0
LINE
  5
4D
  8
1
 62
     7
 10
-71.90000000000002
 20
70.0
 30
0.0
 11
-71.90000000000002
 21
73.0
 31
0.0
  0
LINE
  5
4E
  8
1
 62
     7
 10
-71.700000000000017
 20
73.0
 30
0.0
 11
-71.700000000000017
 21
70.0
 31
0.0
  0
LINE
  5
4F
  8
1
 62
     7
 10
-71.500000000000028
 20
73.0
 30
0.0
 11
-71.500000000000028
 21
70.0
 31
0.0
  0
LINE
  5
50
  8
1
 62
     7
 10
-110.0
 20
59.5
 30
0.0
 11
-110.0
 21
-51.5
 31
0.0
  0
LINE
  5
51
  8
1
  6
DASHDOT
 62
     3
 10
-122.1899853263217
 20
-54.0
 30
0.0
 11
-95.055020996818712
 21
-54.0
 31
0.0
  0
LINE
  5
52
  8
1
 62
     7
 10
-118.2
 20
-51.5
 30
0.0
 11
-118.2
 21
-56.5
 31
0.0
  0
LINE
  5
53
  8
1
 62
     7
 10
-119.0
 20
-55.700000000000003
 30
0.0
 11
-118.2
 21
-56.5
 31
0.0
  0
LINE
  5
54
  8
1
 62
     7
 10
-119.0
 20
-52.299999999999997
 30
0.0
 11
-119.0
 21
-55.700000000000003
 31
0.0
  0
LINE
  5
55
  8
1
 62
     7
 10
-118.2
 20
-51.5
 30
0.0
 11
-119.0
 21
-52.299999999999997
 31
0.0
  0
LINE
  5
56
  8
1
 62
     7
 10
-98.299999999999997
 20
-58.25
 30
0.0
 11
-98.299999999999997
 21
-49.75
 31
0.0
  0
LINE
  5
57
  8
1
 62
     7
 10
-98.299999999999997
 20
-58.25
 30
0.0
 11
-103.0
 21
-58.25
 31
0.0
  0
LINE
  5
58
  8
1
 62
     7
 10
-98.0
 20
-57.730384757729297
 30
0.0
 11
-98.299999999999997
 21
-58.25
 31
0.0
  0
LINE
  5
59
  8
1
 62
     7
 10
-98.0
 20
-50.269615242270604
 30
0.0
 11
-98.0
 21
-57.730384757729297
 31
0.0
  0
LINE
  5
5A
  8
1
 62
     7
 10
-98.299999999999997
 20
-49.75
 30
0.0
 11
-98.0
 21
-50.269615242270604
 31
0.0
  0
LINE
  5
5B
  8
1
 62
     7
 10
-103.0
 20
-49.75
 30
0.0
 11
-98.299999999999997
 21
-49.75
 31
0.0
  0
LINE
  5
5C
  8
1
 62
     7
 10
-103.0
 20
-54.0
 30
0.0
 11
-104.2999999999999
 21
-55.299999999999997
 31
0.0
  0
LINE
  5
5D
  8
1
 62
     7
 10
-103.0
 20
-52.700000000000003
 30
0.0
 11
-104.2999999999999
 21
-54.0
 31
0.0
  0
LINE
  5
5E
  8
1
 62
     7
 10
-103.0
 20
-58.600000000000009
 30
0.0
 11
-104.2999999999999
 21
-58.600000000000009
 31
0.0
  0
LINE
  5
5F
  8
1
 62
     7
 10
-103.0
 20
-49.400000000000013
 30
0.0
 11
-103.0
 21
-58.600000000000009
 31
0.0
  0
LINE
  5
60
  8
1
 62
     7
 10
-104.2999999999999
 20
-49.400000000000013
 30
0.0
 11
-103.0
 21
-49.400000000000013
 31
0.0
  0
LINE
  5
61
  8
1
 62
     3
 10
-85.800000000000026
 20
52.300000000000011
 30
0.0
 11
-68.100000000000023
 21
52.300000000000011
 31
0.0
  0
LINE
  5
62
  8
1
 62
     3
 10
-85.800000000000026
 20
55.699999999999989
 30
0.0
 11
-68.100000000000023
 21
55.699999999999989
 31
0.0
  0
LINE
  5
63
  8
1
 62
     7
 10
-68.100000000000023
 20
51.5
 30
0.0
 11
-85.800000000000026
 21
51.5
 31
0.0
  0
LINE
  5
64
  8
1
 62
     3
 10
-56.300000000000011
 20
52.300000000000011
 30
0.0
 11
-54.5
 21
52.300000000000011
 31
0.0
  0
LINE
  5
65
  8
1
 62
     3
 10
-56.300000000000011
 20
55.699999999999989
 30
0.0
 11
-54.5
 21
55.699999999999989
 31
0.0
  0
LINE
  5
66
  8
1
 62
     7
 10
-68.100000000000023
 20
57.465000000000011
 30
0.0
 11
-68.100000000000023
 21
50.534999999999989
 31
0.0
  0
LINE
  5
67
  8
1
 62
     7
 10
-64.100000000000023
 20
56.310000000000002
 30
0.0
 11
-67.796576409519105
 21
56.310000000000002
 31
0.0
  0
LINE
  5
68
  8
1
 62
     7
 10
-64.100000000000023
 20
51.689999999999998
 30
0.0
 11
-67.796576409519105
 21
51.689999999999998
 31
0.0
  0
LINE
  5
69
  8
1
 62
     7
 10
-64.100000000000023
 20
49.380000000000003
 30
0.0
 11
-67.796576409519105
 21
49.380000000000003
 31
0.0
  0
LINE
  5
6A
  8
1
 62
     7
 10
-64.100000000000023
 20
58.619999999999997
 30
0.0
 11
-67.796576409519105
 21
58.619999999999997
 31
0.0
  0
LINE
  5
6B
  8
1
 62
     7
 10
-55.300000000000011
 20
51.5
 30
0.0
 11
-55.300000000000011
 21
56.5
 31
0.0
  0
LINE
  5
6C
  8
1
 62
     7
 10
-55.300000000000011
 20
56.5
 30
0.0
 11
-56.300000000000011
 21
56.5
 31
0.0
  0
LINE
  5
6D
  8
1
 62
     7
 10
-54.5
 20
55.699999999999989
 30
0.0
 11
-55.300000000000011
 21
56.5
 31
0.0
  0
LINE
  5
6E
  8
1
 62
     7
 10
-54.5
 20
52.300000000000011
 30
0.0
 11
-54.5
 21
55.699999999999989
 31
0.0
  0
LINE
  5
6F
  8
1
 62
     7
 10
-55.300000000000011
 20
51.5
 30
0.0
 11
-54.5
 21
52.300000000000011
 31
0.0
  0
LINE
  5
70
  8
1
 62
     7
 10
-55.300000000000011
 20
51.5
 30
0.0
 11
-56.300000000000011
 21
51.5
 31
0.0
  0
LINE
  5
71
  8
1
 62
     7
 10
-110.0
 20
-56.5
 30
0.0
 11
-110.0
 21
-59.5
 31
0.0
  0
LINE
  5
72
  8
1
 62
     7
 10
-57.603423590480901
 20
58.619999999999997
 30
0.0
 11
-60.899999999999991
 21
58.619999999999997
 31
0.0
  0
LINE
  5
73
  8
1
 62
     7
 10
-57.603423590480901
 20
49.380000000000003
 30
0.0
 11
-60.899999999999991
 21
49.380000000000003
 31
0.0
  0
LINE
  5
74
  8
1
 62
     7
 10
-57.603423590480901
 20
51.689999999999998
 30
0.0
 11
-60.899999999999991
 21
51.689999999999998
 31
0.0
  0
LINE
  5
75
  8
1
 62
     7
 10
-57.603423590480901
 20
56.310000000000002
 30
0.0
 11
-60.899999999999991
 21
56.310000000000002
 31
0.0
  0
LINE
  5
76
  8
1
 62
     7
 10
-57.300000000000011
 20
50.534999999999989
 30
0.0
 11
-57.300000000000011
 21
57.465000000000011
 31
0.0
  0
LINE
  5
77
  8
1
 62
     7
 10
-57.361709153101309
 20
58.0
 30
0.0
 11
-57.300000000000011
 21
58.0
 31
0.0
  0
LINE
  5
78
  8
1
 62
     7
 10
-56.300000000000011
 20
51.0
 30
0.0
 11
-56.300000000000011
 21
57.0
 31
0.0
  0
LINE
  5
79
  8
1
 62
     7
 10
-57.361709153101309
 20
50.0
 30
0.0
 11
-57.300000000000011
 21
50.0
 31
0.0
  0
LINE
  5
7A
  8
1
 62
     7
 10
-87.103423590480915
 20
58.619999999999997
 30
0.0
 11
-90.400000000000006
 21
58.619999999999997
 31
0.0
  0
LINE
  5
7B
  8
1
 62
     7
 10
-87.103423590480915
 20
49.380000000000003
 30
0.0
 11
-90.400000000000006
 21
49.380000000000003
 31
0.0
  0
LINE
  5
7C
  8
1
 62
     7
 10
-87.103423590480915
 20
51.689999999999998
 30
0.0
 11
-90.400000000000006
 21
51.689999999999998
 31
0.0
  0
LINE
  5
7D
  8
1
 62
     7
 10
-87.103423590480915
 20
56.310000000000002
 30
0.0
 11
-90.400000000000006
 21
56.310000000000002
 31
0.0
  0
LINE
  5
7E
  8
1
 62
     7
 10
-86.800000000000026
 20
50.534999999999989
 30
0.0
 11
-86.800000000000026
 21
57.465000000000011
 31
0.0
  0
LINE
  5
7F
  8
1
 62
     7
 10
-90.400000000000006
 20
58.619999999999997
 30
0.0
 11
-90.400000000000006
 21
49.380000000000003
 31
0.0
  0
LINE
  5
80
  8
1
 62
     7
 10
-86.861709153101415
 20
58.0
 30
0.0
 11
-86.800000000000026
 21
58.0
 31
0.0
  0
LINE
  5
81
  8
1
 62
     7
 10
-85.800000000000026
 20
51.0
 30
0.0
 11
-85.800000000000026
 21
57.0
 31
0.0
  0
LINE
  5
82
  8
1
 62
     7
 10
-86.861709153101415
 20
50.0
 30
0.0
 11
-86.800000000000026
 21
50.0
 31
0.0
  0
LINE
  5
83
  8
1
 62
     7
 10
-90.400000000000006
 20
50.849999999999987
 30
0.0
 11
-92.599999999999994
 21
50.849999999999987
 31
0.0
  0
LINE
  5
84
  8
1
 62
     7
 10
-104.2999999999999
 20
57.150000000000013
 30
0.0
 11
-97.200000000000003
 21
57.150000000000013
 31
0.0
  0
LINE
  5
85
  8
1
 62
     7
 10
-104.2999999999999
 20
-47.5
 30
0.0
 11
-97.200000000000003
 21
-47.5
 31
0.0
  0
LINE
  5
86
  8
1
 62
     7
 10
-104.2999999999999
 20
47.5
 30
0.0
 11
-97.200000000000003
 21
47.5
 31
0.0
  0
LINE
  5
87
  8
1
 62
     7
 10
-104.2999999999999
 20
59.5
 30
0.0
 11
-104.2999999999999
 21
-59.5
 31
0.0
  0
LINE
  5
88
  8
1
 62
     7
 10
-97.200000000000003
 20
-48.5
 30
0.0
 11
-92.599999999999994
 21
-48.5
 31
0.0
  0
LINE
  5
89
  8
1
 62
     7
 10
-109.4999999999999
 20
60.0
 30
0.0
 11
-104.8
 21
60.0
 31
0.0
  0
LINE
  5
8A
  8
1
 62
     7
 10
-104.8
 20
-60.0
 30
0.0
 11
-109.4999999999999
 21
-60.0
 31
0.0
  0
LINE
  5
8B
  8
1
 62
     7
 10
-60.899999999999991
 20
59.5
 30
0.0
 11
-60.899999999999991
 21
-48.0
 31
0.0
  0
LINE
  5
8C
  8
1
 62
     7
 10
-92.099999999999994
 20
-47.5
 30
0.0
 11
-92.099999999999994
 21
47.5
 31
0.0
  0
LINE
  5
8D
  8
1
 62
     7
 10
-63.600000000000023
 20
60.0
 30
0.0
 11
-61.399999999999999
 21
60.0
 31
0.0
  0
LINE
  5
8E
  8
1
 62
     7
 10
-61.399999999999999
 20
-48.5
 30
0.0
 11
-63.600000000000023
 21
-48.5
 31
0.0
  0
LINE
  5
8F
  8
1
 62
     7
 10
-92.099999999999994
 20
47.5
 30
0.0
 11
-67.100000000000023
 21
47.5
 31
0.0
  0
LINE
  5
90
  8
1
 62
     7
 10
-92.099999999999994
 20
-47.5
 30
0.0
 11
-67.100000000000023
 21
-47.5
 31
0.0
  0
LINE
  5
91
  8
1
 62
     7
 10
-109.4999999999999
 20
60.0
 30
0.0
 11
-110.0
 21
59.5
 31
0.0
  0
LINE
  5
92
  8
1
 62
     7
 10
-104.8
 20
60.0
 30
0.0
 11
-104.2999999999999
 21
59.5
 31
0.0
  0
LINE
  5
93
  8
1
 62
     7
 10
-63.600000000000023
 20
60.0
 30
0.0
 11
-64.100000000000023
 21
59.5
 31
0.0
  0
LINE
  5
94
  8
1
 62
     7
 10
-61.399999999999999
 20
60.0
 30
0.0
 11
-60.899999999999991
 21
59.5
 31
0.0
  0
LINE
  5
95
  8
1
 62
     7
 10
-61.399999999999999
 20
-48.5
 30
0.0
 11
-60.899999999999991
 21
-48.0
 31
0.0
  0
LINE
  5
96
  8
1
 62
     7
 10
-63.600000000000023
 20
-48.5
 30
0.0
 11
-64.100000000000023
 21
-48.0
 31
0.0
  0
LINE
  5
97
  8
1
 62
     7
 10
-104.8
 20
-60.0
 30
0.0
 11
-104.2999999999999
 21
-59.5
 31
0.0
  0
LINE
  5
98
  8
1
 62
     7
 10
-109.4999999999999
 20
-60.0
 30
0.0
 11
-110.0
 21
-59.5
 31
0.0
  0
LINE
  5
99
  8
1
 62
     7
 10
17.399999999999981
 20
-16.0
 30
0.0
 11
17.399999999999981
 21
-48.5
 31
0.0
  0
LINE
  5
9A
  8
1
 62
     7
 10
17.899999999999981
 20
16.0
 30
0.0
 11
17.899999999999981
 21
47.5
 31
0.0
  0
LINE
  5
9B
  8
1
  6
DASHDOT
 62
     3
 10
18.746148522474691
 20
0.0
 30
0.0
 11
25.165976214258681
 21
0.0
 31
0.0
  0
LINE
  5
9C
  8
1
 62
     3
 10
-5.0
 20
0.0
 30
0.0
 11
0.0
 21
0.0
 31
0.0
  0
LINE
  5
9D
  8
1
 62
     3
 10
49.100000000000001
 20
0.0
 30
0.0
 11
54.100000000000001
 21
0.0
 31
0.0
  0
LINE
  5
9E
  8
1
  6
DASHDOT
 62
     3
 10
22.0
 20
-2.9976870203589949
 30
0.0
 11
22.0
 21
2.8954447913430088
 31
0.0
  0
LINE
  5
9F
  8
1
 62
     7
 10
29.0
 20
-9.5000000000001137
 30
0.0
 11
4.0
 21
-9.5000000000001137
 31
0.0
  0
LINE
  5
A0
  8
1
 62
     7
 10
29.0
 20
-15.50000000000011
 30
0.0
 11
28.5
 21
-16.00000000000011
 31
0.0
  0
LINE
  5
A1
  8
1
 62
     7
 10
28.5
 20
-16.00000000000011
 30
0.0
 11
14.0
 21
-16.00000000000011
 31
0.0
  0
LINE
  5
A2
  8
1
 62
     7
 10
14.0
 20
-20.75000000000011
 30
0.0
 11
4.0
 21
-20.75000000000011
 31
0.0
  0
LINE
  5
A3
  8
1
 62
     7
 10
14.0
 20
-23.000000000000099
 30
0.0
 11
14.0
 21
-16.00000000000011
 31
0.0
  0
LINE
  5
A4
  8
1
 62
     7
 10
14.0
 20
-23.000000000000099
 30
0.0
 11
13.5
 21
-23.50000000000011
 31
0.0
  0
LINE
  5
A5
  8
1
 62
     7
 10
4.5
 20
-23.50000000000011
 30
0.0
 11
13.5
 21
-23.50000000000011
 31
0.0
  0
LINE
  5
A6
  8
1
 62
     7
 10
4.0
 20
-23.000000000000099
 30
0.0
 11
4.5
 21
-23.50000000000011
 31
0.0
  0
LINE
  5
A7
  8
1
 62
     7
 10
4.0
 20
-23.000000000000099
 30
0.0
 11
4.0
 21
23.0
 31
0.0
  0
LINE
  5
A8
  8
1
 62
     7
 10
12.099999999999991
 20
-30.0
 30
0.0
 11
12.099999999999991
 21
-20.75
 31
0.0
  0
LINE
  5
A9
  8
1
 62
     7
 10
45.900000000000013
 20
-48.0
 30
0.0
 11
45.900000000000013
 21
59.5
 31
0.0
  0
LINE
  5
AA
  8
1
 62
     7
 10
44.599999999999987
 20
27.0
 30
0.0
 11
44.599999999999987
 21
-27.0
 31
0.0
  0
LINE
  5
AB
  8
1
 62
     7
 10
12.799999999999979
 20
-48.5
 30
0.0
 11
12.799999999999979
 21
-23.5
 31
0.0
  0
LINE
  5
AC
  8
1
 62
     7
 10
12.799999999999979
 20
-25.5
 30
0.0
 11
17.399999999999981
 21
-25.5
 31
0.0
  0
LINE
  5
AD
  8
1
 62
     7
 10
12.799999999999979
 20
25.5
 30
0.0
 11
17.399999999999981
 21
25.5
 31
0.0
  0
LINE
  5
AE
  8
1
 62
     7
 10
17.399999999999981
 20
50.849999999999987
 30
0.0
 11
17.399999999999981
 21
16.0
 31
0.0
  0
LINE
  5
AF
  8
1
 62
     7
 10
12.099999999999991
 20
-30.0
 30
0.0
 11
12.799999999999979
 21
-30.0
 31
0.0
  0
LINE
  5
B0
  8
1
 62
     7
 10
12.799999999999979
 20
50.849999999999987
 30
0.0
 11
12.799999999999979
 21
23.5
 31
0.0
  0
LINE
  5
B1
  8
1
 62
     7
 10
12.799999999999979
 20
60.0
 30
0.0
 11
17.399999999999981
 21
60.0
 31
0.0
  0
LINE
  5
B2
  8
1
 62
     7
 10
12.799999999999979
 20
60.0
 30
0.0
 11
12.799999999999979
 21
57.150000000000013
 31
0.0
  0
LINE
  5
B3
  8
1
 62
     7
 10
129.99604553921171
 20
46.5
 30
0.0
 11
117.0374601083594
 21
68.944928360457993
 31
0.0
  0
LINE
  5
B4
  8
1
 62
     7
 10
131.15074607759081
 20
48.5
 30
0.0
 11
118.76951091592819
 21
69.944928360457993
 31
0.0
  0
LINE
  5
B5
  8
1
 62
     7
 10
132.30544661597
 20
50.499999999999901
 30
0.0
 11
120.5015617234971
 21
70.944928360457979
 31
0.0
  0
LINE
  5
B6
  8
1
 62
     7
 10
37.100000000000001
 20
47.5
 30
0.0
 11
37.100000000000001
 21
51.5
 31
0.0
  0
LINE
  5
B7
  8
1
 62
     7
 10
39.100000000000001
 20
51.5
 30
0.0
 11
39.100000000000001
 21
47.5
 31
0.0
  0
LINE
  5
B8
  8
1
 62
     7
 10
24.199999999999989
 20
56.5
 30
0.0
 11
41.89999999999997
 21
56.5
 31
0.0
  0
LINE
  5
B9
  8
1
 62
     7
 10
37.100000000000001
 20
56.5
 30
0.0
 11
37.100000000000001
 21
70.0
 31
0.0
  0
LINE
  5
BA
  8
1
 62
     7
 10
39.100000000000001
 20
70.0
 30
0.0
 11
39.100000000000001
 21
56.5
 31
0.0
  0
LINE
  5
BB
  8
1
 62
     7
 10
37.100000000000001
 20
70.0
 30
0.0
 11
39.100000000000001
 21
70.0
 31
0.0
  0
LINE
  5
BC
  8
1
 62
     7
 10
37.699999999999989
 20
70.0
 30
0.0
 11
37.699999999999989
 21
73.0
 31
0.0
  0
LINE
  5
BD
  8
1
 62
     7
 10
37.89999999999997
 20
73.0
 30
0.0
 11
37.89999999999997
 21
70.0
 31
0.0
  0
LINE
  5
BE
  8
1
 62
     7
 10
38.100000000000001
 20
70.0
 30
0.0
 11
38.100000000000001
 21
73.0
 31
0.0
  0
LINE
  5
BF
  8
1
 62
     7
 10
38.29999999999999
 20
73.0
 30
0.0
 11
38.29999999999999
 21
70.0
 31
0.0
  0
LINE
  5
C0
  8
1
 62
     7
 10
38.499999999999972
 20
73.0
 30
0.0
 11
38.499999999999972
 21
70.0
 31
0.0
  0
LINE
  5
C1
  8
1
  6
DASHDOT
 62
     3
 10
106.26625350028699
 20
30.533735154820299
 30
0.0
 11
117.9847035973135
 21
23.768084836816911
 31
0.0
  0
LINE
  5
C2
  8
1
  6
DASHDOT
 62
     3
 10
199.8901900631169
 20
23.520069822322
 30
0.0
 11
211.97127729448391
 21
30.495088787454979
 31
0.0
  0
LINE
  5
C3
  8
1
 62
     7
 10
110.3868623289279
 20
28.154700538379299
 30
0.0
 11
110.3868623289279
 21
25.845299461620801
 31
0.0
  0
LINE
  5
C4
  8
1
 62
     7
 10
110.3868623289279
 20
25.845299461620801
 30
0.0
 11
112.3868623289279
 21
24.690598923241591
 31
0.0
  0
LINE
  5
C5
  8
1
 62
     7
 10
112.3868623289279
 20
24.690598923241591
 30
0.0
 11
114.3868623289279
 21
25.845299461620801
 31
0.0
  0
LINE
  5
C6
  8
1
 62
     7
 10
114.3868623289279
 20
25.845299461620801
 30
0.0
 11
114.3868623289279
 21
28.154700538379299
 31
0.0
  0
LINE
  5
C7
  8
1
 62
     7
 10
114.3868623289279
 20
28.154700538379299
 30
0.0
 11
112.3868623289279
 21
29.309401076758601
 31
0.0
  0
LINE
  5
C8
  8
1
 62
     7
 10
112.3868623289279
 20
29.309401076758601
 30
0.0
 11
110.3868623289279
 21
28.154700538379299
 31
0.0
  0
LINE
  5
C9
  8
1
 62
     7
 10
207.91760593764749
 20
28.154700538379299
 30
0.0
 11
205.91760593764749
 21
29.30940107675849
 31
0.0
  0
LINE
  5
CA
  8
1
 62
     7
 10
205.91760593764749
 20
29.30940107675849
 30
0.0
 11
203.91760593764749
 21
28.154700538379299
 31
0.0
  0
LINE
  5
CB
  8
1
 62
     7
 10
203.91760593764749
 20
28.154700538379299
 30
0.0
 11
203.91760593764749
 21
25.845299461620801
 31
0.0
  0
LINE
  5
CC
  8
1
 62
     7
 10
203.91760593764749
 20
25.845299461620801
 30
0.0
 11
205.91760593764749
 21
24.69059892324151
 31
0.0
  0
LINE
  5
CD
  8
1
 62
     7
 10
205.91760593764749
 20
24.69059892324151
 30
0.0
 11
207.91760593764749
 21
25.845299461620801
 31
0.0
  0
LINE
  5
CE
  8
1
 62
     7
 10
207.91760593764749
 20
25.845299461620801
 30
0.0
 11
207.91760593764749
 21
28.154700538379299
 31
0.0
  0
LINE
  5
CF
  8
1
 62
     7
 10
117.0374601083594
 20
68.944928360457993
 30
0.0
 11
120.5015617234971
 21
70.944928360457979
 31
0.0
  0
LINE
  5
D0
  8
1
 62
     7
 10
117.55707535063
 20
69.244928360458005
 30
0.0
 11
116.05707535063
 21
71.843004571811292
 31
0.0
  0
LINE
  5
D1
  8
1
 62
     7
 10
116.230280431387
 20
71.943004571811301
 30
0.0
 11
117.730280431387
 21
69.344928360457999
 31
0.0
  0
LINE
  5
D2
  8
1
 62
     7
 10
117.9034855121439
 20
69.444928360457993
 30
0.0
 11
116.4034855121439
 21
72.043004571811309
 31
0.0
  0
LINE
  5
D3
  8
1
 62
     7
 10
116.5766905929007
 20
72.143004571811289
 30
0.0
 11
118.0766905929008
 21
69.544928360457973
 31
0.0
  0
LINE
  5
D4
  8
1
 62
     7
 10
118.2498956736577
 20
69.64492836045801
 30
0.0
 11
116.7498956736576
 21
72.243004571811284
 31
0.0
  0
LINE
  5
D5
  8
1
 62
     7
 10
117.789126158199
 20
72.843004571811292
 30
0.0
 11
119.289126158199
 21
70.244928360458005
 31
0.0
  0
LINE
  5
D6
  8
1
 62
     7
 10
119.4623312389559
 20
70.344928360457985
 30
0.0
 11
117.9623312389558
 21
72.943004571811301
 31
0.0
  0
LINE
  5
D7
  8
1
 62
     7
 10
118.1355363197127
 20
73.043004571811309
 30
0.0
 11
119.6355363197127
 21
70.444928360457965
 31
0.0
  0
LINE
  5
D8
  8
1
 62
     7
 10
119.8087414004697
 20
70.544928360457988
 30
0.0
 11
118.3087414004696
 21
73.143004571811289
 31
0.0
  0
LINE
  5
D9
  8
1
 62
     7
 10
118.4819464812266
 20
73.243004571811298
 30
0.0
 11
119.9819464812265
 21
70.64492836045801
 31
0.0
  0
LINE
  5
DA
  8
1
 62
     7
 10
0.0
 20
-57.0
 30
0.0
 11
5.6999999999999869
 21
-57.0
 31
0.0
  0
LINE
  5
DB
  8
1
 62
     7
 10
0.0
 20
-51.0
 30
0.0
 11
5.6999999999999869
 21
-51.0
 31
0.0
  0
LINE
  5
DC
  8
1
 62
     7
 10
0.0
 20
59.5
 30
0.0
 11
0.0
 21
-51.5
 31
0.0
  0
LINE
  5
DD
  8
1
 62
     7
 10
0.0
 20
34.0
 30
0.0
 11
5.6999999999999869
 21
34.0
 31
0.0
  0
LINE
  5
DE
  8
1
 62
     7
 10
0.0
 20
-34.0
 30
0.0
 11
5.6999999999999869
 21
-34.0
 31
0.0
  0
LINE
  5
DF
  8
1
  6
DASHDOT
 62
     3
 10
-12.189985326321819
 20
-54.0
 30
0.0
 11
14.944979003181279
 21
-54.0
 31
0.0
  0
LINE
  5
E0
  8
1
 62
     7
 10
5.6999999999999869
 20
-56.5
 30
0.0
 11
-8.2000000000000171
 21
-56.5
 31
0.0
  0
LINE
  5
E1
  8
1
 62
     7
 10
5.6999999999999869
 20
-51.5
 30
0.0
 11
-8.2000000000000171
 21
-51.5
 31
0.0
  0
LINE
  5
E2
  8
1
 62
     3
 10
5.6999999999999869
 20
-52.299999999999997
 30
0.0
 11
-9.0
 21
-52.299999999999997
 31
0.0
  0
LINE
  5
E3
  8
1
 62
     3
 10
5.6999999999999869
 20
-55.700000000000003
 30
0.0
 11
-9.0
 21
-55.700000000000003
 31
0.0
  0
LINE
  5
E4
  8
1
 62
     7
 10
-8.2000000000000171
 20
-51.5
 30
0.0
 11
-8.2000000000000171
 21
-56.5
 31
0.0
  0
LINE
  5
E5
  8
1
 62
     7
 10
-9.0
 20
-55.700000000000003
 30
0.0
 11
-8.2000000000000171
 21
-56.5
 31
0.0
  0
LINE
  5
E6
  8
1
 62
     7
 10
-9.0
 20
-52.299999999999997
 30
0.0
 11
-9.0
 21
-55.700000000000003
 31
0.0
  0
LINE
  5
E7
  8
1
 62
     7
 10
-8.2000000000000171
 20
-51.5
 30
0.0
 11
-9.0
 21
-52.299999999999997
 31
0.0
  0
LINE
  5
E8
  8
1
 62
     7
 10
11.69999999999999
 20
-58.25
 30
0.0
 11
11.69999999999999
 21
-49.75
 31
0.0
  0
LINE
  5
E9
  8
1
 62
     7
 10
11.69999999999999
 20
-58.25
 30
0.0
 11
7.0
 21
-58.25
 31
0.0
  0
LINE
  5
EA
  8
1
 62
     7
 10
12.0
 20
-57.730384757729297
 30
0.0
 11
11.69999999999999
 21
-58.25
 31
0.0
  0
LINE
  5
EB
  8
1
 62
     7
 10
12.0
 20
-50.269615242270604
 30
0.0
 11
12.0
 21
-57.730384757729297
 31
0.0
  0
LINE
  5
EC
  8
1
 62
     7
 10
11.69999999999999
 20
-49.75
 30
0.0
 11
12.0
 21
-50.269615242270604
 31
0.0
  0
LINE
  5
ED
  8
1
 62
     7
 10
7.0
 20
-49.75
 30
0.0
 11
11.69999999999999
 21
-49.75
 31
0.0
  0
LINE
  5
EE
  8
1
 62
     7
 10
7.0
 20
-54.0
 30
0.0
 11
5.6999999999999869
 21
-55.299999999999997
 31
0.0
  0
LINE
  5
EF
  8
1
 62
     7
 10
7.0
 20
-52.700000000000003
 30
0.0
 11
5.6999999999999869
 21
-54.0
 31
0.0
  0
LINE
  5
F0
  8
1
 62
     7
 10
7.0
 20
-58.600000000000009
 30
0.0
 11
5.6999999999999869
 21
-58.600000000000009
 31
0.0
  0
LINE
  5
F1
  8
1
 62
     7
 10
7.0
 20
-49.400000000000013
 30
0.0
 11
7.0
 21
-58.600000000000009
 31
0.0
  0
LINE
  5
F2
  8
1
 62
     7
 10
5.6999999999999869
 20
-49.400000000000013
 30
0.0
 11
7.0
 21
-49.400000000000013
 31
0.0
  0
LINE
  5
F3
  8
1
 62
     7
 10
157.15223413328781
 20
-55.154700538379203
 30
0.0
 11
159.15223413328781
 21
-56.309401076758498
 31
0.0
  0
LINE
  5
F4
  8
1
 62
     7
 10
157.15223413328781
 20
-52.845299461620698
 30
0.0
 11
157.15223413328781
 21
-55.154700538379203
 31
0.0
  0
LINE
  5
F5
  8
1
 62
     7
 10
159.15223413328781
 20
-51.690598923241502
 30
0.0
 11
157.15223413328781
 21
-52.845299461620698
 31
0.0
  0
LINE
  5
F6
  8
1
 62
     7
 10
161.15223413328781
 20
-52.845299461620698
 30
0.0
 11
159.15223413328781
 21
-51.690598923241502
 31
0.0
  0
LINE
  5
F7
  8
1
 62
     7
 10
161.15223413328781
 20
-55.154700538379203
 30
0.0
 11
161.15223413328781
 21
-52.845299461620698
 31
0.0
  0
LINE
  5
F8
  8
1
 62
     7
 10
159.15223413328781
 20
-56.309401076758498
 30
0.0
 11
161.15223413328781
 21
-55.154700538379203
 31
0.0
  0
LINE
  5
F9
  8
1
 62
     7
 10
212.5076627157882
 20
-18.437648722137791
 30
0.0
 11
215.77364903949911
 21
-15.171662398426889
 31
0.0
  0
LINE
  5
FA
  8
1
 62
     7
 10
215.77364903949911
 20
-15.171662398426889
 30
0.0
 11
214.5782150766083
 21
-10.71024211182521
 31
0.0
  0
LINE
  5
FB
  8
1
 62
     7
 10
214.5782150766083
 20
-10.71024211182521
 30
0.0
 11
210.11679479000659
 21
-9.5148081489344918
 31
0.0
  0
LINE
  5
FC
  8
1
 62
     7
 10
210.11679479000659
 20
-9.5148081489344918
 30
0.0
 11
206.85080846629569
 21
-12.7807944726454
 31
0.0
  0
LINE
  5
FD
  8
1
 62
     7
 10
206.85080846629569
 20
-12.7807944726454
 30
0.0
 11
208.04624242918649
 21
-17.242214759246991
 31
0.0
  0
LINE
  5
FE
  8
1
 62
     7
 10
208.04624242918649
 20
-17.242214759246991
 30
0.0
 11
210.2769525724874
 21
-17.839931740692411
 31
0.0
  0
LINE
  5
FF
  8
1
 62
     7
 10
210.2769525724874
 20
-17.839931740692411
 30
0.0
 11
212.5076627157882
 21
-18.437648722137791
 31
0.0
  0
LINE
  5
100
  8
1
 62
     7
 10
116.50704766261249
 20
-36.988332221182787
 30
0.0
 11
117.7024816255032
 21
-41.449752507784403
 31
0.0
  0
LINE
  5
101
  8
1
 62
     7
 10
117.7024816255032
 20
-41.449752507784403
 30
0.0
 11
122.1639019121049
 21
-42.645186470675199
 31
0.0
  0
LINE
  5
102
  8
1
 62
     7
 10
122.1639019121049
 20
-42.645186470675199
 30
0.0
 11
125.4298882358158
 21
-39.379200146964301
 31
0.0
  0
LINE
  5
103
  8
1
 62
     7
 10
125.4298882358158
 20
-39.379200146964301
 30
0.0
 11
124.23445427292501
 21
-34.9177798603626
 31
0.0
  0
LINE
  5
104
  8
1
 62
     7
 10
124.23445427292501
 20
-34.9177798603626
 30
0.0
 11
119.7730339863234
 21
-33.722345897471911
 31
0.0
  0
LINE
  5
105
  8
1
 62
     7
 10
119.7730339863234
 20
-33.722345897471911
 30
0.0
 11
118.140040824468
 21
-35.355339059327306
 31
0.0
  0
LINE
  5
106
  8
1
 62
     7
 10
118.140040824468
 20
-35.355339059327306
 30
0.0
 11
116.50704766261249
 21
-36.988332221182787
 31
0.0
  0
LINE
  5
107
  8
1
 62
     7
 10
149.0397090029079
 20
53.195270800019777
 30
0.0
 11
148.44199202146251
 21
55.42598094332061
 31
0.0
  0
LINE
  5
108
  8
1
 62
     7
 10
149.63742598435331
 20
50.96456065671898
 30
0.0
 11
149.0397090029079
 21
53.195270800019777
 31
0.0
  0
LINE
  5
109
  8
1
 62
     7
 10
146.37143966064241
 20
47.698574333008111
 30
0.0
 11
149.63742598435331
 21
50.96456065671898
 31
0.0
  0
LINE
  5
10A
  8
1
 62
     7
 10
141.91001937404059
 20
48.8940082958988
 30
0.0
 11
146.37143966064241
 21
47.698574333008111
 31
0.0
  0
LINE
  5
10B
  8
1
 62
     7
 10
140.71458541115001
 20
53.355428582500402
 30
0.0
 11
141.91001937404059
 21
48.8940082958988
 31
0.0
  0
LINE
  5
10C
  8
1
 62
     7
 10
143.9805717348608
 20
56.621414906211378
 30
0.0
 11
140.71458541115001
 21
53.355428582500402
 31
0.0
  0
LINE
  5
10D
  8
1
 62
     7
 10
148.44199202146251
 20
55.42598094332061
 30
0.0
 11
143.9805717348608
 21
56.621414906211378
 31
0.0
  0
LINE
  5
10E
  8
1
 62
     7
 10
196.14056635447039
 20
-42.645186470675199
 30
0.0
 11
200.60198664107219
 21
-41.449752507784503
 31
0.0
  0
LINE
  5
10F
  8
1
 62
     7
 10
200.60198664107219
 20
-41.449752507784503
 30
0.0
 11
201.79742060396299
 21
-36.988332221182787
 31
0.0
  0
LINE
  5
110
  8
1
 62
     7
 10
201.79742060396299
 20
-36.988332221182787
 30
0.0
 11
198.53143428025189
 21
-33.722345897471911
 31
0.0
  0
LINE
  5
111
  8
1
 62
     7
 10
198.53143428025189
 20
-33.722345897471911
 30
0.0
 11
194.07001399365029
 21
-34.9177798603627
 31
0.0
  0
LINE
  5
112
  8
1
 62
     7
 10
194.07001399365029
 20
-34.9177798603627
 30
0.0
 11
192.87458003075969
 21
-39.379200146964301
 31
0.0
  0
LINE
  5
113
  8
1
 62
     7
 10
192.87458003075969
 20
-39.379200146964301
 30
0.0
 11
194.5075731926151
 21
-41.012193308819789
 31
0.0
  0
LINE
  5
114
  8
1
 62
     7
 10
194.5075731926151
 20
-41.012193308819789
 30
0.0
 11
196.14056635447039
 21
-42.645186470675199
 31
0.0
  0
LINE
  5
115
  8
1
 62
     7
 10
103.7262531899671
 20
-10.71024211182521
 30
0.0
 11
102.53081922707629
 21
-15.1716623984268
 31
0.0
  0
LINE
  5
116
  8
1
 62
     7
 10
102.53081922707629
 20
-15.1716623984268
 30
0.0
 11
105.7968055507872
 21
-18.437648722137791
 31
0.0
  0
LINE
  5
117
  8
1
 62
     7
 10
105.7968055507872
 20
-18.437648722137791
 30
0.0
 11
110.25822583738901
 21
-17.242214759246991
 31
0.0
  0
LINE
  5
118
  8
1
 62
     7
 10
110.25822583738901
 20
-17.242214759246991
 30
0.0
 11
111.45365980027969
 21
-12.7807944726454
 31
0.0
  0
LINE
  5
119
  8
1
 62
     7
 10
111.45365980027969
 20
-12.7807944726454
 30
0.0
 11
108.1876734765687
 21
-9.5148081489344918
 31
0.0
  0
LINE
  5
11A
  8
1
 62
     7
 10
108.1876734765687
 20
-9.5148081489344918
 30
0.0
 11
105.95696333326789
 21
-10.11252513037978
 31
0.0
  0
LINE
  5
11B
  8
1
 62
     7
 10
105.95696333326789
 20
-10.11252513037978
 30
0.0
 11
103.7262531899671
 21
-10.71024211182521
 31
0.0
  0
LINE
  5
11C
  8
1
 62
     7
 10
176.9921658739801
 20
51.12471843919959
 30
0.0
 11
177.58988285542549
 21
53.355428582500402
 31
0.0
  0
LINE
  5
11D
  8
1
 62
     7
 10
176.3944488925346
 20
48.8940082958988
 30
0.0
 11
176.9921658739801
 21
51.12471843919959
 31
0.0
  0
LINE
  5
11E
  8
1
 62
     7
 10
171.933028605933
 20
47.698574333008111
 30
0.0
 11
176.3944488925346
 21
48.8940082958988
 31
0.0
  0
LINE
  5
11F
  8
1
 62
     7
 10
168.6670422822221
 20
50.964560656718902
 30
0.0
 11
171.933028605933
 21
47.698574333008111
 31
0.0
  0
LINE
  5
120
  8
1
 62
     7
 10
169.8624762451129
 20
55.42598094332061
 30
0.0
 11
168.6670422822221
 21
50.964560656718902
 31
0.0
  0
LINE
  5
121
  8
1
 62
     7
 10
174.3238965317145
 20
56.621414906211378
 30
0.0
 11
169.8624762451129
 21
55.42598094332061
 31
0.0
  0
LINE
  5
122
  8
1
 62
     7
 10
177.58988285542549
 20
53.355428582500402
 30
0.0
 11
174.3238965317145
 21
56.621414906211378
 31
0.0
  0
LINE
  5
123
  8
1
 62
     7
 10
134.8117545109225
 20
54.841052613468612
 30
0.0
 11
99.488249588562368
 21
-6.3410526134684897
 31
0.0
  0
LINE
  5
124
  8
1
 62
     7
 10
218.81621867801309
 20
-6.3410526134684897
 30
0.0
 11
183.49271375565289
 21
54.841052613468612
 31
0.0
  0
LINE
  5
125
  8
1
 62
     7
 10
123.82872921092761
 20
-48.5
 30
0.0
 11
194.47573905564781
 21
-48.5
 31
0.0
  0
LINE
  5
126
  8
1
 62
     7
 10
4.0
 20
20.75
 30
0.0
 11
14.0
 21
20.75
 31
0.0
  0
LINE
  5
127
  8
1
 62
     7
 10
14.0
 20
16.0
 30
0.0
 11
28.5
 21
16.0
 31
0.0
  0
LINE
  5
128
  8
1
 62
     7
 10
14.0
 20
16.0
 30
0.0
 11
14.0
 21
23.0
 31
0.0
  0
LINE
  5
129
  8
1
 62
     7
 10
13.5
 20
23.5
 30
0.0
 11
4.5
 21
23.5
 31
0.0
  0
LINE
  5
12A
  8
1
 62
     7
 10
17.399999999999981
 20
57.150000000000013
 30
0.0
 11
17.399999999999981
 21
60.0
 31
0.0
  0
LINE
  5
12B
  8
1
 62
     3
 10
24.199999999999989
 20
52.300000000000011
 30
0.0
 11
41.89999999999997
 21
52.300000000000011
 31
0.0
  0
LINE
  5
12C
  8
1
 62
     3
 10
24.199999999999989
 20
55.699999999999989
 30
0.0
 11
41.89999999999997
 21
55.699999999999989
 31
0.0
  0
LINE
  5
12D
  8
1
 62
     7
 10
41.89999999999997
 20
51.5
 30
0.0
 11
24.199999999999989
 21
51.5
 31
0.0
  0
LINE
  5
12E
  8
1
 62
     3
 10
53.699999999999967
 20
52.300000000000011
 30
0.0
 11
55.5
 21
52.300000000000011
 31
0.0
  0
LINE
  5
12F
  8
1
 62
     3
 10
53.699999999999967
 20
55.699999999999989
 30
0.0
 11
55.5
 21
55.699999999999989
 31
0.0
  0
LINE
  5
130
  8
1
 62
     7
 10
41.89999999999997
 20
57.465000000000011
 30
0.0
 11
41.89999999999997
 21
50.534999999999989
 31
0.0
  0
LINE
  5
131
  8
1
 62
     7
 10
45.900000000000013
 20
56.310000000000002
 30
0.0
 11
42.203423590480902
 21
56.310000000000002
 31
0.0
  0
LINE
  5
132
  8
1
 62
     7
 10
45.900000000000013
 20
51.689999999999998
 30
0.0
 11
42.203423590480902
 21
51.689999999999998
 31
0.0
  0
LINE
  5
133
  8
1
 62
     7
 10
45.900000000000013
 20
49.380000000000003
 30
0.0
 11
42.203423590480902
 21
49.380000000000003
 31
0.0
  0
LINE
  5
134
  8
1
 62
     7
 10
45.900000000000013
 20
58.619999999999997
 30
0.0
 11
42.203423590480902
 21
58.619999999999997
 31
0.0
  0
LINE
  5
135
  8
1
 62
     7
 10
54.699999999999982
 20
51.5
 30
0.0
 11
54.699999999999982
 21
56.5
 31
0.0
  0
LINE
  5
136
  8
1
 62
     7
 10
54.699999999999982
 20
56.5
 30
0.0
 11
53.699999999999967
 21
56.5
 31
0.0
  0
LINE
  5
137
  8
1
 62
     7
 10
55.5
 20
55.699999999999989
 30
0.0
 11
54.699999999999982
 21
56.5
 31
0.0
  0
LINE
  5
138
  8
1
 62
     7
 10
55.5
 20
52.300000000000011
 30
0.0
 11
55.5
 21
55.699999999999989
 31
0.0
  0
LINE
  5
139
  8
1
 62
     7
 10
54.699999999999982
 20
51.5
 30
0.0
 11
55.5
 21
52.300000000000011
 31
0.0
  0
LINE
  5
13A
  8
1
 62
     7
 10
54.699999999999982
 20
51.5
 30
0.0
 11
53.699999999999967
 21
51.5
 31
0.0
  0
LINE
  5
13B
  8
1
 62
     7
 10
0.0
 20
-56.5
 30
0.0
 11
0.0
 21
-59.5
 31
0.0
  0
LINE
  5
13C
  8
1
 62
     7
 10
52.396576409519099
 20
58.619999999999997
 30
0.0
 11
49.100000000000001
 21
58.619999999999997
 31
0.0
  0
LINE
  5
13D
  8
1
 62
     7
 10
52.396576409519099
 20
49.380000000000003
 30
0.0
 11
49.100000000000001
 21
49.380000000000003
 31
0.0
  0
LINE
  5
13E
  8
1
 62
     7
 10
52.396576409519099
 20
51.689999999999998
 30
0.0
 11
49.100000000000001
 21
51.689999999999998
 31
0.0
  0
LINE
  5
13F
  8
1
 62
     7
 10
52.396576409519099
 20
56.310000000000002
 30
0.0
 11
49.100000000000001
 21
56.310000000000002
 31
0.0
  0
LINE
  5
140
  8
1
 62
     7
 10
52.699999999999967
 20
50.534999999999989
 30
0.0
 11
52.699999999999967
 21
57.465000000000011
 31
0.0
  0
LINE
  5
141
  8
1
 62
     7
 10
52.638290846898691
 20
58.0
 30
0.0
 11
52.699999999999967
 21
58.0
 31
0.0
  0
LINE
  5
142
  8
1
 62
     7
 10
53.699999999999967
 20
51.0
 30
0.0
 11
53.699999999999967
 21
57.0
 31
0.0
  0
LINE
  5
143
  8
1
 62
     7
 10
52.638290846898691
 20
50.0
 30
0.0
 11
52.699999999999967
 21
50.0
 31
0.0
  0
LINE
  5
144
  8
1
 62
     7
 10
22.896576409519088
 20
58.619999999999997
 30
0.0
 11
19.59999999999998
 21
58.619999999999997
 31
0.0
  0
LINE
  5
145
  8
1
 62
     7
 10
22.896576409519088
 20
49.380000000000003
 30
0.0
 11
19.59999999999998
 21
49.380000000000003
 31
0.0
  0
LINE
  5
146
  8
1
 62
     7
 10
22.896576409519088
 20
51.689999999999998
 30
0.0
 11
19.59999999999998
 21
51.689999999999998
 31
0.0
  0
LINE
  5
147
  8
1
 62
     7
 10
22.896576409519088
 20
56.310000000000002
 30
0.0
 11
19.59999999999998
 21
56.310000000000002
 31
0.0
  0
LINE
  5
148
  8
1
 62
     7
 10
23.199999999999989
 20
50.534999999999989
 30
0.0
 11
23.199999999999989
 21
57.465000000000011
 31
0.0
  0
LINE
  5
149
  8
1
 62
     7
 10
19.59999999999998
 20
58.619999999999997
 30
0.0
 11
19.59999999999998
 21
49.380000000000003
 31
0.0
  0
LINE
  5
14A
  8
1
 62
     7
 10
23.138290846898599
 20
58.0
 30
0.0
 11
23.199999999999989
 21
58.0
 31
0.0
  0
LINE
  5
14B
  8
1
 62
     7
 10
24.199999999999989
 20
51.0
 30
0.0
 11
24.199999999999989
 21
57.0
 31
0.0
  0
LINE
  5
14C
  8
1
 62
     7
 10
23.138290846898599
 20
50.0
 30
0.0
 11
23.199999999999989
 21
50.0
 31
0.0
  0
LINE
  5
14D
  8
1
 62
     7
 10
19.59999999999998
 20
50.849999999999987
 30
0.0
 11
5.6999999999999869
 21
50.849999999999987
 31
0.0
  0
LINE
  5
14E
  8
1
 62
     7
 10
5.6999999999999869
 20
57.150000000000013
 30
0.0
 11
19.59999999999998
 21
57.150000000000013
 31
0.0
  0
LINE
  5
14F
  8
1
 62
     7
 10
17.899999999999981
 20
-25.5
 30
0.0
 11
44.599999999999987
 21
-25.5
 31
0.0
  0
LINE
  5
150
  8
1
 62
     7
 10
5.6999999999999869
 20
21.25
 30
0.0
 11
12.099999999999991
 21
21.25
 31
0.0
  0
LINE
  5
151
  8
1
 62
     7
 10
5.6999999999999869
 20
24.25
 30
0.0
 11
12.099999999999991
 21
24.25
 31
0.0
  0
LINE
  5
152
  8
1
 62
     7
 10
5.6999999999999869
 20
-24.25
 30
0.0
 11
12.099999999999991
 21
-24.25
 31
0.0
  0
LINE
  5
153
  8
1
 62
     7
 10
5.6999999999999869
 20
-20.75
 30
0.0
 11
5.6999999999999869
 21
-59.5
 31
0.0
  0
LINE
  5
154
  8
1
 62
     7
 10
5.6999999999999869
 20
-21.25
 30
0.0
 11
12.099999999999991
 21
-21.25
 31
0.0
  0
LINE
  5
155
  8
1
 62
     7
 10
5.6999999999999869
 20
-47.5
 30
0.0
 11
12.799999999999979
 21
-47.5
 31
0.0
  0
LINE
  5
156
  8
1
 62
     7
 10
5.6999999999999869
 20
47.5
 30
0.0
 11
12.799999999999979
 21
47.5
 31
0.0
  0
LINE
  5
157
  8
1
 62
     7
 10
5.6999999999999869
 20
59.5
 30
0.0
 11
5.6999999999999869
 21
20.75
 31
0.0
  0
LINE
  5
158
  8
1
 62
     7
 10
12.799999999999979
 20
-48.5
 30
0.0
 11
17.399999999999981
 21
-48.5
 31
0.0
  0
LINE
  5
159
  8
1
 62
     7
 10
0.5
 20
60.0
 30
0.0
 11
5.1999999999999869
 21
60.0
 31
0.0
  0
LINE
  5
15A
  8
1
 62
     7
 10
5.1999999999999869
 20
-60.0
 30
0.0
 11
0.5
 21
-60.0
 31
0.0
  0
LINE
  5
15B
  8
1
 62
     7
 10
49.100000000000001
 20
59.5
 30
0.0
 11
49.100000000000001
 21
-48.0
 31
0.0
  0
LINE
  5
15C
  8
1
 62
     7
 10
45.900000000000013
 20
-20.0
 30
0.0
 11
49.100000000000001
 21
-20.0
 31
0.0
  0
LINE
  5
15D
  8
1
 62
     7
 10
45.900000000000013
 20
20.0
 30
0.0
 11
49.100000000000001
 21
20.0
 31
0.0
  0
LINE
  5
15E
  8
1
 62
     7
 10
44.599999999999987
 20
-27.0
 30
0.0
 11
45.900000000000013
 21
-27.0
 31
0.0
  0
LINE
  5
15F
  8
1
 62
     7
 10
44.599999999999987
 20
27.0
 30
0.0
 11
45.900000000000013
 21
27.0
 31
0.0
  0
LINE
  5
160
  8
1
 62
     7
 10
17.899999999999981
 20
-47.5
 30
0.0
 11
17.899999999999981
 21
-16.0
 31
0.0
  0
LINE
  5
161
  8
1
 62
     7
 10
17.899999999999981
 20
25.5
 30
0.0
 11
44.599999999999987
 21
25.5
 31
0.0
  0
LINE
  5
162
  8
1
 62
     7
 10
46.400000000000013
 20
60.0
 30
0.0
 11
48.600000000000001
 21
60.0
 31
0.0
  0
LINE
  5
163
  8
1
 62
     7
 10
48.600000000000001
 20
-48.5
 30
0.0
 11
46.400000000000013
 21
-48.5
 31
0.0
  0
LINE
  5
164
  8
1
 62
     7
 10
17.899999999999981
 20
47.5
 30
0.0
 11
42.90000000000002
 21
47.5
 31
0.0
  0
LINE
  5
165
  8
1
 62
     7
 10
17.899999999999981
 20
-47.5
 30
0.0
 11
42.90000000000002
 21
-47.5
 31
0.0
  0
LINE
  5
166
  8
1
 62
     7
 10
161.65223413328781
 20
9.1651513899116992
 30
0.0
 11
161.65223413328781
 21
11.5
 31
0.0
  0
LINE
  5
167
  8
1
 62
     7
 10
161.65223413328781
 20
11.5
 30
0.0
 11
156.65223413328781
 21
11.5
 31
0.0
  0
LINE
  5
168
  8
1
 62
     7
 10
156.65223413328781
 20
11.5
 30
0.0
 11
156.65223413328781
 21
9.1651513899116992
 31
0.0
  0
LINE
  5
169
  8
1
 62
     7
 10
0.5
 20
60.0
 30
0.0
 11
0.0
 21
59.5
 31
0.0
  0
LINE
  5
16A
  8
1
 62
     7
 10
28.5
 20
16.0
 30
0.0
 11
29.0
 21
15.5
 31
0.0
  0
LINE
  5
16B
  8
1
 62
     7
 10
13.5
 20
23.5
 30
0.0
 11
14.0
 21
23.0
 31
0.0
  0
LINE
  5
16C
  8
1
 62
     7
 10
4.5
 20
23.5
 30
0.0
 11
4.0
 21
23.0
 31
0.0
  0
LINE
  5
16D
  8
1
 62
     7
 10
5.1999999999999869
 20
60.0
 30
0.0
 11
5.6999999999999869
 21
59.5
 31
0.0
  0
LINE
  5
16E
  8
1
 62
     7
 10
46.400000000000013
 20
60.0
 30
0.0
 11
45.900000000000013
 21
59.5
 31
0.0
  0
LINE
  5
16F
  8
1
 62
     7
 10
48.600000000000001
 20
60.0
 30
0.0
 11
49.100000000000001
 21
59.5
 31
0.0
  0
LINE
  5
170
  8
1
 62
     7
 10
48.600000000000001
 20
-48.5
 30
0.0
 11
49.100000000000001
 21
-48.0
 31
0.0
  0
LINE
  5
171
  8
1
 62
     7
 10
46.400000000000013
 20
-48.5
 30
0.0
 11
45.900000000000013
 21
-48.0
 31
0.0
  0
LINE
  5
172
  8
1
 62
     7
 10
5.1999999999999869
 20
-60.0
 30
0.0
 11
5.6999999999999869
 21
-59.5
 31
0.0
  0
LINE
  5
173
  8
1
 62
     7
 10
0.5
 20
-60.0
 30
0.0
 11
0.0
 21
-59.5
 31
0.0
  0
LINE
  5
174
  8
1
 62
     7
 10
4.0
 20
11.5
 30
0.0
 11
29.0
 21
11.5
 31
0.0
  0
LINE
  5
175
  8
1
 62
     7
 10
4.0
 20
9.5
 30
0.0
 11
29.0
 21
9.5
 31
0.0
  0
LINE
  5
176
  8
1
  6
DASHED
 62
     7
 10
172.65223413328761
 20
-1.480384757729297
 30
0.0
 11
172.35223413328779
 21
-2.0
 31
0.0
  0
LINE
  5
177
  8
1
  6
DASHED
 62
     7
 10
172.35223413328779
 20
-2.0
 30
0.0
 11
172.35223413328779
 21
2.0
 31
0.0
  0
LINE
  5
178
  8
1
  6
DASHED
 62
     7
 10
172.35223413328779
 20
2.0
 30
0.0
 11
172.65223413328761
 21
1.48038475772941
 31
0.0
  0
LINE
  5
179
  8
1
  6
DASHED
 62
     7
 10
172.65223413328761
 20
1.48038475772941
 30
0.0
 11
172.65223413328761
 21
-1.480384757729297
 31
0.0
  0
LINE
  5
17A
  8
1
  6
DASHED
 62
     7
 10
172.35223413328779
 20
-2.0
 30
0.0
 11
169.65223413328761
 21
-2.0
 31
0.0
  0
LINE
  5
17B
  8
1
  6
DASHED
 62
     7
 10
169.65223413328761
 20
-2.0
 30
0.0
 11
169.65223413328761
 21
2.0
 31
0.0
  0
LINE
  5
17C
  8
1
  6
DASHED
 62
     7
 10
169.65223413328761
 20
2.0
 30
0.0
 11
172.35223413328779
 21
2.0
 31
0.0
  0
LINE
  5
17D
  8
1
  6
DASHED
 62
     7
 10
169.65223413328761
 20
-2.0
 30
0.0
 11
168.65223413328761
 21
-1.0
 31
0.0
  0
LINE
  5
17E
  8
1
  6
DASHED
 62
     7
 10
168.65223413328761
 20
-1.0
 30
0.0
 11
168.65223413328761
 21
1.0
 31
0.0
  0
LINE
  5
17F
  8
1
  6
DASHED
 62
     7
 10
168.65223413328761
 20
1.0
 30
0.0
 11
169.65223413328761
 21
2.0
 31
0.0
  0
LINE
  5
180
  8
1
  6
DASHED
 62
     3
 10
172.5831742409635
 20
-1.5999999999999941
 30
0.0
 11
169.25223413328769
 21
-1.5999999999999941
 31
0.0
  0
LINE
  5
181
  8
1
  6
DASHED
 62
     3
 10
172.5831742409635
 20
1.5999999999999941
 30
0.0
 11
169.25223413328769
 21
1.5999999999999941
 31
0.0
  0
LINE
  5
182
  8
1
  6
DASHED
 62
     7
 10
160.6326188910171
 20
15.5
 30
0.0
 11
161.15223413328781
 21
15.19999999999999
 31
0.0
  0
LINE
  5
183
  8
1
  6
DASHED
 62
     7
 10
161.15223413328781
 20
15.19999999999999
 30
0.0
 11
157.15223413328781
 21
15.19999999999999
 31
0.0
  0
LINE
  5
184
  8
1
  6
DASHED
 62
     7
 10
157.15223413328781
 20
15.19999999999999
 30
0.0
 11
157.67184937555839
 21
15.5
 31
0.0
  0
LINE
  5
185
  8
1
  6
DASHED
 62
     7
 10
157.67184937555839
 20
15.5
 30
0.0
 11
160.6326188910171
 21
15.5
 31
0.0
  0
LINE
  5
186
  8
1
  6
DASHED
 62
     7
 10
161.15223413328781
 20
15.19999999999999
 30
0.0
 11
161.15223413328781
 21
12.5
 31
0.0
  0
LINE
  5
187
  8
1
  6
DASHED
 62
     7
 10
161.15223413328781
 20
12.5
 30
0.0
 11
157.15223413328781
 21
12.5
 31
0.0
  0
LINE
  5
188
  8
1
  6
DASHED
 62
     7
 10
157.15223413328781
 20
12.5
 30
0.0
 11
157.15223413328781
 21
15.19999999999999
 31
0.0
  0
LINE
  5
189
  8
1
  6
DASHED
 62
     7
 10
161.15223413328781
 20
12.5
 30
0.0
 11
160.15223413328781
 21
11.5
 31
0.0
  0
LINE
  5
18A
  8
1
  6
DASHED
 62
     7
 10
160.15223413328781
 20
11.5
 30
0.0
 11
158.15223413328781
 21
11.5
 31
0.0
  0
LINE
  5
18B
  8
1
  6
DASHED
 62
     7
 10
158.15223413328781
 20
11.5
 30
0.0
 11
157.15223413328781
 21
12.5
 31
0.0
  0
LINE
  5
18C
  8
1
  6
DASHED
 62
     3
 10
160.7522341332878
 20
15.430940107675889
 30
0.0
 11
160.7522341332878
 21
12.099999999999991
 31
0.0
  0
LINE
  5
18D
  8
1
  6
DASHED
 62
     3
 10
157.55223413328781
 20
15.430940107675889
 30
0.0
 11
157.55223413328781
 21
12.099999999999991
 31
0.0
  0
LINE
  5
18E
  8
1
  6
DASHED
 62
     3
 10
172.35223413328779
 20
2.0
 30
0.0
 11
175.02674199967529
 21
2.0
 31
0.0
  0
LINE
  5
18F
  8
1
  6
DASHED
 62
     7
 10
172.5831742409635
 20
1.5999999999999941
 30
0.0
 11
175.0720331269936
 21
1.5999999999999941
 31
0.0
  0
LINE
  5
190
  8
1
  6
DASHED
 62
     7
 10
172.5831742409635
 20
-1.5999999999999941
 30
0.0
 11
175.0720331269936
 21
-1.5999999999999941
 31
0.0
  0
LINE
  5
191
  8
1
  6
DASHED
 62
     3
 10
172.35223413328779
 20
-2.0
 30
0.0
 11
175.02674199967529
 21
-2.0
 31
0.0
  0
LINE
  5
192
  8
1
  6
DASHED
 62
     3
 10
169.65223413328761
 20
-2.0
 30
0.0
 11
168.43932194379099
 21
-2.0
 31
0.0
  0
LINE
  5
193
  8
1
  6
DASHED
 62
     7
 10
169.25223413328769
 20
-1.5999999999999941
 30
0.0
 11
168.51652802017529
 21
-1.5999999999999941
 31
0.0
  0
LINE
  5
194
  8
1
  6
DASHED
 62
     7
 10
169.25223413328769
 20
1.5999999999999941
 30
0.0
 11
168.51652802017529
 21
1.5999999999999941
 31
0.0
  0
LINE
  5
195
  8
1
  6
DASHED
 62
     3
 10
169.65223413328761
 20
2.0
 30
0.0
 11
168.43932194379099
 21
2.0
 31
0.0
  0
LINE
  5
196
  8
1
  6
DASHED
 62
     3
 10
161.15223413328781
 20
12.5
 30
0.0
 11
161.15223413328781
 21
11.5
 31
0.0
  0
LINE
  5
197
  8
1
  6
DASHED
 62
     3
 10
157.15223413328781
 20
12.5
 30
0.0
 11
157.15223413328781
 21
11.5
 31
0.0
  0
LINE
  5
198
  8
1
  6
DASHED
 62
     3
 10
157.15223413328781
 20
15.19999999999999
 30
0.0
 11
157.15223413328781
 21
15.87450786638759
 31
0.0
  0
LINE
  5
199
  8
1
  6
DASHED
 62
     7
 10
160.7522341332878
 20
15.430940107675889
 30
0.0
 11
160.7522341332878
 21
15.9197989937059
 31
0.0
  0
LINE
  5
19A
  8
1
  6
DASHED
 62
     7
 10
160.7522341332878
 20
12.099999999999991
 30
0.0
 11
160.7522341332878
 21
11.5
 31
0.0
  0
LINE
  5
19B
  8
1
  6
DASHED
 62
     7
 10
157.55223413328781
 20
12.099999999999991
 30
0.0
 11
157.55223413328781
 21
11.5
 31
0.0
  0
LINE
  5
19C
  8
1
 62
     7
 10
23.480384757729301
 20
15.5
 30
0.0
 11
24.0
 21
15.19999999999999
 31
0.0
  0
LINE
  5
19D
  8
1
 62
     7
 10
24.0
 20
15.19999999999999
 30
0.0
 11
20.0
 21
15.19999999999999
 31
0.0
  0
LINE
  5
19E
  8
1
 62
     7
 10
20.0
 20
15.19999999999999
 30
0.0
 11
20.519615242270699
 21
15.5
 31
0.0
  0
LINE
  5
19F
  8
1
 62
     7
 10
20.519615242270699
 20
15.5
 30
0.0
 11
23.480384757729301
 21
15.5
 31
0.0
  0
LINE
  5
1A0
  8
1
 62
     7
 10
24.0
 20
15.19999999999999
 30
0.0
 11
24.0
 21
12.5
 31
0.0
  0
LINE
  5
1A1
  8
1
 62
     7
 10
24.0
 20
12.5
 30
0.0
 11
20.0
 21
12.5
 31
0.0
  0
LINE
  5
1A2
  8
1
 62
     7
 10
20.0
 20
12.5
 30
0.0
 11
20.0
 21
15.19999999999999
 31
0.0
  0
LINE
  5
1A3
  8
1
 62
     7
 10
24.0
 20
12.5
 30
0.0
 11
23.0
 21
11.5
 31
0.0
  0
LINE
  5
1A4
  8
1
 62
     7
 10
23.0
 20
11.5
 30
0.0
 11
21.0
 21
11.5
 31
0.0
  0
LINE
  5
1A5
  8
1
 62
     7
 10
21.0
 20
11.5
 30
0.0
 11
20.0
 21
12.5
 31
0.0
  0
LINE
  5
1A6
  8
1
 62
     3
 10
23.59999999999998
 20
15.430940107675889
 30
0.0
 11
23.59999999999998
 21
12.099999999999991
 31
0.0
  0
LINE
  5
1A7
  8
1
 62
     3
 10
20.399999999999981
 20
15.430940107675889
 30
0.0
 11
20.399999999999981
 21
12.099999999999991
 31
0.0
  0
LINE
  5
1A8
  8
1
 62
     3
 10
24.0
 20
15.19999999999999
 30
0.0
 11
24.0
 21
16.0
 31
0.0
  0
LINE
  5
1A9
  8
1
 62
     7
 10
23.59999999999998
 20
15.430940107675889
 30
0.0
 11
23.59999999999998
 21
16.000000000000089
 31
0.0
  0
LINE
  5
1AA
  8
1
 62
     7
 10
20.399999999999981
 20
15.430940107675889
 30
0.0
 11
20.399999999999981
 21
16.0
 31
0.0
  0
LINE
  5
1AB
  8
1
 62
     3
 10
20.0
 20
15.19999999999999
 30
0.0
 11
20.0
 21
16.0
 31
0.0
  0
LINE
  5
1AC
  8
1
 62
     3
 10
20.0
 20
12.5
 30
0.0
 11
20.0
 21
11.5
 31
0.0
  0
LINE
  5
1AD
  8
1
 62
     7
 10
20.399999999999981
 20
12.099999999999991
 30
0.0
 11
20.399999999999981
 21
11.5
 31
0.0
  0
LINE
  5
1AE
  8
1
 62
     7
 10
23.59999999999998
 20
12.099999999999991
 30
0.0
 11
23.59999999999998
 21
11.5
 31
0.0
  0
LINE
  5
1AF
  8
1
 62
     3
 10
24.0
 20
12.5
 30
0.0
 11
24.0
 21
11.5
 31
0.0
  0
LINE
  5
1B0
  8
1
 62
     7
 10
29.0
 20
15.5
 30
0.0
 11
29.0
 21
-15.50000000000011
 31
0.0
  0
LINE
  5
1B1
  8
1
  6
DASHED
 62
     3
 10
161.15223413328781
 20
15.87450786638759
 30
0.0
 11
161.15223413328781
 21
15.19999999999999
 31
0.0
  0
LINE
  5
1B2
  8
1
  6
DASHED
 62
     7
 10
157.55223413328781
 20
15.9197989937059
 30
0.0
 11
157.55223413328781
 21
15.430940107675889
 31
0.0
  0
LINE
  5
1B3
  8
1
  6
DASHDOT
 62
     3
 10
22.0
 20
17.572186271161279
 30
0.0
 11
22.0
 21
9.5
 31
0.0
  0
LINE
  5
1B4
  8
1
 62
     7
 10
12.799999999999979
 20
30.0
 30
0.0
 11
12.099999999999991
 21
30.0
 31
0.0
  0
LINE
  5
1B5
  8
1
 62
     7
 10
12.099999999999991
 20
30.0
 30
0.0
 11
12.099999999999991
 21
20.75
 31
0.0
  0
ARC
  5
1B6
  8
1
 62
     7
 10
-57.300000000000011
 20
51.0
 30
0.0
 40
1.0
 50
270.0
 51
0.0
  0
ARC
  5
1B7
  8
1
 62
     7
 10
-57.300000000000011
 20
57.0
 30
0.0
 40
1.0
 50
0.0
 51
90.0
  0
ARC
  5
1B8
  8
1
 62
     7
 10
-86.800000000000026
 20
51.0
 30
0.0
 40
1.0
 50
270.0
 51
0.0
  0
ARC
  5
1B9
  8
1
 62
     7
 10
-86.800000000000026
 20
57.0
 30
0.0
 40
1.0
 50
0.0
 51
90.0
  0
ARC
  5
1BA
  8
1
 62
     7
 10
-67.100000000000023
 20
44.5
 30
0.0
 40
3.0
 50
0.0
 51
90.0
  0
ARC
  5
1BB
  8
1
 62
     7
 10
-67.100000000000023
 20
-44.5
 30
0.0
 40
3.0
 50
270.0
 51
0.0
  0
ARC
  5
1BC
  8
1
 62
     7
 10
52.699999999999967
 20
51.0
 30
0.0
 40
1.0
 50
270.0
 51
0.0
  0
ARC
  5
1BD
  8
1
 62
     7
 10
52.699999999999967
 20
57.0
 30
0.0
 40
1.0
 50
0.0
 51
90.0
  0
ARC
  5
1BE
  8
1
 62
     7
 10
23.199999999999989
 20
51.0
 30
0.0
 40
1.0
 50
270.0
 51
0.0
  0
ARC
  5
1BF
  8
1
 62
     7
 10
23.199999999999989
 20
57.0
 30
0.0
 40
1.0
 50
0.0
 51
90.0
  0
ARC
  5
1C0
  8
1
 62
     7
 10
42.900000000000013
 20
44.5
 30
0.0
 40
3.0
 50
0.0
 51
90.0
  0
ARC
  5
1C1
  8
1
 62
     7
 10
42.900000000000013
 20
-44.5
 30
0.0
 40
3.0
 50
270.0
 51
0.0
  0
ARC
  5
1C2
  8
1
  6
DASHDOT
 62
     3
 10
159.15223413328781
 20
0.0
 30
0.0
 40
54.000000000000028
 50
263.72961647972801
 51
276.28639415699882
  0
ARC
  5
1C3
  8
1
  6
DASHDOT
 62
     3
 10
159.15223413328781
 20
0.0
 30
0.0
 40
53.99999999999995
 50
23.648799479125941
 51
36.482046754307852
  0
ARC
  5
1C4
  8
1
  6
DASHDOT
 62
     3
 10
159.15223413328781
 20
0.0
 30
0.0
 40
54.000000000000007
 50
143.89325365237389
 51
155.98340255614281
  0
ARC
  5
1C5
  8
1
 62
     7
 10
-59.155135385721209
 20
54.0
 30
0.0
 40
8.9448646142787993
 50
165.03382619581731
 51
194.9661738041826
  0
ARC
  5
1C6
  8
1
 62
     7
 10
-65.750000000000014
 20
57.465000000000011
 30
0.0
 40
2.3499999999999961
 50
150.56147991407499
 51
209.43852008592489
  0
ARC
  5
1C7
  8
1
 62
     7
 10
-65.750000000000014
 20
50.534999999999989
 30
0.0
 40
2.3499999999999992
 50
150.56147991407499
 51
209.43852008592489
  0
ARC
  5
1C8
  8
1
 62
     7
 10
-59.649999999999991
 20
50.534999999999989
 30
0.0
 40
2.350000000000068
 50
346.84067983421482
 51
29.43852008592475
  0
ARC
  5
1C9
  8
1
 62
     7
 10
-59.649999999999991
 20
57.465000000000011
 30
0.0
 40
2.350000000000068
 50
13.15932016578507
 51
29.438520085924608
  0
ARC
  5
1CA
  8
1
 62
     7
 10
-66.244864614278541
 20
54.0
 30
0.0
 40
8.9448646142785506
 50
345.0338261958168
 51
14.9661738041831
  0
ARC
  5
1CB
  8
1
 62
     7
 10
-59.649999999999991
 20
57.465000000000011
 30
0.0
 40
2.3500000000000179
 50
330.56147991407522
 51
13.15932016578507
  0
ARC
  5
1CC
  8
1
 62
     7
 10
-59.649999999999991
 20
50.534999999999989
 30
0.0
 40
2.3500000000000139
 50
330.56147991407551
 51
346.84067983421482
  0
ARC
  5
1CD
  8
1
 62
     7
 10
-89.15000000000002
 20
50.534999999999989
 30
0.0
 40
2.3499999999999699
 50
346.84067983421443
 51
29.438520085924839
  0
ARC
  5
1CE
  8
1
 62
     7
 10
-89.15000000000002
 20
57.465000000000011
 30
0.0
 40
2.3499999999999699
 50
13.159320165785619
 51
29.438520085924701
  0
ARC
  5
1CF
  8
1
 62
     7
 10
-95.744864614278583
 20
54.0
 30
0.0
 40
8.9448646142786181
 50
345.03382619581703
 51
14.966173804182979
  0
ARC
  5
1D0
  8
1
 62
     7
 10
-89.15000000000002
 20
57.465000000000011
 30
0.0
 40
2.3500000000000112
 50
330.56147991407522
 51
13.159320165785619
  0
ARC
  5
1D1
  8
1
 62
     7
 10
-89.15000000000002
 20
50.534999999999989
 30
0.0
 40
2.3500000000000081
 50
330.56147991407528
 51
346.84067983421443
  0
ARC
  5
1D2
  8
1
 62
     7
 10
22.0
 20
0.0
 30
0.0
 40
1.5999999999999901
 50
180.0
 51
0.0
  0
ARC
  5
1D3
  8
1
 62
     3
 10
22.0
 20
0.0
 30
0.0
 40
2.0
 50
180.0
 51
0.0
  0
ARC
  5
1D4
  8
1
 62
     7
 10
159.15223413328781
 20
0.0
 30
0.0
 40
60.000000000000071
 50
121.9102131717098
 51
118.0897868282902
  0
ARC
  5
1D5
  8
1
 62
     7
 10
50.844864614278812
 20
54.0
 30
0.0
 40
8.9448646142788242
 50
165.0338261958174
 51
194.9661738041826
  0
ARC
  5
1D6
  8
1
 62
     7
 10
44.249999999999979
 20
57.465000000000011
 30
0.0
 40
2.3499999999999961
 50
150.56147991407499
 51
209.43852008592489
  0
ARC
  5
1D7
  8
1
 62
     7
 10
44.249999999999979
 20
50.534999999999989
 30
0.0
 40
2.3499999999999992
 50
150.56147991407499
 51
209.43852008592489
  0
ARC
  5
1D8
  8
1
 62
     7
 10
50.350000000000001
 20
50.534999999999989
 30
0.0
 40
2.350000000000068
 50
346.84067983421482
 51
29.43852008592475
  0
ARC
  5
1D9
  8
1
 62
     7
 10
50.350000000000001
 20
57.465000000000011
 30
0.0
 40
2.350000000000068
 50
13.15932016578507
 51
29.438520085924608
  0
ARC
  5
1DA
  8
1
 62
     7
 10
43.755135385721509
 20
54.0
 30
0.0
 40
8.9448646142785186
 50
345.03382619581669
 51
14.96617380418316
  0
ARC
  5
1DB
  8
1
 62
     7
 10
50.350000000000001
 20
57.465000000000011
 30
0.0
 40
2.3500000000000179
 50
330.56147991407522
 51
13.15932016578507
  0
ARC
  5
1DC
  8
1
 62
     7
 10
50.350000000000001
 20
50.534999999999989
 30
0.0
 40
2.3500000000000139
 50
330.56147991407551
 51
346.84067983421482
  0
ARC
  5
1DD
  8
1
 62
     7
 10
20.84999999999998
 20
50.534999999999989
 30
0.0
 40
2.349999999999989
 50
346.84067983421443
 51
29.43852008592463
  0
ARC
  5
1DE
  8
1
 62
     7
 10
20.84999999999998
 20
57.465000000000011
 30
0.0
 40
2.349999999999989
 50
13.159320165785511
 51
29.43852008592447
  0
ARC
  5
1DF
  8
1
 62
     7
 10
14.25513538572139
 20
54.0
 30
0.0
 40
8.9448646142786323
 50
345.03382619581703
 51
14.96617380418297
  0
ARC
  5
1E0
  8
1
 62
     7
 10
20.84999999999998
 20
57.465000000000011
 30
0.0
 40
2.3500000000000258
 50
330.56147991407528
 51
13.159320165785511
  0
ARC
  5
1E1
  8
1
 62
     7
 10
20.84999999999998
 20
50.534999999999989
 30
0.0
 40
2.3500000000000218
 50
330.56147991407551
 51
346.84067983421443
  0
ARC
  5
1E2
  8
1
 62
     7
 10
159.15223413328781
 20
0.0
 30
0.0
 40
9.5000000000000178
 50
105.2575232904564
 51
74.742476709543681
  0
ARC
  5
1E3
  8
1
 62
     3
 10
22.0
 20
0.0
 30
0.0
 40
2.0
 50
0.0
 51
180.0
  0
ARC
  5
1E4
  8
1
 62
     7
 10
22.0
 20
0.0
 30
0.0
 40
1.5999999999999901
 50
0.0
 51
180.0
  0
CIRCLE
  5
1E5
  8
1
 62
     7
 10
112.3868623289279
 20
27.000000000000089
 30
0.0
 40
4.25
  0
CIRCLE
  5
1E6
  8
1
 62
     7
 10
205.91760593764749
 20
27.0
 30
0.0
 40
4.25
  0
CIRCLE
  5
1E7
  8
1
 62
     7
 10
159.15223413328781
 20
-54.0
 30
0.0
 40
4.25
  0
CIRCLE
  5
1E8
  8
1
 62
     7
 10
211.31222875289751
 20
-13.976228435536109
 30
0.0
 40
4.0
  0
CIRCLE
  5
1E9
  8
1
 62
     7
 10
205.91760593764749
 20
-27.0
 30
0.0
 40
2.75
  0
CIRCLE
  5
1EA
  8
1
 62
     7
 10
120.9684679492142
 20
-38.183766184073512
 30
0.0
 40
4.0
  0
CIRCLE
  5
1EB
  8
1
 62
     7
 10
112.3868623289279
 20
-27.0
 30
0.0
 40
2.75
  0
CIRCLE
  5
1EC
  8
1
 62
     7
 10
159.15223413328781
 20
54.0
 30
0.0
 40
2.75
  0
CIRCLE
  5
1ED
  8
1
 62
     7
 10
145.17600569775161
 20
52.159994619609712
 30
0.0
 40
4.0
  0
CIRCLE
  5
1EE
  8
1
 62
     7
 10
197.33600031736131
 20
-38.18376618407359
 30
0.0
 40
4.0
  0
CIRCLE
  5
1EF
  8
1
 62
     7
 10
197.33600031736131
 20
-38.18376618407359
 30
0.0
 40
2.5
  0
CIRCLE
  5
1F0
  8
1
 62
     3
 10
197.33600031736131
 20
-38.18376618407359
 30
0.0
 40
1.75
  0
CIRCLE
  5
1F1
  8
1
 62
     7
 10
106.992239513678
 20
-13.976228435536109
 30
0.0
 40
4.0
  0
CIRCLE
  5
1F2
  8
1
 62
     7
 10
106.992239513678
 20
-13.976228435536109
 30
0.0
 40
2.5
  0
CIRCLE
  5
1F3
  8
1
 62
     3
 10
106.992239513678
 20
-13.976228435536109
 30
0.0
 40
1.75
  0
CIRCLE
  5
1F4
  8
1
 62
     3
 10
173.12846256882389
 20
52.159994619609712
 30
0.0
 40
1.7499999999999141
  0
CIRCLE
  5
1F5
  8
1
 62
     7
 10
173.12846256882389
 20
52.159994619609712
 30
0.0
 40
2.5
  0
CIRCLE
  5
1F6
  8
1
 62
     7
 10
173.12846256882389
 20
52.159994619609712
 30
0.0
 40
3.9999999999999138
  0
CIRCLE
  5
1F7
  8
1
 62
     7
 10
159.15223413328781
 20
0.0
 30
0.0
 40
20.0
  0
CIRCLE
  5
1F8
  8
1
 62
     7
 10
159.15223413328781
 20
0.0
 30
0.0
 40
16.0
  0
TEXT
  5
1FA
  8
1
 62
     7
 10
-98.412786617428324
 20
119.71777053731989
 30
0.0
 40
5.0
  1
MNB 0.8
 41
0.9
  7
SIMPLEX
  0
ENDSEC
  0
EOF
