  0
SECTION
  2
HEADER
  9
$ACADVER
  1
AC1009
  9
$INSBASE
 10
0.0
 20
0.0
 30
0.0
  9
$EXTMIN
 10
-185.9132262226253
 20
-131.83214323111781
 30
0.0
  9
$EXTMAX
 10
424.1056231761911
 20
167.693478647294
 30
0.0
  9
$LIMMIN
 10
-185.9132262226253
 20
-118.610677463386
  9
$LIMMAX
 10
400.37778388418087
 20
167.693478647294
  9
$ORTHOMODE
 70
     0
  9
$REGENMODE
 70
     1
  9
$FILLMODE
 70
     1
  9
$QTEXTMODE
 70
     0
  9
$MIRRTEXT
 70
     1
  9
$DRAGMODE
 70
     2
  9
$LTSCALE
 40
1.0
  9
$OSMODE
 70
    37
  9
$ATTMODE
 70
     1
  9
$TEXTSIZE
 40
3.5
  9
$TRACEWID
 40
0.5
  9
$TEXTSTYLE
  7
STANDARD
  9
$CLAYER
  8
0
  9
$CELTYPE
  6
BYLAYER
  9
$CECOLOR
 62
   256
  9
$DIMSCALE
 40
1.0
  9
$DIMASZ
 40
0.18
  9
$DIMEXO
 40
0.0625
  9
$DIMDLI
 40
0.38
  9
$DIMRND
 40
0.0
  9
$DIMDLE
 40
0.0
  9
$DIMEXE
 40
0.18
  9
$DIMTP
 40
0.0
  9
$DIMTM
 40
0.0
  9
$DIMTXT
 40
0.18
  9
$DIMCEN
 40
0.09
  9
$DIMTSZ
 40
0.0
  9
$DIMTOL
 70
     0
  9
$DIMLIM
 70
     0
  9
$DIMTIH
 70
     1
  9
$DIMTOH
 70
     1
  9
$DIMSE1
 70
     0
  9
$DIMSE2
 70
     0
  9
$DIMTAD
 70
     0
  9
$DIMZIN
 70
     0
  9
$DIMBLK
  1

  9
$DIMASO
 70
     1
  9
$DIMSHO
 70
     1
  9
$DIMPOST
  1

  9
$DIMAPOST
  1

  9
$DIMALT
 70
     0
  9
$DIMALTD
 70
     2
  9
$DIMALTF
 40
25.399999999999999
  9
$DIMLFAC
 40
1.0
  9
$DIMTOFL
 70
     0
  9
$DIMTVP
 40
0.0
  9
$DIMTIX
 70
     0
  9
$DIMSOXD
 70
     0
  9
$DIMSAH
 70
     0
  9
$DIMBLK1
  1

  9
$DIMBLK2
  1

  9
$DIMSTYLE
  2
STANDARD
  9
$DIMCLRD
 70
     0
  9
$DIMCLRE
 70
     0
  9
$DIMCLRT
 70
     0
  9
$DIMTFAC
 40
1.0
  9
$DIMGAP
 40
0.09
  9
$LUNITS
 70
     2
  9
$LUPREC
 70
     4
  9
$SKETCHINC
 40
0.1
  9
$FILLETRAD
 40
2.0
  9
$AUNITS
 70
     0
  9
$AUPREC
 70
     0
  9
$MENU
  1
ACAD
  9
$ELEVATION
 40
0.0
  9
$PELEVATION
 40
0.0
  9
$THICKNESS
 40
0.0
  9
$LIMCHECK
 70
     0
  9
$BLIPMODE
 70
     0
  9
$CHAMFERA
 40
0.0
  9
$CHAMFERB
 40
0.0
  9
$SKPOLY
 70
     0
  9
$TDCREATE
 40
2452094.9869341431
  9
$TDUPDATE
 40
2452094.987501157
  9
$TDINDWG
 40
0.000581713
  9
$TDUSRTIMER
 40
0.000581713
  9
$USRTIMER
 70
     1
  9
$ANGBASE
 50
0.0
  9
$ANGDIR
 70
     0
  9
$PDMODE
 70
     0
  9
$PDSIZE
 40
0.0
  9
$PLINEWID
 40
0.0
  9
$COORDS
 70
     1
  9
$SPLFRAME
 70
     0
  9
$SPLINETYPE
 70
     6
  9
$SPLINESEGS
 70
     8
  9
$ATTDIA
 70
     0
  9
$ATTREQ
 70
     1
  9
$HANDLING
 70
 10241
  9
$HANDSEED
  5
26D
  9
$SURFTAB1
 70
     6
  9
$SURFTAB2
 70
     6
  9
$SURFTYPE
 70
     6
  9
$SURFU
 70
     6
  9
$SURFV
 70
     6
  9
$UCSNAME
  2

  9
$UCSORG
 10
0.0
 20
0.0
 30
0.0
  9
$UCSXDIR
 10
1.0
 20
0.0
 30
0.0
  9
$UCSYDIR
 10
0.0
 20
1.0
 30
0.0
  9
$PUCSNAME
  2

  9
$PUCSORG
 10
0.0
 20
0.0
 30
0.0
  9
$PUCSXDIR
 10
1.0
 20
0.0
 30
0.0
  9
$PUCSYDIR
 10
0.0
 20
1.0
 30
0.0
  9
$USERI1
 70
     0
  9
$USERI2
 70
     0
  9
$USERI3
 70
     0
  9
$USERI4
 70
     0
  9
$USERI5
 70
     0
  9
$USERR1
 40
0.0
  9
$USERR2
 40
0.0
  9
$USERR3
 40
0.0
  9
$USERR4
 40
0.0
  9
$USERR5
 40
0.0
  9
$WORLDVIEW
 70
     1
  9
$SHADEDGE
 70
     3
  9
$SHADEDIF
 70
    70
  9
$TILEMODE
 70
     1
  9
$MAXACTVP
 70
    64
  9
$PLIMCHECK
 70
     0
  9
$PEXTMIN
 10
1.0000000000000000E+020
 20
1.0000000000000000E+020
 30
1.0000000000000000E+020
  9
$PEXTMAX
 10
-1.0000000000000000E+020
 20
-1.0000000000000000E+020
 30
-1.0000000000000000E+020
  9
$PLIMMIN
 10
0.0
 20
0.0
  9
$PLIMMAX
 10
12.0
 20
9.0
  9
$UNITMODE
 70
     0
  9
$VISRETAIN
 70
     1
  9
$PLINEGEN
 70
     0
  9
$PSLTSCALE
 70
     1
  0
ENDSEC
  0
SECTION
  2
TABLES
  0
TABLE
  2
VPORT
 70
     2
  0
VPORT
  2
*ACTIVE
 70
     0
 10
0.0
 20
0.0
 11
1.0
 21
1.0
 12
-120.0918400182216
 22
148.47082748960841
 13
0.0
 23
0.0
 14
1.0
 24
1.0
 15
0.0
 25
0.0
 16
0.0
 26
0.0
 36
1.0
 17
0.0
 27
0.0
 37
0.0
 40
9.0000000230151045
 41
2.4144144144144142
 42
50.0
 43
0.0
 44
0.0
 50
0.0
 51
0.0
 71
     0
 72
   100
 73
     1
 74
     1
 75
     0
 76
     0
 77
     0
 78
     0
  0
ENDTAB
  0
TABLE
  2
LTYPE
 70
     9
  0
LTYPE
  2
CONTINUOUS
 70
     0
  3
Solid line
 72
    65
 73
     0
 40
0.0
  0
LTYPE
  2
BORDER
 70
     0
  3
__ __ . __ __ .
 72
    65
 73
     6
 40
27.00024388649766
 49
7.7143553961421896
 49
-3.8571776980710948
 49
7.7143553961421896
 49
-3.8571776980710948
 49
0.0
 49
-3.8571776980710948
  0
LTYPE
  2
CENTER
 70
     0
  3
____ _ ____ _
 72
    65
 73
     4
 40
30.857421584568758
 49
19.285888490355479
 49
-3.8571776980710948
 49
3.8571776980710948
 49
-3.8571776980710948
  0
LTYPE
  2
DASHDOT
 70
     0
  3
__ . __ . __ .
 72
    65
 73
     4
 40
15.428710792284379
 49
7.7143553961421896
 49
-3.8571776980710948
 49
0.0
 49
-3.8571776980710948
  0
LTYPE
  2
DASHED
 70
     0
  3
__ __ __ __ __
 72
    65
 73
     2
 40
11.57153309421329
 49
7.7143553961421896
 49
-3.8571776980710948
  0
LTYPE
  2
DIVIDE
 70
     0
  3
__ . . __ . . 
 72
    65
 73
     6
 40
19.285888490355479
 49
7.7143553961421896
 49
-3.8571776980710948
 49
0.0
 49
-3.8571776980710948
 49
0.0
 49
-3.8571776980710948
  0
LTYPE
  2
DOT
 70
     0
  3
..............
 72
    65
 73
     4
 40
7.7143553961421896
 49
0.0
 49
-3.8571776980710948
 49
0.0
 49
-3.8571776980710948
  0
LTYPE
  2
HIDDEN
 70
     0
  3
_ _ _ _ _ _ _
 72
    65
 73
     2
 40
5.7857665471066424
 49
3.8571776980710948
 49
-1.9285888490355461
  0
LTYPE
  2
PHANTOM
 70
     0
  3
_____ _ _ _____ _ _ 
 72
    65
 73
     6
 40
38.571776980710958
 49
19.285888490355479
 49
-3.8571776980710948
 49
3.8571776980710948
 49
-3.8571776980710948
 49
3.8571776980710948
 49
-3.8571776980710948
  0
ENDTAB
  0
TABLE
  2
LAYER
 70
     2
  0
LAYER
  2
0
 70
     0
 62
     7
  6
CONTINUOUS
  0
LAYER
  2
1
 70
     0
 62
     7
  6
CONTINUOUS
  0
ENDTAB
  0
TABLE
  2
STYLE
 70
     4
  0
STYLE
  2
STANDARD
 70
     0
 40
0.0
 41
1.0
 50
0.0
 71
     0
 42
3.5
  3
txt
  4

  0
STYLE
  2
SIMPLEX
 70
     0
 40
0.0
 41
1.0
 50
0.0
 71
     0
 42
3.5
  3
simplex
  4

  0
STYLE
  2
COMPLEX
 70
     0
 40
0.0
 41
1.0
 50
0.0
 71
     0
 42
3.5
  3
complex
  4

  0
STYLE
  2
ITALIC
 70
     0
 40
0.0
 41
1.0
 50
0.0
 71
     0
 42
3.5
  3
italic
  4

  0
ENDTAB
  0
TABLE
  2
VIEW
 70
     0
  0
ENDTAB
  0
TABLE
  2
UCS
 70
     0
  0
ENDTAB
  0
TABLE
  2
APPID
 70
     1
  0
APPID
  2
ACAD
 70
     0
  0
ENDTAB
  0
TABLE
  2
DIMSTYLE
 70
     1
  0
DIMSTYLE
  2
STANDARD
 70
     0
  3

  4

  5

  6

  7

 40
1.0
 41
0.18
 42
0.0625
 43
0.38
 44
0.18
 45
0.0
 46
0.0
 47
0.0
 48
0.0
140
0.18
141
0.09
142
0.0
143
25.399999999999999
144
1.0
145
0.0
146
1.0
147
0.09
 71
     0
 72
     0
 73
     1
 74
     1
 75
     0
 76
     0
 77
     0
 78
     0
170
     0
171
     2
172
     0
173
     0
174
     0
175
     0
176
     0
177
     0
178
     0
  0
ENDTAB
  0
ENDSEC
  0
SECTION
  2
BLOCKS
  0
BLOCK
  8
0
  2
$MODEL_SPACE
 70
     0
 10
0.0
 20
0.0
 30
0.0
  3
$MODEL_SPACE
  1

  0
ENDBLK
  5
20
  8
0
  0
BLOCK
 67
     1
  8
0
  2
$PAPER_SPACE
 70
     0
 10
0.0
 20
0.0
 30
0.0
  3
$PAPER_SPACE
  1

  0
ENDBLK
  5
1C
 67
     1
  8
0
  0
ENDSEC
  0
SECTION
  2
ENTITIES
  0
POINT
  5
33
  8
1
  6
DOT
 62
     7
 10
371.49226792512201
 20
46.42499073646006
 30
0.0
  0
POINT
  5
34
  8
1
  6
DOT
 62
     7
 10
239.2632998432376
 20
-85.8039773454243
 30
0.0
  0
LINE
  5
35
  8
1
 62
     7
 10
90.386773777374586
 20
61.310506695517923
 30
0.0
 11
92.286773777374606
 21
61.310506695517923
 31
0.0
  0
LINE
  5
36
  8
1
 62
     3
 10
90.386773777374586
 20
62.110506695517927
 30
0.0
 11
93.086773777374631
 21
62.110506695517927
 31
0.0
  0
LINE
  5
37
  8
1
 62
     7
 10
89.586773777374574
 20
70.737857604792055
 30
0.0
 11
89.586773777374489
 21
101.5638293648398
 31
0.0
  0
LINE
  5
38
  8
1
 62
     7
 10
90.386773777374586
 20
69.375506695517885
 30
0.0
 11
90.386773777374586
 21
61.245506695517918
 31
0.0
  0
LINE
  5
39
  8
1
 62
     7
 10
88.105085940887591
 20
57.810506695517923
 30
0.0
 11
83.086773777374617
 21
57.810506695517923
 31
0.0
  0
LINE
  5
3A
  8
1
 62
     7
 10
88.105085940887591
 20
61.560506695517923
 30
0.0
 11
83.086773777374617
 21
61.560506695517923
 31
0.0
  0
LINE
  5
3B
  8
1
 62
     7
 10
88.105085940887591
 20
69.060506695517915
 30
0.0
 11
83.086773777374617
 21
69.060506695517915
 31
0.0
  0
LINE
  5
3C
  8
1
 62
     7
 10
88.105085940887591
 20
72.810506695517915
 30
0.0
 11
83.086773777374617
 21
72.810506695517915
 31
0.0
  0
LINE
  5
3D
  8
1
 62
     7
 10
88.826773777374612
 20
70.935506695517915
 30
0.0
 11
88.826773777374612
 21
59.685506695517923
 31
0.0
  0
LINE
  5
3E
  8
1
 62
     3
 10
-99.613226222625414
 20
62.110506695517927
 30
0.0
 11
-96.913226222625369
 21
62.110506695517927
 31
0.0
  0
LINE
  5
3F
  8
1
 62
     7
 10
-99.613226222625414
 20
61.310506695517923
 30
0.0
 11
-97.713226222625408
 21
61.310506695517923
 31
0.0
  0
LINE
  5
40
  8
1
 62
     7
 10
-100.4132262226254
 20
70.737857604792055
 30
0.0
 11
-100.4132262226254
 21
101.5638293648398
 31
0.0
  0
LINE
  5
41
  8
1
 62
     7
 10
-99.613226222625414
 20
69.375506695517885
 30
0.0
 11
-99.613226222625414
 21
61.245506695517918
 31
0.0
  0
LINE
  5
42
  8
1
 62
     7
 10
-101.89491405911239
 20
57.810506695517923
 30
0.0
 11
-106.9132262226254
 21
57.810506695517923
 31
0.0
  0
LINE
  5
43
  8
1
 62
     7
 10
-101.89491405911239
 20
61.560506695517923
 30
0.0
 11
-106.9132262226254
 21
61.560506695517923
 31
0.0
  0
LINE
  5
44
  8
1
 62
     7
 10
-101.89491405911239
 20
69.060506695517915
 30
0.0
 11
-106.9132262226254
 21
69.060506695517915
 31
0.0
  0
LINE
  5
45
  8
1
 62
     7
 10
-101.89491405911239
 20
72.810506695517915
 30
0.0
 11
-106.9132262226254
 21
72.810506695517915
 31
0.0
  0
LINE
  5
46
  8
1
 62
     7
 10
-101.1732262226254
 20
70.935506695517915
 30
0.0
 11
-101.1732262226254
 21
59.685506695517923
 31
0.0
  0
LINE
  5
47
  8
1
 62
     7
 10
93.086773777374631
 20
-54.18949330448207
 30
0.0
 11
93.086773777374631
 21
-67.189493304482099
 31
0.0
  0
LINE
  5
48
  8
1
 62
     7
 10
56.886773777374621
 20
-114.189493304482
 30
0.0
 11
56.886773777374621
 21
-45.689493304481957
 31
0.0
  0
LINE
  5
49
  8
1
 62
     7
 10
33.086773777374617
 20
-114.189493304482
 30
0.0
 11
33.086773777374617
 21
57.810506695517923
 31
0.0
  0
LINE
  5
4A
  8
1
 62
     3
 10
32.08677377737461
 20
-100.689493304482
 30
0.0
 11
32.08677377737461
 21
-108.689493304482
 31
0.0
  0
LINE
  5
4B
  8
1
 62
     3
 10
32.08677377737461
 20
-107.889493304482
 30
0.0
 11
33.086773777374617
 21
-108.4668435736718
 31
0.0
  0
LINE
  5
4C
  8
1
 62
     3
 10
32.08677377737461
 20
-101.489493304482
 30
0.0
 11
33.086773777374617
 21
-100.9121430352924
 31
0.0
  0
LINE
  5
4D
  8
1
  6
DASHDOT
 62
     3
 10
318.85144980704001
 20
-19.68949330448207
 30
0.0
 11
332.947508661835
 21
-19.68949330448207
 31
0.0
  0
LINE
  5
4E
  8
1
  6
DASHDOT
 62
     3
 10
305.37778388417991
 20
-2.626669812835984
 30
0.0
 11
305.37778388417991
 21
8.4097793680500104
 31
0.0
  0
LINE
  5
4F
  8
1
  6
DASHDOT
 62
     3
 10
305.37778388417991
 20
-12.772133825713009
 30
0.0
 11
305.37778388417991
 21
-26.60685278325121
 31
0.0
  0
LINE
  5
50
  8
1
  6
DASHDOT
 62
     3
 10
312.29514336294892
 20
-19.68949330448207
 30
0.0
 11
298.46042440541072
 21
-19.68949330448207
 31
0.0
  0
LINE
  5
51
  8
1
  6
DASHDOT
 62
     3
 10
305.37778388417991
 20
-93.739071135450985
 30
0.0
 11
305.37778388417991
 21
-118.610677463386
 31
0.0
  0
LINE
  5
52
  8
1
 62
     7
 10
-167.91322622262541
 20
-100.689493304482
 30
0.0
 11
-179.1132262226254
 21
-100.689493304482
 31
0.0
  0
LINE
  5
53
  8
1
 62
     7
 10
-156.91322622262541
 20
72.810506695517915
 30
0.0
 11
-145.91322622262541
 21
72.810506695517915
 31
0.0
  0
LINE
  5
54
  8
1
 62
     7
 10
-145.91322622262541
 20
57.810506695517923
 30
0.0
 11
-156.91322622262541
 21
57.810506695517923
 31
0.0
  0
LINE
  5
55
  8
1
 62
     3
 10
-79.913226222625383
 20
-19.68949330448207
 30
0.0
 11
-69.913226222625383
 21
-19.68949330448207
 31
0.0
  0
LINE
  5
56
  8
1
 62
     3
 10
-177.9132262226253
 20
-19.68949330448207
 30
0.0
 11
-167.91322622262541
 21
-19.68949330448207
 31
0.0
  0
LINE
  5
57
  8
1
 62
     7
 10
-133.1132262226254
 20
-114.189493304482
 30
0.0
 11
-133.1132262226254
 21
74.810506695517915
 31
0.0
  0
LINE
  5
58
  8
1
 62
     7
 10
-74.913226222625383
 20
-57.689493304482077
 30
0.0
 11
-74.413226222625383
 21
-57.689493304482077
 31
0.0
  0
LINE
  5
59
  8
1
 62
     7
 10
-75.403973951436598
 20
-66.439493304482099
 30
0.0
 11
-79.913226222625383
 21
-66.439493304482099
 31
0.0
  0
LINE
  5
5A
  8
1
 62
     7
 10
-75.403973951436598
 20
-63.56449330448207
 30
0.0
 11
-79.913226222625383
 21
-63.56449330448207
 31
0.0
  0
LINE
  5
5B
  8
1
 62
     7
 10
-75.403973951436598
 20
-57.81449330448207
 30
0.0
 11
-79.913226222625383
 21
-57.81449330448207
 31
0.0
  0
LINE
  5
5C
  8
1
 62
     7
 10
-75.403973951436598
 20
-54.939493304482077
 30
0.0
 11
-79.913226222625383
 21
-54.939493304482077
 31
0.0
  0
LINE
  5
5D
  8
1
 62
     7
 10
-74.913226222625383
 20
-56.37699330448207
 30
0.0
 11
-74.913226222625383
 21
-65.001993304482099
 31
0.0
  0
LINE
  5
5E
  8
1
 62
     3
 10
-74.066816061111581
 20
-58.2894933044821
 30
0.0
 11
-74.913226222625383
 21
-58.2894933044821
 31
0.0
  0
LINE
  5
5F
  8
1
 62
     3
 10
-74.066816061111581
 20
-63.089493304482119
 30
0.0
 11
-74.913226222625383
 21
-63.089493304482119
 31
0.0
  0
LINE
  5
60
  8
1
 62
     7
 10
-74.413226222625383
 20
-63.689493304482077
 30
0.0
 11
-74.913226222625383
 21
-63.689493304482077
 31
0.0
  0
LINE
  5
61
  8
1
 62
     7
 10
-73.913226222625383
 20
-58.555518708266618
 30
0.0
 11
-73.913226222625383
 21
-62.823467900697707
 31
0.0
  0
LINE
  5
62
  8
1
 62
     7
 10
-74.413226222625383
 20
-57.689493304482077
 30
0.0
 11
-73.913226222625383
 21
-58.555518708266618
 31
0.0
  0
LINE
  5
63
  8
1
 62
     7
 10
-74.413226222625383
 20
-63.689493304482077
 30
0.0
 11
-74.413226222625383
 21
-57.689493304482077
 31
0.0
  0
LINE
  5
64
  8
1
 62
     7
 10
-73.913226222625383
 20
-62.823467900697707
 30
0.0
 11
-74.413226222625383
 21
-63.689493304482077
 31
0.0
  0
LINE
  5
65
  8
1
 62
     7
 10
-132.6132262226254
 20
56.310506695517923
 30
0.0
 11
-132.6132262226254
 21
-95.689493304482085
 31
0.0
  0
LINE
  5
66
  8
1
 62
     7
 10
-114.9132262226254
 20
-95.689493304482085
 30
0.0
 11
-132.6132262226254
 21
-95.689493304482085
 31
0.0
  0
LINE
  5
67
  8
1
 62
     7
 10
-114.9132262226254
 20
-112.6894933044821
 30
0.0
 11
-114.9132262226254
 21
73.310506695517915
 31
0.0
  0
LINE
  5
68
  8
1
 62
     7
 10
-114.4132262226254
 20
-113.189493304482
 30
0.0
 11
-107.4132262226254
 21
-113.189493304482
 31
0.0
  0
LINE
  5
69
  8
1
 62
     7
 10
-106.9132262226254
 20
-112.6894933044821
 30
0.0
 11
-106.9132262226254
 21
73.310506695517915
 31
0.0
  0
LINE
  5
6A
  8
1
 62
     7
 10
-106.9132262226254
 20
-95.689493304482085
 30
0.0
 11
-80.913226222625383
 21
-95.689493304482085
 31
0.0
  0
LINE
  5
6B
  8
1
 62
     7
 10
-79.913226222625383
 20
55.310506695517923
 30
0.0
 11
-79.913226222625383
 21
-94.689493304482085
 31
0.0
  0
LINE
  5
6C
  8
1
 62
     7
 10
-106.9132262226254
 20
56.310506695517923
 30
0.0
 11
-80.913226222625383
 21
56.310506695517923
 31
0.0
  0
LINE
  5
6D
  8
1
 62
     7
 10
-107.4132262226254
 20
73.810506695517915
 30
0.0
 11
-114.4132262226254
 21
73.810506695517915
 31
0.0
  0
LINE
  5
6E
  8
1
 62
     7
 10
-132.6132262226254
 20
56.310506695517923
 30
0.0
 11
-114.9132262226254
 21
56.310506695517923
 31
0.0
  0
LINE
  5
6F
  8
1
 62
     7
 10
-167.41322622262541
 20
-114.6894933044821
 30
0.0
 11
-157.41322622262541
 21
-114.6894933044821
 31
0.0
  0
LINE
  5
70
  8
1
 62
     7
 10
-167.41322622262541
 20
75.310506695517915
 30
0.0
 11
-157.41322622262541
 21
75.310506695517915
 31
0.0
  0
LINE
  5
71
  8
1
 62
     7
 10
-167.91322622262541
 20
74.810506695517915
 30
0.0
 11
-167.91322622262541
 21
-114.189493304482
 31
0.0
  0
LINE
  5
72
  8
1
 62
     7
 10
-145.41322622262541
 20
-114.6894933044821
 30
0.0
 11
-133.61322622262529
 21
-114.6894933044821
 31
0.0
  0
LINE
  5
73
  8
1
 62
     7
 10
-145.41322622262541
 20
75.310506695517915
 30
0.0
 11
-133.61322622262529
 21
75.310506695517915
 31
0.0
  0
LINE
  5
74
  8
1
 62
     7
 10
-145.91322622262541
 20
74.810506695517915
 30
0.0
 11
-145.91322622262541
 21
-114.189493304482
 31
0.0
  0
LINE
  5
75
  8
1
 62
     7
 10
-156.91322622262541
 20
-95.689493304482085
 30
0.0
 11
-145.91322622262541
 21
-95.689493304482085
 31
0.0
  0
LINE
  5
76
  8
1
 62
     7
 10
-156.91322622262541
 20
56.310506695517923
 30
0.0
 11
-145.91322622262541
 21
56.310506695517923
 31
0.0
  0
LINE
  5
77
  8
1
 62
     7
 10
-153.21322622262531
 20
56.310506695517923
 30
0.0
 11
-153.21322622262531
 21
-95.689493304482085
 31
0.0
  0
LINE
  5
78
  8
1
 62
     7
 10
-149.6132262226254
 20
-95.689493304482085
 30
0.0
 11
-149.6132262226254
 21
56.310506695517923
 31
0.0
  0
LINE
  5
79
  8
1
 62
     7
 10
-97.713226222625408
 20
61.310506695517923
 30
0.0
 11
-96.913226222625369
 21
62.110506695517927
 31
0.0
  0
LINE
  5
7A
  8
1
 62
     7
 10
-96.913226222625369
 20
62.110506695517927
 30
0.0
 11
-96.913226222625369
 21
68.510506695517904
 31
0.0
  0
LINE
  5
7B
  8
1
 62
     7
 10
-96.913226222625369
 20
68.510506695517904
 30
0.0
 11
-97.713226222625408
 21
69.310506695517915
 31
0.0
  0
LINE
  5
7C
  8
1
 62
     7
 10
-97.713226222625408
 20
69.310506695517915
 30
0.0
 11
-99.613226222625414
 21
69.310506695517915
 31
0.0
  0
LINE
  5
7D
  8
1
 62
     7
 10
-97.713226222625408
 20
69.310506695517915
 30
0.0
 11
-97.713226222625408
 21
61.310506695517923
 31
0.0
  0
LINE
  5
7E
  8
1
 62
     3
 10
-96.913226222625369
 20
68.510506695517904
 30
0.0
 11
-99.613226222625414
 21
68.510506695517904
 31
0.0
  0
LINE
  5
7F
  8
1
 62
     7
 10
-131.91322622262541
 20
72.810506695517915
 30
0.0
 11
-131.91322622262541
 21
57.810506695517923
 31
0.0
  0
LINE
  5
80
  8
1
 62
     7
 10
-156.91322622262541
 20
74.810506695517915
 30
0.0
 11
-156.91322622262541
 21
-114.189493304482
 31
0.0
  0
LINE
  5
81
  8
1
 62
     7
 10
-125.4132262226254
 20
70.935506695517915
 30
0.0
 11
-125.4132262226254
 21
59.685506695517923
 31
0.0
  0
LINE
  5
82
  8
1
 62
     7
 10
-126.1349140591124
 20
72.810506695517915
 30
0.0
 11
-133.1132262226254
 21
72.810506695517915
 31
0.0
  0
LINE
  5
83
  8
1
 62
     7
 10
-126.1349140591124
 20
69.060506695517915
 30
0.0
 11
-131.91322622262541
 21
69.060506695517915
 31
0.0
  0
LINE
  5
84
  8
1
 62
     7
 10
-126.1349140591124
 20
61.560506695517923
 30
0.0
 11
-131.91322622262541
 21
61.560506695517923
 31
0.0
  0
LINE
  5
85
  8
1
 62
     7
 10
-126.1349140591124
 20
57.810506695517923
 30
0.0
 11
-133.1132262226254
 21
57.810506695517923
 31
0.0
  0
LINE
  5
86
  8
1
 62
     7
 10
-167.91322622262541
 20
74.810506695517915
 30
0.0
 11
-167.41322622262541
 21
75.310506695517915
 31
0.0
  0
LINE
  5
87
  8
1
 62
     7
 10
-156.91322622262541
 20
74.810506695517915
 30
0.0
 11
-157.41322622262541
 21
75.310506695517915
 31
0.0
  0
LINE
  5
88
  8
1
 62
     7
 10
-145.91322622262541
 20
74.810506695517915
 30
0.0
 11
-145.41322622262541
 21
75.310506695517915
 31
0.0
  0
LINE
  5
89
  8
1
 62
     7
 10
-133.1132262226254
 20
74.810506695517915
 30
0.0
 11
-133.61322622262529
 21
75.310506695517915
 31
0.0
  0
LINE
  5
8A
  8
1
 62
     7
 10
-167.91322622262541
 20
-114.189493304482
 30
0.0
 11
-167.41322622262541
 21
-114.6894933044821
 31
0.0
  0
LINE
  5
8B
  8
1
 62
     7
 10
-156.91322622262541
 20
-114.189493304482
 30
0.0
 11
-157.41322622262541
 21
-114.6894933044821
 31
0.0
  0
LINE
  5
8C
  8
1
 62
     7
 10
-145.91322622262541
 20
-114.189493304482
 30
0.0
 11
-145.41322622262541
 21
-114.6894933044821
 31
0.0
  0
LINE
  5
8D
  8
1
 62
     7
 10
-133.1132262226254
 20
-114.189493304482
 30
0.0
 11
-133.61322622262529
 21
-114.6894933044821
 31
0.0
  0
LINE
  5
8E
  8
1
 62
     7
 10
-114.4132262226254
 20
-113.189493304482
 30
0.0
 11
-114.9132262226254
 21
-112.6894933044821
 31
0.0
  0
LINE
  5
8F
  8
1
 62
     7
 10
-106.9132262226254
 20
-112.6894933044821
 30
0.0
 11
-107.4132262226254
 21
-113.189493304482
 31
0.0
  0
LINE
  5
90
  8
1
 62
     7
 10
-107.4132262226254
 20
73.810506695517915
 30
0.0
 11
-106.9132262226254
 21
73.310506695517915
 31
0.0
  0
LINE
  5
91
  8
1
 62
     7
 10
-114.9132262226254
 20
73.310506695517915
 30
0.0
 11
-114.4132262226254
 21
73.810506695517915
 31
0.0
  0
LINE
  5
92
  8
1
 62
     7
 10
-80.913226222625383
 20
56.310506695517923
 30
0.0
 11
-79.913226222625383
 21
55.310506695517923
 31
0.0
  0
LINE
  5
93
  8
1
 62
     7
 10
-79.913226222625383
 20
-94.689493304482085
 30
0.0
 11
-80.913226222625383
 21
-95.689493304482085
 31
0.0
  0
LINE
  5
94
  8
1
 62
     7
 10
-121.4132262226254
 20
59.685506695517923
 30
0.0
 11
-121.4132262226254
 21
70.935506695517915
 31
0.0
  0
LINE
  5
95
  8
1
 62
     7
 10
-120.6915383861383
 20
57.810506695517923
 30
0.0
 11
-114.9132262226254
 21
57.810506695517923
 31
0.0
  0
LINE
  5
96
  8
1
 62
     7
 10
-120.6915383861383
 20
61.560506695517923
 30
0.0
 11
-114.9132262226254
 21
61.560506695517923
 31
0.0
  0
LINE
  5
97
  8
1
 62
     7
 10
-120.6915383861383
 20
69.060506695517915
 30
0.0
 11
-114.9132262226254
 21
69.060506695517915
 31
0.0
  0
LINE
  5
98
  8
1
 62
     7
 10
-120.6915383861383
 20
72.810506695517915
 30
0.0
 11
-114.9132262226254
 21
72.810506695517915
 31
0.0
  0
LINE
  5
99
  8
1
 62
     7
 10
-121.4132262226254
 20
69.310506695517915
 30
0.0
 11
-125.4132262226254
 21
69.310506695517915
 31
0.0
  0
LINE
  5
9A
  8
1
 62
     3
 10
-121.4132262226254
 20
68.510506695517904
 30
0.0
 11
-125.4132262226254
 21
68.510506695517904
 31
0.0
  0
LINE
  5
9B
  8
1
 62
     7
 10
-125.4132262226254
 20
61.310506695517923
 30
0.0
 11
-121.4132262226254
 21
61.310506695517923
 31
0.0
  0
LINE
  5
9C
  8
1
 62
     3
 10
-125.4132262226254
 20
62.110506695517927
 30
0.0
 11
-121.4132262226254
 21
62.110506695517927
 31
0.0
  0
LINE
  5
9D
  8
1
 62
     7
 10
-156.91322622262541
 20
-104.689493304482
 30
0.0
 11
-154.91322622262541
 21
-102.689493304482
 31
0.0
  0
LINE
  5
9E
  8
1
 62
     7
 10
-156.91322622262541
 20
-106.689493304482
 30
0.0
 11
-154.91322622262541
 21
-104.689493304482
 31
0.0
  0
LINE
  5
9F
  8
1
 62
     7
 10
-156.91322622262541
 20
-96.989493304482096
 30
0.0
 11
-154.91322622262541
 21
-96.989493304482096
 31
0.0
  0
LINE
  5
A0
  8
1
 62
     7
 10
-154.91322622262541
 20
-96.989493304482096
 30
0.0
 11
-154.91322622262541
 21
-112.3894933044821
 31
0.0
  0
LINE
  5
A1
  8
1
 62
     7
 10
-154.91322622262541
 20
-112.3894933044821
 30
0.0
 11
-156.91322622262541
 21
-112.3894933044821
 31
0.0
  0
LINE
  5
A2
  8
1
 62
     7
 10
-154.91322622262541
 20
-98.189493304482085
 30
0.0
 11
-147.41322622262541
 21
-98.189493304482085
 31
0.0
  0
LINE
  5
A3
  8
1
 62
     7
 10
-147.41322622262541
 20
-98.189493304482085
 30
0.0
 11
-146.91322622262541
 21
-99.055518708266604
 31
0.0
  0
LINE
  5
A4
  8
1
 62
     7
 10
-146.91322622262541
 20
-99.055518708266604
 30
0.0
 11
-146.91322622262541
 21
-110.32346790069769
 31
0.0
  0
LINE
  5
A5
  8
1
 62
     7
 10
-146.91322622262541
 20
-110.32346790069769
 30
0.0
 11
-147.41322622262541
 21
-111.1894933044821
 31
0.0
  0
LINE
  5
A6
  8
1
 62
     7
 10
-147.41322622262541
 20
-111.1894933044821
 30
0.0
 11
-154.91322622262541
 21
-111.1894933044821
 31
0.0
  0
LINE
  5
A7
  8
1
 62
     7
 10
-147.41322622262541
 20
-98.189493304482085
 30
0.0
 11
-147.41322622262541
 21
-111.1894933044821
 31
0.0
  0
LINE
  5
A8
  8
1
 62
     7
 10
-179.1132262226254
 20
-100.689493304482
 30
0.0
 11
-179.9132262226253
 21
-101.489493304482
 31
0.0
  0
LINE
  5
A9
  8
1
 62
     7
 10
-179.9132262226253
 20
-101.489493304482
 30
0.0
 11
-179.9132262226253
 21
-107.889493304482
 31
0.0
  0
LINE
  5
AA
  8
1
 62
     7
 10
-179.9132262226253
 20
-107.889493304482
 30
0.0
 11
-179.1132262226254
 21
-108.689493304482
 31
0.0
  0
LINE
  5
AB
  8
1
 62
     7
 10
-179.1132262226254
 20
-108.689493304482
 30
0.0
 11
-167.91322622262541
 21
-108.689493304482
 31
0.0
  0
LINE
  5
AC
  8
1
 62
     7
 10
-179.1132262226254
 20
-100.689493304482
 30
0.0
 11
-179.1132262226254
 21
-108.689493304482
 31
0.0
  0
LINE
  5
AD
  8
1
 62
     3
 10
-179.9132262226253
 20
-101.489493304482
 30
0.0
 11
-167.91322622262541
 21
-101.489493304482
 31
0.0
  0
LINE
  5
AE
  8
1
 62
     3
 10
-179.9132262226253
 20
-107.889493304482
 30
0.0
 11
-167.91322622262541
 21
-107.889493304482
 31
0.0
  0
LINE
  5
AF
  8
1
  6
DASHDOT
 62
     3
 10
-185.9132262226253
 20
-104.689493304482
 30
0.0
 11
-140.91322622262541
 21
-104.689493304482
 31
0.0
  0
LINE
  5
B0
  8
1
 62
     7
 10
-99.013226222625406
 20
104.5638293648398
 30
0.0
 11
-99.013226222625406
 21
101.5638293648398
 31
0.0
  0
LINE
  5
B1
  8
1
 62
     7
 10
-99.213226222625408
 20
104.5638293648398
 30
0.0
 11
-99.213226222625408
 21
101.5638293648398
 31
0.0
  0
LINE
  5
B2
  8
1
 62
     7
 10
-99.413226222625369
 20
104.5638293648398
 30
0.0
 11
-99.413226222625369
 21
101.5638293648398
 31
0.0
  0
LINE
  5
B3
  8
1
 62
     7
 10
-99.613226222625414
 20
104.5638293648398
 30
0.0
 11
-99.613226222625414
 21
101.5638293648398
 31
0.0
  0
LINE
  5
B4
  8
1
 62
     7
 10
-99.813226222625403
 20
104.5638293648398
 30
0.0
 11
-99.813226222625403
 21
101.5638293648398
 31
0.0
  0
LINE
  5
B5
  8
1
 62
     7
 10
-100.4132262226254
 20
101.5638293648398
 30
0.0
 11
-98.413226222625482
 21
101.5638293648398
 31
0.0
  0
LINE
  5
B6
  8
1
 62
     7
 10
-98.413226222625482
 20
101.5638293648398
 30
0.0
 11
-98.413226222625383
 21
69.310506695517915
 31
0.0
  0
LINE
  5
B7
  8
1
 62
     7
 10
-100.4132262226254
 20
56.310506695517923
 30
0.0
 11
-100.4132262226254
 21
59.883155786243812
 31
0.0
  0
LINE
  5
B8
  8
1
 62
     7
 10
-98.413226222625383
 20
56.310506695517923
 30
0.0
 11
-98.413226222625383
 21
61.310506695517923
 31
0.0
  0
LINE
  5
B9
  8
1
 62
     3
 10
110.0867737773745
 20
-19.68949330448207
 30
0.0
 11
120.0867737773746
 21
-19.68949330448207
 31
0.0
  0
LINE
  5
BA
  8
1
 62
     3
 10
12.08677377737461
 20
-19.68949330448207
 30
0.0
 11
22.08677377737461
 21
-19.68949330448207
 31
0.0
  0
LINE
  5
BB
  8
1
  6
DASHDOT
 62
     3
 10
52.461355008032001
 20
-19.68949330448207
 30
0.0
 11
64.051489770615049
 21
-19.68949330448207
 31
0.0
  0
LINE
  5
BC
  8
1
  6
DASHDOT
 62
     3
 10
58.086773777374617
 20
-13.740246167085999
 30
0.0
 11
58.086773777374617
 21
-24.61714186735702
 31
0.0
  0
LINE
  5
BD
  8
1
 62
     7
 10
57.632572742207287
 20
-65.801678226844615
 30
0.0
 11
58.382572742207287
 21
-55.801678226844608
 31
0.0
  0
LINE
  5
BE
  8
1
 62
     7
 10
57.662191276339627
 20
-65.414527038112624
 30
0.0
 11
59.52689715869252
 21
-55.414527038112631
 31
0.0
  0
LINE
  5
BF
  8
1
 62
     7
 10
60.611356278409687
 20
-65.964459570851488
 30
0.0
 11
62.476062160762638
 21
-55.964459570851602
 31
0.0
  0
LINE
  5
C0
  8
1
 62
     7
 10
61.391603041045407
 20
-65.414527038112624
 30
0.0
 11
63.256308923398421
 21
-55.414527038112631
 31
0.0
  0
LINE
  5
C1
  8
1
 62
     7
 10
64.340768043115531
 20
-65.964459570851488
 30
0.0
 11
66.205473925468524
 21
-55.964459570851602
 31
0.0
  0
LINE
  5
C2
  8
1
 62
     7
 10
65.121014805751315
 20
-65.414527038112624
 30
0.0
 11
66.985720688104323
 21
-55.414527038112631
 31
0.0
  0
LINE
  5
C3
  8
1
 62
     7
 10
68.070179807821432
 20
-65.964459570851488
 30
0.0
 11
69.934885690174383
 21
-55.964459570851602
 31
0.0
  0
LINE
  5
C4
  8
1
 62
     7
 10
68.850426570457216
 20
-65.414527038112624
 30
0.0
 11
70.715132452810224
 21
-55.414527038112631
 31
0.0
  0
LINE
  5
C5
  8
1
 62
     7
 10
71.799591572527333
 20
-65.964459570851488
 30
0.0
 11
73.664297454880284
 21
-55.964459570851602
 31
0.0
  0
LINE
  5
C6
  8
1
 62
     7
 10
72.579838335163004
 20
-65.414527038112624
 30
0.0
 11
74.444544217516011
 21
-55.414527038112631
 31
0.0
  0
LINE
  5
C7
  8
1
 62
     7
 10
75.529003337233235
 20
-65.964459570851488
 30
0.0
 11
77.393709219586128
 21
-55.964459570851602
 31
0.0
  0
LINE
  5
C8
  8
1
 62
     7
 10
76.309250099869018
 20
-65.414527038112624
 30
0.0
 11
78.173955982221912
 21
-55.414527038112631
 31
0.0
  0
LINE
  5
C9
  8
1
 62
     7
 10
79.25841510193915
 20
-65.964459570851488
 30
0.0
 11
81.123120984292029
 21
-55.964459570851602
 31
0.0
  0
LINE
  5
CA
  8
1
 62
     7
 10
80.038661864574905
 20
-65.414527038112624
 30
0.0
 11
81.903367746927813
 21
-55.414527038112631
 31
0.0
  0
LINE
  5
CB
  8
1
 62
     7
 10
82.987826866645051
 20
-65.964459570851488
 30
0.0
 11
84.85253274899793
 21
-55.964459570851602
 31
0.0
  0
LINE
  5
CC
  8
1
 62
     7
 10
83.768073629280707
 20
-65.414527038112624
 30
0.0
 11
85.632779511633601
 21
-55.414527038112631
 31
0.0
  0
LINE
  5
CD
  8
1
 62
     7
 10
86.71723863135081
 20
-65.964459570851488
 30
0.0
 11
88.581944513703817
 21
-55.964459570851602
 31
0.0
  0
LINE
  5
CE
  8
1
 62
     7
 10
87.497485393986608
 20
-65.414527038112624
 30
0.0
 11
89.362191276339487
 21
-55.414527038112631
 31
0.0
  0
LINE
  5
CF
  8
1
 62
     7
 10
90.446650396056711
 20
-65.964459570851488
 30
0.0
 11
92.311356278409704
 21
-55.964459570851602
 31
0.0
  0
LINE
  5
D0
  8
1
 62
     7
 10
91.590974812541916
 20
-65.577308382119611
 30
0.0
 11
92.340974812541901
 21
-55.577308382119611
 31
0.0
  0
LINE
  5
D1
  8
1
 62
     7
 10
57.386773777374628
 20
-67.439493304482085
 30
0.0
 11
57.386773777374628
 21
-95.689493304482085
 31
0.0
  0
LINE
  5
D2
  8
1
 62
     7
 10
57.386773777374628
 20
-45.689493304481957
 30
0.0
 11
57.386773777374628
 21
-53.939493304482077
 31
0.0
  0
LINE
  5
D3
  8
1
 62
     7
 10
44.08677377737461
 20
-45.689493304481957
 30
0.0
 11
44.08677377737461
 21
-114.189493304482
 31
0.0
  0
LINE
  5
D4
  8
1
 62
     7
 10
73.086773777374617
 20
-44.689493304481957
 30
0.0
 11
72.086773777374617
 21
-45.689493304481957
 31
0.0
  0
LINE
  5
D5
  8
1
 62
     7
 10
72.086773777374617
 20
-45.689493304481957
 30
0.0
 11
42.08677377737461
 21
-45.689493304481957
 31
0.0
  0
LINE
  5
D6
  8
1
 62
     7
 10
42.08677377737461
 20
-48.889493304482023
 30
0.0
 11
42.08677377737461
 21
-45.689493304481957
 31
0.0
  0
LINE
  5
D7
  8
1
 62
     7
 10
41.58677377737461
 20
-49.389493304482031
 30
0.0
 11
42.08677377737461
 21
-48.889493304482023
 31
0.0
  0
LINE
  5
D8
  8
1
 62
     7
 10
73.086773777374617
 20
-35.689493304481971
 30
0.0
 11
33.086773777374617
 21
-35.689493304481971
 31
0.0
  0
LINE
  5
D9
  8
1
 62
     7
 10
42.08677377737461
 20
-46.089493304481998
 30
0.0
 11
33.086773777374617
 21
-46.089493304481998
 31
0.0
  0
LINE
  5
DA
  8
1
 62
     7
 10
33.58677377737461
 20
-49.389493304482031
 30
0.0
 11
41.58677377737461
 21
-49.389493304482031
 31
0.0
  0
LINE
  5
DB
  8
1
 62
     7
 10
33.086773777374617
 20
-48.889493304482023
 30
0.0
 11
33.58677377737461
 21
-49.389493304482031
 31
0.0
  0
LINE
  5
DC
  8
1
 62
     7
 10
269.12299486530412
 20
47.105643293902169
 30
0.0
 11
237.10419620848009
 21
102.5638293648398
 31
0.0
  0
LINE
  5
DD
  8
1
  6
DASHDOT
 62
     3
 10
54.914590752592282
 20
-60.689493304482077
 30
0.0
 11
120.2375006451429
 21
-60.689493304482077
 31
0.0
  0
LINE
  5
DE
  8
1
 62
     7
 10
115.0867737773745
 20
-57.689493304482077
 30
0.0
 11
115.5867737773745
 21
-57.689493304482077
 31
0.0
  0
LINE
  5
DF
  8
1
 62
     3
 10
110.0867737773745
 20
-58.2894933044821
 30
0.0
 11
96.486773777374594
 21
-58.2894933044821
 31
0.0
  0
LINE
  5
E0
  8
1
 62
     3
 10
110.0867737773745
 20
-63.089493304482119
 30
0.0
 11
96.486773777374594
 21
-63.089493304482119
 31
0.0
  0
LINE
  5
E1
  8
1
 62
     7
 10
110.0867737773745
 20
-63.689493304482077
 30
0.0
 11
97.086773777374646
 21
-63.689493304482077
 31
0.0
  0
LINE
  5
E2
  8
1
 62
     7
 10
114.5960260485634
 20
-66.439493304482099
 30
0.0
 11
110.0867737773745
 21
-66.439493304482099
 31
0.0
  0
LINE
  5
E3
  8
1
 62
     7
 10
114.5960260485634
 20
-63.56449330448207
 30
0.0
 11
110.0867737773745
 21
-63.56449330448207
 31
0.0
  0
LINE
  5
E4
  8
1
 62
     7
 10
114.5960260485634
 20
-57.81449330448207
 30
0.0
 11
110.0867737773745
 21
-57.81449330448207
 31
0.0
  0
LINE
  5
E5
  8
1
 62
     7
 10
114.5960260485634
 20
-54.939493304482077
 30
0.0
 11
110.0867737773745
 21
-54.939493304482077
 31
0.0
  0
LINE
  5
E6
  8
1
 62
     7
 10
115.0867737773745
 20
-56.37699330448207
 30
0.0
 11
115.0867737773745
 21
-65.001993304482099
 31
0.0
  0
LINE
  5
E7
  8
1
 62
     7
 10
102.98677377737449
 20
-63.089493304482119
 30
0.0
 11
102.98677377737449
 21
-67.439493304482085
 31
0.0
  0
LINE
  5
E8
  8
1
 62
     3
 10
115.93318393888831
 20
-58.2894933044821
 30
0.0
 11
115.0867737773745
 21
-58.2894933044821
 31
0.0
  0
LINE
  5
E9
  8
1
 62
     3
 10
115.93318393888831
 20
-63.089493304482119
 30
0.0
 11
115.0867737773745
 21
-63.089493304482119
 31
0.0
  0
LINE
  5
EA
  8
1
 62
     7
 10
97.086773777374646
 20
-63.689493304482077
 30
0.0
 11
97.086773777374646
 21
-57.689493304482077
 31
0.0
  0
LINE
  5
EB
  8
1
 62
     7
 10
97.086773777374646
 20
-57.689493304482077
 30
0.0
 11
110.0867737773745
 21
-57.689493304482077
 31
0.0
  0
LINE
  5
EC
  8
1
 62
     7
 10
96.086773777374646
 20
-58.689493304482077
 30
0.0
 11
97.086773777374646
 21
-57.689493304482077
 31
0.0
  0
LINE
  5
ED
  8
1
 62
     7
 10
96.086773777374646
 20
-62.689493304482077
 30
0.0
 11
96.086773777374646
 21
-58.689493304482077
 31
0.0
  0
LINE
  5
EE
  8
1
 62
     7
 10
97.086773777374646
 20
-63.689493304482077
 30
0.0
 11
96.086773777374646
 21
-62.689493304482077
 31
0.0
  0
LINE
  5
EF
  8
1
 62
     7
 10
115.5867737773745
 20
-63.689493304482077
 30
0.0
 11
115.0867737773745
 21
-63.689493304482077
 31
0.0
  0
LINE
  5
F0
  8
1
 62
     7
 10
116.0867737773745
 20
-58.555518708266618
 30
0.0
 11
116.0867737773745
 21
-62.823467900697707
 31
0.0
  0
LINE
  5
F1
  8
1
 62
     7
 10
115.5867737773745
 20
-57.689493304482077
 30
0.0
 11
116.0867737773745
 21
-58.555518708266618
 31
0.0
  0
LINE
  5
F2
  8
1
 62
     7
 10
115.5867737773745
 20
-63.689493304482077
 30
0.0
 11
115.5867737773745
 21
-57.689493304482077
 31
0.0
  0
LINE
  5
F3
  8
1
 62
     7
 10
116.0867737773745
 20
-62.823467900697707
 30
0.0
 11
115.5867737773745
 21
-63.689493304482077
 31
0.0
  0
LINE
  5
F4
  8
1
 62
     7
 10
102.98677377737449
 20
-67.439493304482085
 30
0.0
 11
93.086773777374631
 21
-67.439493304482085
 31
0.0
  0
LINE
  5
F5
  8
1
 62
     7
 10
102.98677377737449
 20
-53.939493304482077
 30
0.0
 11
102.98677377737449
 21
-58.2894933044821
 31
0.0
  0
LINE
  5
F6
  8
1
 62
     7
 10
96.086773777374646
 20
-54.18949330448207
 30
0.0
 11
93.086773777374631
 21
-54.18949330448207
 31
0.0
  0
LINE
  5
F7
  8
1
 62
     7
 10
96.086773777374646
 20
-67.189493304482099
 30
0.0
 11
96.086773777374646
 21
-54.18949330448207
 31
0.0
  0
LINE
  5
F8
  8
1
 62
     7
 10
93.086773777374631
 20
-67.189493304482099
 30
0.0
 11
96.086773777374646
 21
-67.189493304482099
 31
0.0
  0
LINE
  5
F9
  8
1
 62
     7
 10
57.386773777374628
 20
-53.939493304482077
 30
0.0
 11
102.98677377737449
 21
-53.939493304482077
 31
0.0
  0
LINE
  5
FA
  8
1
 62
     7
 10
93.086773777374631
 20
-67.439493304482085
 30
0.0
 11
57.386773777374628
 21
-67.439493304482085
 31
0.0
  0
LINE
  5
FB
  8
1
 62
     7
 10
75.086773777374617
 20
-97.189493304482085
 30
0.0
 11
83.086773777374617
 21
-97.189493304482085
 31
0.0
  0
LINE
  5
FC
  8
1
 62
     7
 10
57.386773777374628
 20
56.310506695517923
 30
0.0
 11
57.386773777374628
 21
6.3105066955179154
 31
0.0
  0
LINE
  5
FD
  8
1
 62
     7
 10
75.086773777374617
 20
-95.689493304482085
 30
0.0
 11
57.386773777374628
 21
-95.689493304482085
 31
0.0
  0
LINE
  5
FE
  8
1
 62
     7
 10
75.086773777374617
 20
-95.689493304482085
 30
0.0
 11
75.086773777374617
 21
-112.6894933044821
 31
0.0
  0
LINE
  5
FF
  8
1
 62
     7
 10
75.586773777374617
 20
-113.189493304482
 30
0.0
 11
82.586773777374603
 21
-113.189493304482
 31
0.0
  0
LINE
  5
100
  8
1
 62
     7
 10
83.086773777374617
 20
-95.689493304482085
 30
0.0
 11
83.086773777374617
 21
-112.6894933044821
 31
0.0
  0
LINE
  5
101
  8
1
 62
     7
 10
83.086773777374617
 20
-95.689493304482085
 30
0.0
 11
109.0867737773745
 21
-95.689493304482085
 31
0.0
  0
LINE
  5
102
  8
1
 62
     7
 10
110.0867737773745
 20
55.310506695517923
 30
0.0
 11
110.0867737773745
 21
-94.689493304482085
 31
0.0
  0
LINE
  5
103
  8
1
 62
     7
 10
83.086773777374617
 20
56.310506695517923
 30
0.0
 11
109.0867737773745
 21
56.310506695517923
 31
0.0
  0
LINE
  5
104
  8
1
 62
     7
 10
83.086773777374617
 20
56.310506695517923
 30
0.0
 11
83.086773777374617
 21
73.310506695517915
 31
0.0
  0
LINE
  5
105
  8
1
 62
     7
 10
82.586773777374603
 20
73.810506695517915
 30
0.0
 11
75.586773777374617
 21
73.810506695517915
 31
0.0
  0
LINE
  5
106
  8
1
 62
     7
 10
75.086773777374617
 20
56.310506695517923
 30
0.0
 11
75.086773777374617
 21
73.310506695517915
 31
0.0
  0
LINE
  5
107
  8
1
 62
     7
 10
57.386773777374628
 20
56.310506695517923
 30
0.0
 11
75.086773777374617
 21
56.310506695517923
 31
0.0
  0
LINE
  5
108
  8
1
 62
     7
 10
57.386773777374628
 20
-49.68949330448207
 30
0.0
 11
110.0867737773745
 21
-49.68949330448207
 31
0.0
  0
LINE
  5
109
  8
1
 62
     7
 10
57.386773777374628
 20
10.310506695517921
 30
0.0
 11
110.0867737773745
 21
10.310506695517921
 31
0.0
  0
LINE
  5
10A
  8
1
  6
DASHED
 62
     7
 10
322.27778388417983
 20
-17.289493304482111
 30
0.0
 11
321.19675983080782
 21
-17.289493304482111
 31
0.0
  0
LINE
  5
10B
  8
1
  6
DASHED
 62
     7
 10
322.27778388417983
 20
-22.089493304482119
 30
0.0
 11
321.19675983080782
 21
-22.089493304482119
 31
0.0
  0
LINE
  5
10C
  8
1
  6
DASHED
 62
     7
 10
327.22419404569359
 20
-22.089493304482119
 30
0.0
 11
331.2667776846348
 21
-22.089493304482119
 31
0.0
  0
LINE
  5
10D
  8
1
  6
DASHED
 62
     7
 10
327.22419404569359
 20
-17.289493304482111
 30
0.0
 11
331.2667776846348
 21
-17.289493304482111
 31
0.0
  0
LINE
  5
10E
  8
1
  6
DASHED
 62
     3
 10
322.87778388417968
 20
-22.689493304482081
 30
0.0
 11
321.09401752968148
 21
-22.689493304482081
 31
0.0
  0
LINE
  5
10F
  8
1
  6
DASHED
 62
     3
 10
322.87778388417968
 20
-16.689493304482081
 30
0.0
 11
321.09401752968148
 21
-16.689493304482081
 31
0.0
  0
LINE
  5
110
  8
1
  6
DASHED
 62
     3
 10
326.87778388417968
 20
-16.689493304482081
 30
0.0
 11
331.20412702446981
 21
-16.689493304482081
 31
0.0
  0
LINE
  5
111
  8
1
  6
DASHED
 62
     3
 10
326.87778388417968
 20
-22.689493304482081
 30
0.0
 11
331.20412702446981
 21
-22.689493304482081
 31
0.0
  0
LINE
  5
112
  8
1
  6
DASHED
 62
     3
 10
308.37778388417968
 20
1.3105066955179141
 30
0.0
 11
308.37778388417968
 21
-0.1894933044820846
 31
0.0
  0
LINE
  5
113
  8
1
  6
DASHED
 62
     3
 10
308.37778388417968
 20
6.136849835807821
 30
0.0
 11
308.37778388417968
 21
5.3105066955179137
 31
0.0
  0
LINE
  5
114
  8
1
  6
DASHED
 62
     3
 10
302.37778388417979
 20
1.3105066955179141
 30
0.0
 11
302.37778388417979
 21
-0.1894933044820846
 31
0.0
  0
LINE
  5
115
  8
1
  6
DASHED
 62
     3
 10
302.37778388417979
 20
6.136849835807821
 30
0.0
 11
302.37778388417979
 21
5.3105066955179137
 31
0.0
  0
LINE
  5
116
  8
1
  6
DASHED
 62
     7
 10
307.77778388417983
 20
5.6569168570317174
 30
0.0
 11
307.77778388417983
 21
6.1995004959729281
 31
0.0
  0
LINE
  5
117
  8
1
  6
DASHED
 62
     7
 10
302.97778388417981
 20
5.6569168570317174
 30
0.0
 11
302.97778388417981
 21
6.1995004959729281
 31
0.0
  0
LINE
  5
118
  8
1
  6
DASHED
 62
     7
 10
302.97778388417981
 20
0.7105066955178927
 30
0.0
 11
302.97778388417981
 21
-0.1894933044820846
 31
0.0
  0
LINE
  5
119
  8
1
  6
DASHED
 62
     7
 10
307.77778388417983
 20
0.7105066955178927
 30
0.0
 11
307.77778388417983
 21
-0.1894933044820846
 31
0.0
  0
LINE
  5
11A
  8
1
  6
DASHED
 62
     3
 10
302.97778388417981
 20
5.6569168570317174
 30
0.0
 11
302.97778388417981
 21
0.7105066955178927
 31
0.0
  0
LINE
  5
11B
  8
1
  6
DASHED
 62
     3
 10
307.77778388417983
 20
5.6569168570317174
 30
0.0
 11
307.77778388417983
 21
0.7105066955178927
 31
0.0
  0
LINE
  5
11C
  8
1
  6
DASHED
 62
     7
 10
303.87778388417968
 20
-0.1894933044820846
 30
0.0
 11
302.37778388417979
 21
1.3105066955179141
 31
0.0
  0
LINE
  5
11D
  8
1
  6
DASHED
 62
     7
 10
308.37778388417968
 20
1.3105066955179141
 30
0.0
 11
306.87778388417979
 21
-0.1894933044820846
 31
0.0
  0
LINE
  5
11E
  8
1
  6
DASHED
 62
     7
 10
302.37778388417979
 20
1.3105066955179141
 30
0.0
 11
302.37778388417979
 21
5.3105066955179137
 31
0.0
  0
LINE
  5
11F
  8
1
  6
DASHED
 62
     7
 10
308.37778388417968
 20
1.3105066955179141
 30
0.0
 11
302.37778388417979
 21
1.3105066955179141
 31
0.0
  0
LINE
  5
120
  8
1
  6
DASHED
 62
     7
 10
308.37778388417968
 20
5.3105066955179137
 30
0.0
 11
308.37778388417968
 21
1.3105066955179141
 31
0.0
  0
LINE
  5
121
  8
1
  6
DASHED
 62
     7
 10
303.2438092879641
 20
5.8105066955179154
 30
0.0
 11
307.51175848039532
 21
5.8105066955179154
 31
0.0
  0
LINE
  5
122
  8
1
  6
DASHED
 62
     7
 10
302.37778388417979
 20
5.3105066955179137
 30
0.0
 11
303.2438092879641
 21
5.8105066955179154
 31
0.0
  0
LINE
  5
123
  8
1
  6
DASHED
 62
     7
 10
308.37778388417968
 20
5.3105066955179137
 30
0.0
 11
302.37778388417979
 21
5.3105066955179137
 31
0.0
  0
LINE
  5
124
  8
1
  6
DASHED
 62
     7
 10
307.51175848039532
 20
5.8105066955179154
 30
0.0
 11
308.37778388417968
 21
5.3105066955179137
 31
0.0
  0
LINE
  5
125
  8
1
  6
DASHED
 62
     3
 10
327.22419404569359
 20
-17.289493304482111
 30
0.0
 11
322.27778388417983
 21
-17.289493304482111
 31
0.0
  0
LINE
  5
126
  8
1
  6
DASHED
 62
     3
 10
327.22419404569359
 20
-22.089493304482119
 30
0.0
 11
322.27778388417983
 21
-22.089493304482119
 31
0.0
  0
LINE
  5
127
  8
1
  6
DASHED
 62
     7
 10
321.37778388417979
 20
-18.18949330448207
 30
0.0
 11
322.87778388417968
 21
-16.689493304482081
 31
0.0
  0
LINE
  5
128
  8
1
  6
DASHED
 62
     7
 10
321.37778388417979
 20
-21.18949330448207
 30
0.0
 11
321.37778388417979
 21
-18.18949330448207
 31
0.0
  0
LINE
  5
129
  8
1
  6
DASHED
 62
     7
 10
322.87778388417968
 20
-22.689493304482081
 30
0.0
 11
321.37778388417979
 21
-21.18949330448207
 31
0.0
  0
LINE
  5
12A
  8
1
  6
DASHED
 62
     7
 10
322.87778388417968
 20
-16.689493304482081
 30
0.0
 11
326.87778388417968
 21
-16.689493304482081
 31
0.0
  0
LINE
  5
12B
  8
1
  6
DASHED
 62
     7
 10
322.87778388417968
 20
-22.689493304482081
 30
0.0
 11
322.87778388417968
 21
-16.689493304482081
 31
0.0
  0
LINE
  5
12C
  8
1
  6
DASHED
 62
     7
 10
326.87778388417968
 20
-22.689493304482081
 30
0.0
 11
322.87778388417968
 21
-22.689493304482081
 31
0.0
  0
LINE
  5
12D
  8
1
  6
DASHED
 62
     7
 10
327.37778388417979
 20
-17.555518708266611
 30
0.0
 11
327.37778388417979
 21
-21.823467900697711
 31
0.0
  0
LINE
  5
12E
  8
1
  6
DASHED
 62
     7
 10
326.87778388417968
 20
-16.689493304482081
 30
0.0
 11
327.37778388417979
 21
-17.555518708266611
 31
0.0
  0
LINE
  5
12F
  8
1
  6
DASHED
 62
     7
 10
326.87778388417968
 20
-22.689493304482081
 30
0.0
 11
326.87778388417968
 21
-16.689493304482081
 31
0.0
  0
LINE
  5
130
  8
1
  6
DASHED
 62
     7
 10
327.37778388417979
 20
-21.823467900697711
 30
0.0
 11
326.87778388417968
 21
-22.689493304482081
 31
0.0
  0
LINE
  5
131
  8
1
 62
     7
 10
300.37778388417979
 20
-0.1894933044820846
 30
0.0
 11
300.37778388417979
 21
-4.4908091509113879
 31
0.0
  0
LINE
  5
132
  8
1
 62
     7
 10
310.37778388417968
 20
-0.1894933044820846
 30
0.0
 11
300.37778388417979
 21
-0.1894933044820846
 31
0.0
  0
LINE
  5
133
  8
1
 62
     7
 10
310.37778388417968
 20
-4.4908091509113879
 30
0.0
 11
310.37778388417968
 21
-0.1894933044820846
 31
0.0
  0
LINE
  5
134
  8
1
 62
     7
 10
385.48994320585712
 20
-65.942270054214703
 30
0.0
 11
385.48994320585712
 21
-58.436716554749573
 31
0.0
  0
LINE
  5
135
  8
1
 62
     7
 10
378.98994320585712
 20
-69.695046803947321
 30
0.0
 11
385.48994320585712
 21
-65.942270054214703
 31
0.0
  0
LINE
  5
136
  8
1
 62
     7
 10
372.48994320585712
 20
-65.942270054214703
 30
0.0
 11
378.98994320585712
 21
-69.695046803947321
 31
0.0
  0
LINE
  5
137
  8
1
 62
     7
 10
372.48994320585712
 20
-58.436716554749573
 30
0.0
 11
372.48994320585712
 21
-65.942270054214703
 31
0.0
  0
LINE
  5
138
  8
1
 62
     7
 10
378.98994320585712
 20
-54.683939805017019
 30
0.0
 11
372.48994320585712
 21
-58.436716554749573
 31
0.0
  0
LINE
  5
139
  8
1
 62
     7
 10
385.48994320585712
 20
-58.436716554749573
 30
0.0
 11
378.98994320585712
 21
-54.683939805017019
 31
0.0
  0
LINE
  5
13A
  8
1
 62
     7
 10
238.2656245625025
 20
-65.942270054214703
 30
0.0
 11
238.2656245625025
 21
-58.436716554749573
 31
0.0
  0
LINE
  5
13B
  8
1
 62
     7
 10
231.7656245625025
 20
-69.695046803947321
 30
0.0
 11
238.2656245625025
 21
-65.942270054214703
 31
0.0
  0
LINE
  5
13C
  8
1
 62
     7
 10
225.2656245625025
 20
-65.942270054214703
 30
0.0
 11
231.7656245625025
 21
-69.695046803947321
 31
0.0
  0
LINE
  5
13D
  8
1
 62
     7
 10
225.2656245625025
 20
-58.436716554749573
 30
0.0
 11
225.2656245625025
 21
-65.942270054214703
 31
0.0
  0
LINE
  5
13E
  8
1
 62
     7
 10
231.7656245625025
 20
-54.683939805017019
 30
0.0
 11
225.2656245625025
 21
-58.436716554749573
 31
0.0
  0
LINE
  5
13F
  8
1
 62
     7
 10
238.2656245625025
 20
-58.436716554749573
 30
0.0
 11
231.7656245625025
 21
-54.683939805017019
 31
0.0
  0
LINE
  5
140
  8
1
 62
     7
 10
311.87778388417968
 20
61.55772994578529
 30
0.0
 11
311.87778388417968
 21
69.06328344525042
 31
0.0
  0
LINE
  5
141
  8
1
 62
     7
 10
305.37778388417968
 20
57.804953196052672
 30
0.0
 11
311.87778388417968
 21
61.55772994578529
 31
0.0
  0
LINE
  5
142
  8
1
 62
     7
 10
298.87778388417979
 20
61.55772994578529
 30
0.0
 11
305.37778388417968
 21
57.804953196052672
 31
0.0
  0
LINE
  5
143
  8
1
 62
     7
 10
298.87778388417979
 20
69.06328344525042
 30
0.0
 11
298.87778388417979
 21
61.55772994578529
 31
0.0
  0
LINE
  5
144
  8
1
 62
     7
 10
305.37778388417968
 20
72.816060194982981
 30
0.0
 11
298.87778388417979
 21
69.06328344525042
 31
0.0
  0
LINE
  5
145
  8
1
 62
     7
 10
311.87778388417968
 20
69.06328344525042
 30
0.0
 11
305.37778388417968
 21
72.816060194982981
 31
0.0
  0
LINE
  5
146
  8
1
 62
     7
 10
345.8848254393418
 20
-2.0762446504302829
 30
0.0
 11
345.8848254393418
 21
3.6972580414660001
 31
0.0
  0
LINE
  5
147
  8
1
 62
     7
 10
340.8848254393418
 20
-4.9629959963784227
 30
0.0
 11
345.8848254393418
 21
-2.0762446504302829
 31
0.0
  0
LINE
  5
148
  8
1
 62
     7
 10
335.88482543934168
 20
-2.0762446504302829
 30
0.0
 11
340.8848254393418
 21
-4.9629959963784227
 31
0.0
  0
LINE
  5
149
  8
1
 62
     7
 10
335.88482543934168
 20
3.6972580414660001
 30
0.0
 11
335.88482543934168
 21
-2.0762446504302829
 31
0.0
  0
LINE
  5
14A
  8
1
 62
     7
 10
340.8848254393418
 20
6.5840093874140839
 30
0.0
 11
335.88482543934168
 21
3.6972580414660001
 31
0.0
  0
LINE
  5
14B
  8
1
 62
     7
 10
345.8848254393418
 20
3.6972580414660001
 30
0.0
 11
340.8848254393418
 21
6.5840093874140839
 31
0.0
  0
LINE
  5
14C
  8
1
 62
     7
 10
310.37778388417968
 20
-63.576244650430269
 30
0.0
 11
310.37778388417968
 21
-57.802741958534
 31
0.0
  0
LINE
  5
14D
  8
1
 62
     7
 10
305.37778388417968
 20
-66.462995996378424
 30
0.0
 11
310.37778388417968
 21
-63.576244650430269
 31
0.0
  0
LINE
  5
14E
  8
1
 62
     7
 10
300.37778388417979
 20
-63.576244650430269
 30
0.0
 11
305.37778388417968
 21
-66.462995996378424
 31
0.0
  0
LINE
  5
14F
  8
1
 62
     7
 10
300.37778388417979
 20
-57.802741958534
 30
0.0
 11
300.37778388417979
 21
-63.576244650430269
 31
0.0
  0
LINE
  5
150
  8
1
 62
     7
 10
305.37778388417968
 20
-54.915990612585929
 30
0.0
 11
300.37778388417979
 21
-57.802741958534
 31
0.0
  0
LINE
  5
151
  8
1
 62
     7
 10
310.37778388417968
 20
-57.802741958534
 30
0.0
 11
305.37778388417968
 21
-54.915990612585929
 31
0.0
  0
LINE
  5
152
  8
1
 62
     7
 10
274.87074232901779
 20
-2.0762446504302829
 30
0.0
 11
274.87074232901779
 21
3.6972580414660001
 31
0.0
  0
LINE
  5
153
  8
1
 62
     7
 10
269.87074232901779
 20
-4.9629959963784227
 30
0.0
 11
274.87074232901779
 21
-2.0762446504302829
 31
0.0
  0
LINE
  5
154
  8
1
 62
     7
 10
264.87074232901779
 20
-2.0762446504302829
 30
0.0
 11
269.87074232901779
 21
-4.9629959963784227
 31
0.0
  0
LINE
  5
155
  8
1
 62
     7
 10
264.87074232901779
 20
3.6972580414660001
 30
0.0
 11
264.87074232901779
 21
-2.0762446504302829
 31
0.0
  0
LINE
  5
156
  8
1
 62
     7
 10
269.87074232901779
 20
6.5840093874140839
 30
0.0
 11
264.87074232901779
 21
3.6972580414660001
 31
0.0
  0
LINE
  5
157
  8
1
 62
     7
 10
274.87074232901779
 20
3.6972580414660001
 30
0.0
 11
269.87074232901779
 21
6.5840093874140839
 31
0.0
  0
LINE
  5
158
  8
1
 62
     7
 10
315.37778388417979
 20
-107.1894933044821
 30
0.0
 11
315.37778388417979
 21
-112.6531958985591
 31
0.0
  0
LINE
  5
159
  8
1
 62
     7
 10
295.37778388417968
 20
-112.6531958985591
 30
0.0
 11
295.37778388417968
 21
-107.1894933044821
 31
0.0
  0
LINE
  5
15A
  8
1
 62
     7
 10
376.15500671531822
 20
32.720760733362233
 30
0.0
 11
380.88671196051178
 21
35.4526120304008
 31
0.0
  0
LINE
  5
15B
  8
1
 62
     7
 10
224.60056105304139
 20
15.400252657673491
 30
0.0
 11
219.86885580784761
 21
18.132103954712019
 31
0.0
  0
LINE
  5
15C
  8
1
  6
DASHDOT
 62
     3
 10
369.03065106233578
 20
17.060506695517919
 30
0.0
 11
389.901863293541
 21
29.110506695517799
 31
0.0
  0
LINE
  5
15D
  8
1
  6
DASHDOT
 62
     3
 10
241.72491670602361
 20
17.060506695517919
 30
0.0
 11
220.8537044748187
 21
29.11050669551793
 31
0.0
  0
LINE
  5
15E
  8
1
 62
     7
 10
390.88671196051172
 20
18.132103954712019
 30
0.0
 11
386.15500671531822
 21
15.400252657673381
 31
0.0
  0
LINE
  5
15F
  8
1
 62
     7
 10
229.86885580784761
 20
35.4526120304008
 30
0.0
 11
234.6005610530415
 21
32.720760733362269
 31
0.0
  0
LINE
  5
160
  8
1
 62
     7
 10
308.37778388417968
 20
-102.9574424969132
 30
0.0
 11
305.37778388417968
 21
-101.22539168934441
 31
0.0
  0
LINE
  5
161
  8
1
 62
     7
 10
305.37778388417968
 20
-101.22539168934441
 30
0.0
 11
302.37778388417979
 21
-102.9574424969132
 31
0.0
  0
LINE
  5
162
  8
1
 62
     7
 10
302.37778388417979
 20
-102.9574424969132
 30
0.0
 11
302.37778388417979
 21
-106.421544112051
 31
0.0
  0
LINE
  5
163
  8
1
 62
     7
 10
302.37778388417979
 20
-106.421544112051
 30
0.0
 11
305.37778388417968
 21
-108.15359491961991
 31
0.0
  0
LINE
  5
164
  8
1
 62
     7
 10
305.37778388417968
 20
-108.15359491961991
 30
0.0
 11
308.37778388417968
 21
-106.421544112051
 31
0.0
  0
LINE
  5
165
  8
1
 62
     7
 10
308.37778388417968
 20
-106.421544112051
 30
0.0
 11
308.37778388417968
 21
-102.9574424969132
 31
0.0
  0
LINE
  5
166
  8
1
 62
     7
 10
381.98994320585712
 20
24.542557503086812
 30
0.0
 11
378.98994320585712
 21
26.274608310655591
 31
0.0
  0
LINE
  5
167
  8
1
 62
     7
 10
378.98994320585712
 20
26.274608310655591
 30
0.0
 11
375.98994320585712
 21
24.542557503086812
 31
0.0
  0
LINE
  5
168
  8
1
 62
     7
 10
375.98994320585712
 20
24.542557503086812
 30
0.0
 11
375.98994320585712
 21
21.078455887949008
 31
0.0
  0
LINE
  5
169
  8
1
 62
     7
 10
375.98994320585712
 20
21.078455887949008
 30
0.0
 11
378.98994320585712
 21
19.346405080380109
 31
0.0
  0
LINE
  5
16A
  8
1
 62
     7
 10
378.98994320585712
 20
19.346405080380109
 30
0.0
 11
381.98994320585712
 21
21.078455887949008
 31
0.0
  0
LINE
  5
16B
  8
1
 62
     7
 10
381.98994320585712
 20
21.078455887949008
 30
0.0
 11
381.98994320585712
 21
24.542557503086812
 31
0.0
  0
LINE
  5
16C
  8
1
 62
     7
 10
234.7656245625025
 20
24.542557503086812
 30
0.0
 11
231.7656245625025
 21
26.274608310655591
 31
0.0
  0
LINE
  5
16D
  8
1
 62
     7
 10
231.7656245625025
 20
26.274608310655591
 30
0.0
 11
228.7656245625025
 21
24.542557503086812
 31
0.0
  0
LINE
  5
16E
  8
1
 62
     7
 10
228.7656245625025
 20
24.542557503086812
 30
0.0
 11
228.7656245625025
 21
21.078455887949008
 31
0.0
  0
LINE
  5
16F
  8
1
 62
     7
 10
228.7656245625025
 20
21.078455887949008
 30
0.0
 11
231.7656245625025
 21
19.346405080380109
 31
0.0
  0
LINE
  5
170
  8
1
 62
     7
 10
231.7656245625025
 20
19.346405080380109
 30
0.0
 11
234.7656245625025
 21
21.078455887949008
 31
0.0
  0
LINE
  5
171
  8
1
 62
     7
 10
234.7656245625025
 20
21.078455887949008
 30
0.0
 11
234.7656245625025
 21
24.542557503086812
 31
0.0
  0
LINE
  5
172
  8
1
 62
     7
 10
22.586773777374621
 20
-114.6894933044821
 30
0.0
 11
32.58677377737461
 21
-114.6894933044821
 31
0.0
  0
LINE
  5
173
  8
1
 62
     7
 10
22.586773777374621
 20
75.310506695517915
 30
0.0
 11
32.58677377737461
 21
75.310506695517915
 31
0.0
  0
LINE
  5
174
  8
1
 62
     7
 10
22.08677377737461
 20
74.810506695517915
 30
0.0
 11
22.08677377737461
 21
-100.689493304482
 31
0.0
  0
LINE
  5
175
  8
1
 62
     7
 10
44.58677377737461
 20
-114.6894933044821
 30
0.0
 11
56.386773777374628
 21
-114.6894933044821
 31
0.0
  0
LINE
  5
176
  8
1
 62
     7
 10
56.886773777374621
 20
57.810506695517923
 30
0.0
 11
56.886773777374621
 21
6.3105066955179154
 31
0.0
  0
LINE
  5
177
  8
1
 62
     7
 10
44.58677377737461
 20
75.310506695517915
 30
0.0
 11
56.386773777374628
 21
75.310506695517915
 31
0.0
  0
LINE
  5
178
  8
1
 62
     7
 10
44.08677377737461
 20
72.810506695517915
 30
0.0
 11
44.08677377737461
 21
74.810506695517915
 31
0.0
  0
LINE
  5
179
  8
1
 62
     7
 10
33.086773777374617
 20
-95.689493304482085
 30
0.0
 11
44.08677377737461
 21
-95.689493304482085
 31
0.0
  0
LINE
  5
17A
  8
1
 62
     7
 10
33.086773777374617
 20
56.310506695517923
 30
0.0
 11
44.08677377737461
 21
56.310506695517923
 31
0.0
  0
LINE
  5
17B
  8
1
 62
     7
 10
22.08677377737461
 20
27.810506695517919
 30
0.0
 11
36.786773777374613
 21
27.810506695517919
 31
0.0
  0
LINE
  5
17C
  8
1
 62
     7
 10
40.386773777374628
 20
27.810506695517919
 30
0.0
 11
44.08677377737461
 21
27.810506695517919
 31
0.0
  0
LINE
  5
17D
  8
1
 62
     7
 10
40.386773777374628
 20
27.810506695517919
 30
0.0
 11
40.386773777374628
 21
56.310506695517923
 31
0.0
  0
LINE
  5
17E
  8
1
 62
     7
 10
36.786773777374613
 20
56.310506695517923
 30
0.0
 11
36.786773777374613
 21
27.810506695517919
 31
0.0
  0
LINE
  5
17F
  8
1
 62
     7
 10
41.186773777374583
 20
27.810506695517919
 30
0.0
 11
41.186773777374583
 21
6.7105066955178918
 31
0.0
  0
LINE
  5
180
  8
1
 62
     7
 10
35.986773777374587
 20
-67.189493304482099
 30
0.0
 11
35.986773777374587
 21
-46.089493304482112
 31
0.0
  0
LINE
  5
181
  8
1
 62
     7
 10
44.08677377737461
 20
-67.189493304482099
 30
0.0
 11
40.386773777374628
 21
-67.189493304482099
 31
0.0
  0
LINE
  5
182
  8
1
 62
     7
 10
40.386773777374628
 20
-67.189493304482099
 30
0.0
 11
40.386773777374628
 21
-95.689493304482085
 31
0.0
  0
LINE
  5
183
  8
1
 62
     7
 10
36.786773777374613
 20
-95.689493304482085
 30
0.0
 11
36.786773777374613
 21
-67.189493304482099
 31
0.0
  0
LINE
  5
184
  8
1
 62
     7
 10
36.786773777374613
 20
-67.189493304482099
 30
0.0
 11
22.08677377737461
 21
-67.189493304482099
 31
0.0
  0
LINE
  5
185
  8
1
 62
     7
 10
35.986773777374587
 20
10.91050669551788
 30
0.0
 11
41.186773777374583
 21
10.91050669551788
 31
0.0
  0
LINE
  5
186
  8
1
 62
     7
 10
35.986773777374587
 20
7.3105066955179154
 30
0.0
 11
41.186773777374583
 21
7.3105066955179154
 31
0.0
  0
LINE
  5
187
  8
1
 62
     7
 10
35.986773777374587
 20
-46.68949330448207
 30
0.0
 11
41.186773777374583
 21
-46.68949330448207
 31
0.0
  0
LINE
  5
188
  8
1
 62
     7
 10
35.986773777374587
 20
-50.2894933044821
 30
0.0
 11
41.186773777374583
 21
-50.2894933044821
 31
0.0
  0
LINE
  5
189
  8
1
 62
     7
 10
44.08677377737461
 20
-54.68949330448207
 30
0.0
 11
49.08677377737461
 21
-49.68949330448207
 31
0.0
  0
LINE
  5
18A
  8
1
 62
     7
 10
49.08677377737461
 20
-49.68949330448207
 30
0.0
 11
49.08677377737461
 21
-45.689493304481957
 31
0.0
  0
LINE
  5
18B
  8
1
 62
     7
 10
49.08677377737461
 20
10.310506695517921
 30
0.0
 11
44.08677377737461
 21
15.310506695517921
 31
0.0
  0
LINE
  5
18C
  8
1
 62
     7
 10
49.08677377737461
 20
10.310506695517921
 30
0.0
 11
56.886773777374621
 21
10.310506695517921
 31
0.0
  0
LINE
  5
18D
  8
1
 62
     7
 10
49.08677377737461
 20
-49.68949330448207
 30
0.0
 11
56.886773777374621
 21
-49.68949330448207
 31
0.0
  0
LINE
  5
18E
  8
1
 62
     7
 10
92.286773777374606
 20
61.310506695517923
 30
0.0
 11
93.086773777374631
 21
62.110506695517927
 31
0.0
  0
LINE
  5
18F
  8
1
 62
     7
 10
93.086773777374631
 20
62.110506695517927
 30
0.0
 11
93.086773777374631
 21
68.510506695517904
 31
0.0
  0
LINE
  5
190
  8
1
 62
     7
 10
93.086773777374631
 20
68.510506695517904
 30
0.0
 11
92.286773777374606
 21
69.310506695517915
 31
0.0
  0
LINE
  5
191
  8
1
 62
     7
 10
92.286773777374606
 20
69.310506695517915
 30
0.0
 11
90.386773777374586
 21
69.310506695517915
 31
0.0
  0
LINE
  5
192
  8
1
 62
     7
 10
92.286773777374606
 20
69.310506695517915
 30
0.0
 11
92.286773777374606
 21
61.310506695517923
 31
0.0
  0
LINE
  5
193
  8
1
 62
     3
 10
93.086773777374631
 20
68.510506695517904
 30
0.0
 11
90.386773777374586
 21
68.510506695517904
 31
0.0
  0
LINE
  5
194
  8
1
 62
     7
 10
58.086773777374617
 20
72.810506695517915
 30
0.0
 11
58.086773777374617
 21
57.810506695517923
 31
0.0
  0
LINE
  5
195
  8
1
 62
     7
 10
33.086773777374617
 20
72.810506695517915
 30
0.0
 11
33.086773777374617
 21
74.810506695517915
 31
0.0
  0
LINE
  5
196
  8
1
 62
     7
 10
44.08677377737461
 20
57.810506695517923
 30
0.0
 11
44.08677377737461
 21
6.3105066955179154
 31
0.0
  0
LINE
  5
197
  8
1
 62
     7
 10
56.886773777374621
 20
72.810506695517915
 30
0.0
 11
56.886773777374621
 21
74.810506695517915
 31
0.0
  0
LINE
  5
198
  8
1
 62
     7
 10
31.086773777374621
 20
72.810506695517915
 30
0.0
 11
31.086773777374621
 21
57.810506695517923
 31
0.0
  0
LINE
  5
199
  8
1
 62
     7
 10
44.08677377737461
 20
57.310506695517923
 30
0.0
 11
56.886773777374621
 21
57.310506695517923
 31
0.0
  0
LINE
  5
19A
  8
1
 62
     7
 10
64.586773777374617
 20
70.935506695517915
 30
0.0
 11
64.586773777374617
 21
59.685506695517923
 31
0.0
  0
LINE
  5
19B
  8
1
 62
     7
 10
63.865085940887639
 20
72.810506695517915
 30
0.0
 11
31.086773777374621
 21
72.810506695517915
 31
0.0
  0
LINE
  5
19C
  8
1
 62
     7
 10
63.865085940887639
 20
69.060506695517915
 30
0.0
 11
58.086773777374617
 21
69.060506695517915
 31
0.0
  0
LINE
  5
19D
  8
1
 62
     7
 10
63.865085940887639
 20
61.560506695517923
 30
0.0
 11
58.086773777374617
 21
61.560506695517923
 31
0.0
  0
LINE
  5
19E
  8
1
 62
     7
 10
63.865085940887639
 20
57.810506695517923
 30
0.0
 11
31.086773777374621
 21
57.810506695517923
 31
0.0
  0
LINE
  5
19F
  8
1
 62
     7
 10
22.08677377737461
 20
74.810506695517915
 30
0.0
 11
22.586773777374621
 21
75.310506695517915
 31
0.0
  0
LINE
  5
1A0
  8
1
 62
     7
 10
33.086773777374617
 20
74.810506695517915
 30
0.0
 11
32.58677377737461
 21
75.310506695517915
 31
0.0
  0
LINE
  5
1A1
  8
1
 62
     7
 10
44.08677377737461
 20
74.810506695517915
 30
0.0
 11
44.58677377737461
 21
75.310506695517915
 31
0.0
  0
LINE
  5
1A2
  8
1
 62
     7
 10
56.886773777374621
 20
74.810506695517915
 30
0.0
 11
56.386773777374628
 21
75.310506695517915
 31
0.0
  0
LINE
  5
1A3
  8
1
 62
     7
 10
22.08677377737461
 20
-114.189493304482
 30
0.0
 11
22.586773777374621
 21
-114.6894933044821
 31
0.0
  0
LINE
  5
1A4
  8
1
 62
     7
 10
33.086773777374617
 20
-114.189493304482
 30
0.0
 11
32.58677377737461
 21
-114.6894933044821
 31
0.0
  0
LINE
  5
1A5
  8
1
 62
     7
 10
44.08677377737461
 20
-114.189493304482
 30
0.0
 11
44.58677377737461
 21
-114.6894933044821
 31
0.0
  0
LINE
  5
1A6
  8
1
 62
     7
 10
56.886773777374621
 20
-114.189493304482
 30
0.0
 11
56.386773777374628
 21
-114.6894933044821
 31
0.0
  0
LINE
  5
1A7
  8
1
 62
     7
 10
75.586773777374617
 20
-113.189493304482
 30
0.0
 11
75.086773777374617
 21
-112.6894933044821
 31
0.0
  0
LINE
  5
1A8
  8
1
 62
     7
 10
83.086773777374617
 20
-112.6894933044821
 30
0.0
 11
82.586773777374603
 21
-113.189493304482
 31
0.0
  0
LINE
  5
1A9
  8
1
 62
     7
 10
82.586773777374603
 20
73.810506695517915
 30
0.0
 11
83.086773777374617
 21
73.310506695517915
 31
0.0
  0
LINE
  5
1AA
  8
1
 62
     7
 10
75.086773777374617
 20
73.310506695517915
 30
0.0
 11
75.586773777374617
 21
73.810506695517915
 31
0.0
  0
LINE
  5
1AB
  8
1
 62
     7
 10
109.0867737773745
 20
56.310506695517923
 30
0.0
 11
110.0867737773745
 21
55.310506695517923
 31
0.0
  0
LINE
  5
1AC
  8
1
 62
     7
 10
110.0867737773745
 20
-94.689493304482085
 30
0.0
 11
109.0867737773745
 21
-95.689493304482085
 31
0.0
  0
LINE
  5
1AD
  8
1
 62
     7
 10
68.586773777374603
 20
59.685506695517923
 30
0.0
 11
68.586773777374603
 21
70.935506695517915
 31
0.0
  0
LINE
  5
1AE
  8
1
 62
     7
 10
69.308461613861596
 20
57.810506695517923
 30
0.0
 11
75.086773777374617
 21
57.810506695517923
 31
0.0
  0
LINE
  5
1AF
  8
1
 62
     7
 10
69.308461613861596
 20
61.560506695517923
 30
0.0
 11
75.086773777374617
 21
61.560506695517923
 31
0.0
  0
LINE
  5
1B0
  8
1
 62
     7
 10
69.308461613861596
 20
69.060506695517915
 30
0.0
 11
75.086773777374617
 21
69.060506695517915
 31
0.0
  0
LINE
  5
1B1
  8
1
 62
     7
 10
69.308461613861596
 20
72.810506695517915
 30
0.0
 11
75.086773777374617
 21
72.810506695517915
 31
0.0
  0
LINE
  5
1B2
  8
1
 62
     7
 10
68.586773777374603
 20
69.310506695517915
 30
0.0
 11
64.586773777374617
 21
69.310506695517915
 31
0.0
  0
LINE
  5
1B3
  8
1
 62
     3
 10
68.586773777374603
 20
68.510506695517904
 30
0.0
 11
64.586773777374617
 21
68.510506695517904
 31
0.0
  0
LINE
  5
1B4
  8
1
 62
     7
 10
64.586773777374617
 20
61.310506695517923
 30
0.0
 11
68.586773777374603
 21
61.310506695517923
 31
0.0
  0
LINE
  5
1B5
  8
1
 62
     3
 10
64.586773777374617
 20
62.110506695517927
 30
0.0
 11
68.586773777374603
 21
62.110506695517927
 31
0.0
  0
LINE
  5
1B6
  8
1
 62
     7
 10
73.086773777374617
 20
5.3105066955179137
 30
0.0
 11
73.086773777374617
 21
-44.689493304481957
 31
0.0
  0
LINE
  5
1B7
  8
1
 62
     7
 10
42.08677377737461
 20
6.3105066955179154
 30
0.0
 11
72.086773777374617
 21
6.3105066955179154
 31
0.0
  0
LINE
  5
1B8
  8
1
 62
     7
 10
42.08677377737461
 20
6.3105066955179154
 30
0.0
 11
42.08677377737461
 21
9.5105066955179041
 31
0.0
  0
LINE
  5
1B9
  8
1
 62
     7
 10
42.08677377737461
 20
9.5105066955179041
 30
0.0
 11
41.58677377737461
 21
10.010506695517901
 31
0.0
  0
LINE
  5
1BA
  8
1
 62
     7
 10
41.58677377737461
 20
10.010506695517901
 30
0.0
 11
33.58677377737461
 21
10.010506695517901
 31
0.0
  0
LINE
  5
1BB
  8
1
 62
     7
 10
33.58677377737461
 20
10.010506695517901
 30
0.0
 11
33.086773777374617
 21
9.5105066955179041
 31
0.0
  0
LINE
  5
1BC
  8
1
 62
     7
 10
33.086773777374617
 20
6.7105066955178918
 30
0.0
 11
42.08677377737461
 21
6.7105066955178918
 31
0.0
  0
LINE
  5
1BD
  8
1
 62
     7
 10
49.08677377737461
 20
6.3105066955179154
 30
0.0
 11
49.08677377737461
 21
10.310506695517921
 31
0.0
  0
LINE
  5
1BE
  8
1
 62
     7
 10
35.986773777374587
 20
6.7105066955178918
 30
0.0
 11
35.986773777374587
 21
27.810506695517919
 31
0.0
  0
LINE
  5
1BF
  8
1
 62
     7
 10
41.186773777374583
 20
-46.089493304482112
 30
0.0
 11
41.186773777374583
 21
-67.189493304482099
 31
0.0
  0
LINE
  5
1C0
  8
1
 62
     7
 10
33.086773777374617
 20
-0.1894933044820846
 30
0.0
 11
73.086773777374617
 21
-0.1894933044820846
 31
0.0
  0
LINE
  5
1C1
  8
1
 62
     7
 10
33.086773777374617
 20
-3.689493304482085
 30
0.0
 11
73.086773777374617
 21
-3.689493304482085
 31
0.0
  0
LINE
  5
1C2
  8
1
 62
     7
 10
72.086773777374617
 20
6.3105066955179154
 30
0.0
 11
73.086773777374617
 21
5.3105066955179137
 31
0.0
  0
LINE
  5
1C3
  8
1
 62
     7
 10
33.086773777374617
 20
-104.689493304482
 30
0.0
 11
35.08677377737461
 21
-102.689493304482
 31
0.0
  0
LINE
  5
1C4
  8
1
 62
     7
 10
33.086773777374617
 20
-106.689493304482
 30
0.0
 11
35.08677377737461
 21
-104.689493304482
 31
0.0
  0
LINE
  5
1C5
  8
1
 62
     7
 10
33.086773777374617
 20
-96.989493304482096
 30
0.0
 11
35.08677377737461
 21
-96.989493304482096
 31
0.0
  0
LINE
  5
1C6
  8
1
 62
     7
 10
35.08677377737461
 20
-96.989493304482096
 30
0.0
 11
35.08677377737461
 21
-112.3894933044821
 31
0.0
  0
LINE
  5
1C7
  8
1
 62
     7
 10
35.08677377737461
 20
-112.3894933044821
 30
0.0
 11
33.086773777374617
 21
-112.3894933044821
 31
0.0
  0
LINE
  5
1C8
  8
1
 62
     7
 10
35.08677377737461
 20
-98.189493304482085
 30
0.0
 11
42.586773777374617
 21
-98.189493304482085
 31
0.0
  0
LINE
  5
1C9
  8
1
 62
     7
 10
42.586773777374617
 20
-98.189493304482085
 30
0.0
 11
43.086773777374617
 21
-99.055518708266604
 31
0.0
  0
LINE
  5
1CA
  8
1
 62
     7
 10
43.086773777374617
 20
-99.055518708266604
 30
0.0
 11
43.086773777374617
 21
-110.32346790069769
 31
0.0
  0
LINE
  5
1CB
  8
1
 62
     7
 10
43.086773777374617
 20
-110.32346790069769
 30
0.0
 11
42.586773777374617
 21
-111.1894933044821
 31
0.0
  0
LINE
  5
1CC
  8
1
 62
     7
 10
42.586773777374617
 20
-111.1894933044821
 30
0.0
 11
35.08677377737461
 21
-111.1894933044821
 31
0.0
  0
LINE
  5
1CD
  8
1
 62
     7
 10
42.586773777374617
 20
-98.189493304482085
 30
0.0
 11
42.586773777374617
 21
-111.1894933044821
 31
0.0
  0
LINE
  5
1CE
  8
1
 62
     7
 10
10.886773777374589
 20
-100.689493304482
 30
0.0
 11
10.086773777374621
 21
-101.489493304482
 31
0.0
  0
LINE
  5
1CF
  8
1
 62
     7
 10
10.086773777374621
 20
-101.489493304482
 30
0.0
 11
10.086773777374621
 21
-107.889493304482
 31
0.0
  0
LINE
  5
1D0
  8
1
 62
     7
 10
10.086773777374621
 20
-107.889493304482
 30
0.0
 11
10.886773777374589
 21
-108.689493304482
 31
0.0
  0
LINE
  5
1D1
  8
1
 62
     7
 10
10.886773777374589
 20
-108.689493304482
 30
0.0
 11
33.086773777374617
 21
-108.689493304482
 31
0.0
  0
LINE
  5
1D2
  8
1
 62
     7
 10
10.886773777374589
 20
-100.689493304482
 30
0.0
 11
10.886773777374589
 21
-108.689493304482
 31
0.0
  0
LINE
  5
1D3
  8
1
 62
     3
 10
10.086773777374621
 20
-101.489493304482
 30
0.0
 11
32.08677377737461
 21
-101.489493304482
 31
0.0
  0
LINE
  5
1D4
  8
1
 62
     3
 10
10.086773777374621
 20
-107.889493304482
 30
0.0
 11
32.08677377737461
 21
-107.889493304482
 31
0.0
  0
LINE
  5
1D5
  8
1
 62
     7
 10
33.086773777374617
 20
-100.689493304482
 30
0.0
 11
10.886773777374589
 21
-100.689493304482
 31
0.0
  0
LINE
  5
1D6
  8
1
  6
DASHDOT
 62
     3
 10
4.0867737773746171
 20
-104.689493304482
 30
0.0
 11
49.08677377737461
 21
-104.689493304482
 31
0.0
  0
LINE
  5
1D7
  8
1
 62
     7
 10
44.08677377737461
 20
-97.189493304482085
 30
0.0
 11
56.886773777374621
 21
-97.189493304482085
 31
0.0
  0
LINE
  5
1D8
  8
1
 62
     7
 10
22.08677377737461
 20
-114.189493304482
 30
0.0
 11
22.08677377737461
 21
-108.689493304482
 31
0.0
  0
LINE
  5
1D9
  8
1
 62
     7
 10
235.08458096620939
 20
104.8619055761931
 30
0.0
 11
236.58458096620939
 21
102.26382936483979
 31
0.0
  0
LINE
  5
1DA
  8
1
 62
     7
 10
236.4113758854524
 20
102.16382936484
 30
0.0
 11
234.9113758854524
 21
104.761905576193
 31
0.0
  0
LINE
  5
1DB
  8
1
 62
     7
 10
234.7381708046955
 20
104.66190557619321
 30
0.0
 11
236.23817080469539
 21
102.06382936483971
 31
0.0
  0
LINE
  5
1DC
  8
1
 62
     7
 10
236.0649657239386
 20
101.9638293648398
 30
0.0
 11
234.5649657239386
 21
104.5619055761932
 31
0.0
  0
LINE
  5
1DD
  8
1
 62
     7
 10
234.39176064318181
 20
104.4619055761932
 30
0.0
 11
235.89176064318181
 21
101.8638293648399
 31
0.0
  0
LINE
  5
1DE
  8
1
 62
     7
 10
234.85253015864041
 20
101.26382936483979
 30
0.0
 11
233.35253015864041
 21
103.8619055761931
 31
0.0
  0
LINE
  5
1DF
  8
1
 62
     7
 10
233.1793250778835
 20
103.761905576193
 30
0.0
 11
234.67932507788339
 21
101.16382936484
 31
0.0
  0
LINE
  5
1E0
  8
1
 62
     7
 10
234.5061199971266
 20
101.06382936483971
 30
0.0
 11
233.0061199971266
 21
103.66190557619321
 31
0.0
  0
LINE
  5
1E1
  8
1
 62
     7
 10
232.8329149163699
 20
103.5619055761932
 30
0.0
 11
234.33291491636979
 21
100.9638293648398
 31
0.0
  0
LINE
  5
1E2
  8
1
 62
     7
 10
234.15970983561289
 20
100.8638293648399
 30
0.0
 11
232.65970983561289
 21
103.4619055761932
 31
0.0
  0
LINE
  5
1E3
  8
1
 62
     7
 10
233.6400945933423
 20
100.5638293648398
 30
0.0
 11
237.10419620848009
 21
102.5638293648398
 31
0.0
  0
LINE
  5
1E4
  8
1
 62
     7
 10
233.6400945933423
 20
100.5638293648398
 30
0.0
 11
265.65889325016559
 21
45.105643293901771
 31
0.0
  0
LINE
  5
1E5
  8
1
 62
     7
 10
235.37214540091111
 20
101.5638293648398
 30
0.0
 11
267.3777838841857
 21
46.128437383138582
 31
0.0
  0
LINE
  5
1E6
  8
1
 62
     7
 10
90.986773777374594
 20
104.5638293648398
 30
0.0
 11
90.986773777374594
 21
101.5638293648398
 31
0.0
  0
LINE
  5
1E7
  8
1
 62
     7
 10
90.786773777374592
 20
104.5638293648398
 30
0.0
 11
90.786773777374592
 21
101.5638293648398
 31
0.0
  0
LINE
  5
1E8
  8
1
 62
     7
 10
90.586773777374631
 20
104.5638293648398
 30
0.0
 11
90.586773777374631
 21
101.5638293648398
 31
0.0
  0
LINE
  5
1E9
  8
1
 62
     7
 10
90.386773777374643
 20
104.5638293648398
 30
0.0
 11
90.386773777374643
 21
101.5638293648398
 31
0.0
  0
LINE
  5
1EA
  8
1
 62
     7
 10
90.186773777374569
 20
104.5638293648398
 30
0.0
 11
90.186773777374569
 21
101.5638293648398
 31
0.0
  0
LINE
  5
1EB
  8
1
 62
     7
 10
89.586773777374489
 20
101.5638293648398
 30
0.0
 11
91.586773777374503
 21
101.5638293648398
 31
0.0
  0
LINE
  5
1EC
  8
1
 62
     7
 10
91.586773777374503
 20
101.5638293648398
 30
0.0
 11
91.586773777374631
 21
69.310506695517915
 31
0.0
  0
LINE
  5
1ED
  8
1
 62
     7
 10
89.586773777374646
 20
56.310506695517923
 30
0.0
 11
89.586773777374574
 21
59.883155786243812
 31
0.0
  0
LINE
  5
1EE
  8
1
 62
     7
 10
91.586773777374631
 20
56.310506695517923
 30
0.0
 11
91.586773777374631
 21
61.310506695517923
 31
0.0
  0
LINE
  5
1EF
  8
1
 62
     7
 10
60.220748373590212
 20
5.8105066955179154
 30
0.0
 11
61.08677377737461
 21
5.3105066955179137
 31
0.0
  0
LINE
  5
1F0
  8
1
 62
     7
 10
61.08677377737461
 20
5.3105066955179137
 30
0.0
 11
55.086773777374617
 21
5.3105066955179137
 31
0.0
  0
LINE
  5
1F1
  8
1
 62
     7
 10
55.086773777374617
 20
5.3105066955179137
 30
0.0
 11
55.95279918115903
 21
5.8105066955179154
 31
0.0
  0
LINE
  5
1F2
  8
1
 62
     7
 10
55.95279918115903
 20
5.8105066955179154
 30
0.0
 11
60.220748373590212
 21
5.8105066955179154
 31
0.0
  0
LINE
  5
1F3
  8
1
 62
     7
 10
61.08677377737461
 20
5.3105066955179137
 30
0.0
 11
61.08677377737461
 21
1.3105066955179141
 31
0.0
  0
LINE
  5
1F4
  8
1
 62
     7
 10
61.08677377737461
 20
1.3105066955179141
 30
0.0
 11
55.086773777374617
 21
1.3105066955179141
 31
0.0
  0
LINE
  5
1F5
  8
1
 62
     7
 10
55.086773777374617
 20
1.3105066955179141
 30
0.0
 11
55.086773777374617
 21
5.3105066955179137
 31
0.0
  0
LINE
  5
1F6
  8
1
 62
     7
 10
61.08677377737461
 20
1.3105066955179141
 30
0.0
 11
59.586773777374617
 21
-0.1894933044820846
 31
0.0
  0
LINE
  5
1F7
  8
1
 62
     7
 10
59.586773777374617
 20
-0.1894933044820846
 30
0.0
 11
56.58677377737461
 21
-0.1894933044820846
 31
0.0
  0
LINE
  5
1F8
  8
1
 62
     7
 10
56.58677377737461
 20
-0.1894933044820846
 30
0.0
 11
55.086773777374617
 21
1.3105066955179141
 31
0.0
  0
LINE
  5
1F9
  8
1
 62
     3
 10
60.486773777374587
 20
5.6569168570317174
 30
0.0
 11
60.486773777374587
 21
0.7105066955178927
 31
0.0
  0
LINE
  5
1FA
  8
1
 62
     3
 10
55.686773777374583
 20
5.6569168570317174
 30
0.0
 11
55.686773777374583
 21
0.7105066955178927
 31
0.0
  0
LINE
  5
1FB
  8
1
 62
     7
 10
60.486773777374587
 20
5.6569168570317174
 30
0.0
 11
60.486773777374587
 21
6.3105066955179154
 31
0.0
  0
LINE
  5
1FC
  8
1
 62
     7
 10
55.686773777374583
 20
5.6569168570317174
 30
0.0
 11
55.686773777374583
 21
6.3105066955179154
 31
0.0
  0
LINE
  5
1FD
  8
1
 62
     7
 10
55.686773777374583
 20
0.7105066955178927
 30
0.0
 11
55.686773777374583
 21
-0.1894933044820846
 31
0.0
  0
LINE
  5
1FE
  8
1
 62
     7
 10
60.486773777374587
 20
0.7105066955178927
 30
0.0
 11
60.486773777374587
 21
-0.1894933044820846
 31
0.0
  0
LINE
  5
1FF
  8
1
 62
     3
 10
61.08677377737461
 20
5.3105066955179137
 30
0.0
 11
61.08677377737461
 21
6.3105066955179154
 31
0.0
  0
LINE
  5
200
  8
1
 62
     3
 10
55.086773777374617
 20
5.3105066955179137
 30
0.0
 11
55.086773777374617
 21
6.3105066955179154
 31
0.0
  0
LINE
  5
201
  8
1
 62
     3
 10
55.086773777374617
 20
1.3105066955179141
 30
0.0
 11
55.086773777374617
 21
-0.1894933044820846
 31
0.0
  0
LINE
  5
202
  8
1
 62
     3
 10
61.08677377737461
 20
1.3105066955179141
 30
0.0
 11
61.08677377737461
 21
-0.1894933044820846
 31
0.0
  0
LINE
  5
203
  8
1
  6
DASHDOT
 62
     3
 10
58.086773777374617
 20
8.2128228256785292
 30
0.0
 11
58.086773777374617
 21
-2.1501114045029781
 31
0.0
  0
ARC
  5
204
  8
1
 62
     7
 10
86.030233410987336
 20
59.685506695517923
 30
0.0
 40
2.7965403663872781
 50
317.8965511292547
 51
42.103448870745318
  0
ARC
  5
205
  8
1
 62
     7
 10
78.723144066556003
 20
65.310506695517915
 30
0.0
 40
10.103629710818581
 50
338.21321070173849
 51
21.786789298261489
  0
ARC
  5
206
  8
1
 62
     7
 10
86.030233410987336
 20
70.935506695517915
 30
0.0
 40
2.7965403663872781
 50
317.8965511292547
 51
42.103448870745318
  0
ARC
  5
207
  8
1
 62
     7
 10
-103.96976658901259
 20
59.685506695517923
 30
0.0
 40
2.796540366387319
 50
317.89655112925527
 51
42.103448870744529
  0
ARC
  5
208
  8
1
 62
     7
 10
-111.276855933444
 20
65.310506695517915
 30
0.0
 40
10.10362971081862
 50
338.21321070173849
 51
21.786789298261422
  0
ARC
  5
209
  8
1
 62
     7
 10
-103.96976658901259
 20
70.935506695517915
 30
0.0
 40
2.796540366387319
 50
317.89655112925527
 51
42.103448870744529
  0
ARC
  5
20A
  8
1
  6
DASHDOT
 62
     3
 10
305.37778388417991
 20
-19.68949330448207
 30
0.0
 40
84.999999999999815
 50
262.53941760972401
 51
277.5681543121608
  0
ARC
  5
20B
  8
1
  6
DASHDOT
 62
     3
 10
305.37778388417991
 20
-19.68949330448207
 30
0.0
 40
84.999999999999801
 50
22.031874970674082
 51
38.082359224356452
  0
ARC
  5
20C
  8
1
  6
DASHDOT
 62
     3
 10
305.37778388417991
 20
-19.68949330448207
 30
0.0
 40
84.99999999999973
 50
142.4390996546216
 51
157.30207680796369
  0
ARC
  5
20D
  8
1
 62
     7
 10
-77.263965154135576
 20
-65.001993304482099
 30
0.0
 40
2.3507389315101732
 50
322.30124515331761
 51
37.69875484668249
  0
ARC
  5
20E
  8
1
 62
     7
 10
-83.580060355449575
 20
-60.689493304482077
 30
0.0
 40
8.6668341328241567
 50
340.62652945767712
 51
19.37347054232287
  0
ARC
  5
20F
  8
1
 62
     7
 10
-77.263965154135576
 20
-56.37699330448207
 30
0.0
 40
2.3507389315101732
 50
322.30124515331761
 51
37.698754846682348
  0
ARC
  5
210
  8
1
 62
     7
 10
-128.2097665890127
 20
70.935506695517915
 30
0.0
 40
2.7965403663873079
 50
317.89655112925527
 51
42.103448870744721
  0
ARC
  5
211
  8
1
 62
     7
 10
-135.51685593344379
 20
65.310506695517915
 30
0.0
 40
10.103629710818421
 50
338.21321070173809
 51
21.786789298261869
  0
ARC
  5
212
  8
1
 62
     7
 10
-128.2097665890127
 20
59.685506695517923
 30
0.0
 40
2.7965403663873079
 50
317.89655112925527
 51
42.103448870744721
  0
ARC
  5
213
  8
1
 62
     7
 10
-118.61668585623811
 20
59.685506695517923
 30
0.0
 40
2.7965403663873079
 50
137.89655112925519
 51
222.10344887074459
  0
ARC
  5
214
  8
1
 62
     7
 10
-111.309596511807
 20
65.310506695517915
 30
0.0
 40
10.10362971081844
 50
158.21321070173809
 51
201.78678929826171
  0
ARC
  5
215
  8
1
 62
     7
 10
-118.61668585623811
 20
70.935506695517915
 30
0.0
 40
2.7965403663873079
 50
137.89655112925519
 51
222.10344887074459
  0
ARC
  5
216
  8
1
 62
     7
 10
56.886773777374621
 20
-55.689493304482077
 30
0.0
 40
1.5
 50
270.0
 51
90.0
  0
ARC
  5
217
  8
1
 62
     7
 10
56.136773777374628
 20
-65.689493304482099
 30
0.0
 40
1.5000000000000251
 50
299.99999999999937
 51
60.00000000000054
  0
ARC
  5
218
  8
1
 62
     7
 10
93.836773777374631
 20
-55.689493304482077
 30
0.0
 40
1.499999999999919
 50
120.00000000000171
 51
239.99999999999949
  0
ARC
  5
219
  8
1
 62
     7
 10
93.086773777374631
 20
-65.689493304482099
 30
0.0
 40
1.5
 50
90.0
 51
270.0
  0
ARC
  5
21A
  8
1
 62
     3
 10
58.086773777374617
 20
-19.68949330448207
 30
0.0
 40
2.3999999999999702
 50
180.0
 51
0.0
  0
ARC
  5
21B
  8
1
 62
     7
 10
58.086773777374617
 20
-19.68949330448207
 30
0.0
 40
3.0
 50
180.0
 51
0.0
  0
ARC
  5
21C
  8
1
 62
     7
 10
112.7360348458644
 20
-65.001993304482099
 30
0.0
 40
2.350738931510195
 50
322.30124515331812
 51
37.698754846682078
  0
ARC
  5
21D
  8
1
 62
     7
 10
106.4199396445503
 20
-60.689493304482077
 30
0.0
 40
8.6668341328241851
 50
340.62652945767718
 51
19.373470542322799
  0
ARC
  5
21E
  8
1
 62
     7
 10
112.7360348458644
 20
-56.37699330448207
 30
0.0
 40
2.350738931510195
 50
322.30124515331812
 51
37.698754846681929
  0
ARC
  5
21F
  8
1
 62
     7
 10
305.37778388417991
 20
-19.68949330448207
 30
0.0
 40
16.00000000000006
 50
108.2099568642834
 51
71.790043135717397
  0
ARC
  5
220
  8
1
 62
     7
 10
305.37778388417968
 20
-107.1894933044821
 30
0.0
 40
10.0
 50
0.0
 51
180.0
  0
ARC
  5
221
  8
1
 62
     7
 10
381.15500671531822
 20
24.060506695517919
 30
0.0
 40
9.9999999999999378
 50
120.0000000000002
 51
299.9999999999996
  0
ARC
  5
222
  8
1
 62
     7
 10
229.6005610530415
 20
24.060506695517919
 30
0.0
 40
10.00000000000008
 50
239.99999999999949
 51
59.999999999999922
  0
ARC
  5
223
  8
1
 62
     7
 10
305.37778388417991
 20
-19.68949330448207
 30
0.0
 40
93.500000000000099
 50
276.13963392490348
 51
23.860366075096358
  0
ARC
  5
224
  8
1
 62
     7
 10
305.37778388417991
 20
-19.68949330448207
 30
0.0
 40
93.499999999999986
 50
121.2256716508148
 51
143.86036607509629
  0
ARC
  5
225
  8
1
 62
     7
 10
305.37778388417991
 20
-19.68949330448207
 30
0.0
 40
93.500000000000156
 50
156.13963392490359
 51
263.86036607509629
  0
ARC
  5
226
  8
1
 62
     7
 10
61.790233410987298
 20
70.935506695517915
 30
0.0
 40
2.7965403663873412
 50
317.89655112925578
 51
42.103448870744138
  0
ARC
  5
227
  8
1
 62
     7
 10
54.483144066556243
 20
65.310506695517915
 30
0.0
 40
10.103629710818421
 50
338.21321070173809
 51
21.786789298261851
  0
ARC
  5
228
  8
1
 62
     7
 10
61.790233410987298
 20
59.685506695517923
 30
0.0
 40
2.7965403663873412
 50
317.89655112925578
 51
42.103448870744138
  0
ARC
  5
229
  8
1
 62
     7
 10
71.383314143761936
 20
59.685506695517923
 30
0.0
 40
2.7965403663873412
 50
137.89655112925581
 51
222.1034488707441
  0
ARC
  5
22A
  8
1
 62
     7
 10
78.690403488192999
 20
65.310506695517915
 30
0.0
 40
10.10362971081844
 50
158.21321070173809
 51
201.78678929826171
  0
ARC
  5
22B
  8
1
 62
     7
 10
71.383314143761936
 20
70.935506695517915
 30
0.0
 40
2.7965403663873412
 50
137.89655112925581
 51
222.1034488707441
  0
ARC
  5
22C
  8
1
 62
     7
 10
305.37778388417991
 20
-19.68949330448207
 30
0.0
 40
93.499999999999872
 50
36.139633924903698
 51
118.7743283491854
  0
ARC
  5
22D
  8
1
 62
     7
 10
305.37778388418087
 20
-19.689493304481442
 30
0.0
 40
95.0
 50
121.2063160575302
 51
118.7936839424713
  0
ARC
  5
22E
  8
1
 62
     7
 10
58.086773777374617
 20
-19.68949330448207
 30
0.0
 40
3.0
 50
0.0
 51
180.0
  0
ARC
  5
22F
  8
1
 62
     3
 10
58.086773777374617
 20
-19.68949330448207
 30
0.0
 40
2.3999999999999702
 50
0.0
 51
180.0
  0
CIRCLE
  5
230
  8
1
 62
     7
 10
61.001479659727522
 20
-55.689493304482077
 30
0.0
 40
1.5
  0
CIRCLE
  5
231
  8
1
 62
     7
 10
59.136773777374628
 20
-65.689493304482099
 30
0.0
 40
1.5
  0
CIRCLE
  5
232
  8
1
 62
     7
 10
64.730891424433423
 20
-55.689493304482077
 30
0.0
 40
1.5
  0
CIRCLE
  5
233
  8
1
 62
     7
 10
62.866185542080537
 20
-65.689493304482099
 30
0.0
 40
1.5
  0
CIRCLE
  5
234
  8
1
 62
     7
 10
68.460303189139324
 20
-55.689493304482077
 30
0.0
 40
1.5
  0
CIRCLE
  5
235
  8
1
 62
     7
 10
66.595597306786431
 20
-65.689493304482099
 30
0.0
 40
1.5
  0
CIRCLE
  5
236
  8
1
 62
     7
 10
72.18971495384524
 20
-55.689493304482077
 30
0.0
 40
1.5
  0
CIRCLE
  5
237
  8
1
 62
     7
 10
70.325009071492332
 20
-65.689493304482099
 30
0.0
 40
1.5
  0
CIRCLE
  5
238
  8
1
 62
     7
 10
75.919126718551126
 20
-55.689493304482077
 30
0.0
 40
1.5
  0
CIRCLE
  5
239
  8
1
 62
     7
 10
74.054420836198133
 20
-65.689493304482099
 30
0.0
 40
1.5
  0
CIRCLE
  5
23A
  8
1
 62
     7
 10
79.648538483257013
 20
-55.689493304482077
 30
0.0
 40
1.5
  0
CIRCLE
  5
23B
  8
1
 62
     7
 10
77.78383260090402
 20
-65.689493304482099
 30
0.0
 40
1.5
  0
CIRCLE
  5
23C
  8
1
 62
     7
 10
83.377950247962943
 20
-55.689493304482077
 30
0.0
 40
1.5
  0
CIRCLE
  5
23D
  8
1
 62
     7
 10
81.513244365609921
 20
-65.689493304482099
 30
0.0
 40
1.5
  0
CIRCLE
  5
23E
  8
1
 62
     7
 10
87.107362012668744
 20
-55.689493304482077
 30
0.0
 40
1.5
  0
CIRCLE
  5
23F
  8
1
 62
     7
 10
85.242656130315794
 20
-65.689493304482099
 30
0.0
 40
1.5
  0
CIRCLE
  5
240
  8
1
 62
     7
 10
90.836773777374646
 20
-55.689493304482077
 30
0.0
 40
1.5
  0
CIRCLE
  5
241
  8
1
 62
     7
 10
88.972067895021723
 20
-65.689493304482099
 30
0.0
 40
1.5
  0
CIRCLE
  5
242
  8
1
 62
     3
 10
378.98994320585712
 20
-62.18949330448207
 30
0.0
 40
3.1999999999998741
  0
CIRCLE
  5
243
  8
1
 62
     7
 10
378.98994320585712
 20
-62.18949330448207
 30
0.0
 40
4.0
  0
CIRCLE
  5
244
  8
1
 62
     7
 10
378.98994320585712
 20
-62.18949330448207
 30
0.0
 40
6.5
  0
CIRCLE
  5
245
  8
1
 62
     3
 10
231.7656245625025
 20
-62.18949330448207
 30
0.0
 40
3.1999999999999029
  0
CIRCLE
  5
246
  8
1
 62
     7
 10
231.7656245625025
 20
-62.18949330448207
 30
0.0
 40
4.0
  0
CIRCLE
  5
247
  8
1
 62
     7
 10
231.7656245625025
 20
-62.18949330448207
 30
0.0
 40
6.5
  0
CIRCLE
  5
248
  8
1
 62
     3
 10
305.37778388417968
 20
65.310506695517915
 30
0.0
 40
3.1999999999999882
  0
CIRCLE
  5
249
  8
1
 62
     7
 10
305.37778388417968
 20
65.310506695517915
 30
0.0
 40
4.0
  0
CIRCLE
  5
24A
  8
1
 62
     7
 10
305.37778388417968
 20
65.310506695517915
 30
0.0
 40
6.5
  0
CIRCLE
  5
24B
  8
1
 62
     3
 10
340.8848254393418
 20
0.8105066955179154
 30
0.0
 40
2.3999999999999768
  0
CIRCLE
  5
24C
  8
1
 62
     7
 10
340.8848254393418
 20
0.8105066955179154
 30
0.0
 40
3.0
  0
CIRCLE
  5
24D
  8
1
 62
     7
 10
340.8848254393418
 20
0.8105066955179154
 30
0.0
 40
5.0
  0
CIRCLE
  5
24E
  8
1
 62
     3
 10
305.37778388417968
 20
-60.689493304482077
 30
0.0
 40
2.4000000000000341
  0
CIRCLE
  5
24F
  8
1
 62
     7
 10
305.37778388417968
 20
-60.689493304482077
 30
0.0
 40
3.0
  0
CIRCLE
  5
250
  8
1
 62
     7
 10
305.37778388417968
 20
-60.689493304482077
 30
0.0
 40
5.0
  0
CIRCLE
  5
251
  8
1
 62
     3
 10
269.87074232901779
 20
0.8105066955179154
 30
0.0
 40
2.4000000000000341
  0
CIRCLE
  5
252
  8
1
 62
     7
 10
269.87074232901779
 20
0.8105066955179154
 30
0.0
 40
3.0
  0
CIRCLE
  5
253
  8
1
 62
     7
 10
269.87074232901779
 20
0.8105066955179154
 30
0.0
 40
5.0
  0
CIRCLE
  5
254
  8
1
 62
     7
 10
220.37778388417971
 20
-19.68949330448207
 30
0.0
 40
4.75
  0
CIRCLE
  5
255
  8
1
 62
     7
 10
220.37778388417971
 20
-19.68949330448207
 30
0.0
 40
3.2000000000000171
  0
CIRCLE
  5
256
  8
1
 62
     3
 10
220.37778388417971
 20
-19.68949330448207
 30
0.0
 40
4.0
  0
CIRCLE
  5
257
  8
1
 62
     3
 10
390.37778388417962
 20
-19.68949330448207
 30
0.0
 40
4.0000000000001128
  0
CIRCLE
  5
258
  8
1
 62
     7
 10
390.37778388417962
 20
-19.68949330448207
 30
0.0
 40
3.200000000000101
  0
CIRCLE
  5
259
  8
1
 62
     7
 10
390.37778388417962
 20
-19.68949330448207
 30
0.0
 40
4.7500000000001128
  0
CIRCLE
  5
25A
  8
1
 62
     7
 10
305.37778388417991
 20
-19.68949330448207
 30
0.0
 40
75.999999999999901
  0
CIRCLE
  5
25B
  8
1
 62
     7
 10
305.37778388417991
 20
-19.68949330448207
 30
0.0
 40
29.99999999999989
  0
CIRCLE
  5
25C
  8
1
 62
     7
 10
305.37778388417991
 20
-19.68949330448207
 30
0.0
 40
25.999999999999879
  0
CIRCLE
  5
25D
  8
1
 62
     7
 10
305.37778388417968
 20
-104.689493304482
 30
0.0
 40
6.5
  0
CIRCLE
  5
25E
  8
1
 62
     7
 10
378.98994320585712
 20
22.810506695517919
 30
0.0
 40
6.5
  0
CIRCLE
  5
25F
  8
1
 62
     7
 10
231.7656245625025
 20
22.810506695517919
 30
0.0
 40
6.5
  0
ARC
  5
260
  8
1
 62
     7
 10
88.826773777374612
 20
61.245506695517918
 30
0.0
 40
1.5599999999999949
 50
270.0
 51
0.0
  0
ARC
  5
261
  8
1
 62
     7
 10
88.826773777374612
 20
69.375506695517885
 30
0.0
 40
1.5600000000000021
 50
0.0
 51
90.0
  0
ARC
  5
262
  8
1
 62
     7
 10
-101.1732262226254
 20
61.245506695517918
 30
0.0
 40
1.5599999999999949
 50
270.0
 51
0.0
  0
ARC
  5
263
  8
1
 62
     7
 10
-101.1732262226254
 20
69.375506695517885
 30
0.0
 40
1.5600000000000021
 50
0.0
 51
90.0
  0
TEXT
  5
265
  8
1
 62
     7
 10
-146.13677948844679
 20
159.693478647294
 30
0.0
 40
8.0
  1
MNB 10
 41
0.9
  7
SIMPLEX
  0
ENDSEC
  0
EOF
