  0
SECTION
  2
HEADER
  9
$ACADVER
  1
AC1009
  9
$INSBASE
 10
0.0
 20
0.0
 30
0.0
  9
$EXTMIN
 10
-141.1005319423611
 20
-64.647070935789003
 30
0.0
  9
$EXTMAX
 10
248.65339568345331
 20
119.437256573033
 30
0.0
  9
$LIMMIN
 10
-141.1005319423611
 20
-64.647070935789003
  9
$LIMMAX
 10
248.65339568345331
 20
119.437256573033
  9
$ORTHOMODE
 70
     0
  9
$REGENMODE
 70
     1
  9
$FILLMODE
 70
     1
  9
$QTEXTMODE
 70
     0
  9
$MIRRTEXT
 70
     1
  9
$DRAGMODE
 70
     2
  9
$LTSCALE
 40
1.0
  9
$OSMODE
 70
    37
  9
$ATTMODE
 70
     1
  9
$TEXTSIZE
 40
3.5
  9
$TRACEWID
 40
0.5
  9
$TEXTSTYLE
  7
STANDARD
  9
$CLAYER
  8
0
  9
$CELTYPE
  6
BYLAYER
  9
$CECOLOR
 62
   256
  9
$DIMSCALE
 40
1.0
  9
$DIMASZ
 40
0.18
  9
$DIMEXO
 40
0.0625
  9
$DIMDLI
 40
0.38
  9
$DIMRND
 40
0.0
  9
$DIMDLE
 40
0.0
  9
$DIMEXE
 40
0.18
  9
$DIMTP
 40
0.0
  9
$DIMTM
 40
0.0
  9
$DIMTXT
 40
0.18
  9
$DIMCEN
 40
0.09
  9
$DIMTSZ
 40
0.0
  9
$DIMTOL
 70
     0
  9
$DIMLIM
 70
     0
  9
$DIMTIH
 70
     1
  9
$DIMTOH
 70
     1
  9
$DIMSE1
 70
     0
  9
$DIMSE2
 70
     0
  9
$DIMTAD
 70
     0
  9
$DIMZIN
 70
     0
  9
$DIMBLK
  1

  9
$DIMASO
 70
     1
  9
$DIMSHO
 70
     1
  9
$DIMPOST
  1

  9
$DIMAPOST
  1

  9
$DIMALT
 70
     0
  9
$DIMALTD
 70
     2
  9
$DIMALTF
 40
25.399999999999999
  9
$DIMLFAC
 40
1.0
  9
$DIMTOFL
 70
     0
  9
$DIMTVP
 40
0.0
  9
$DIMTIX
 70
     0
  9
$DIMSOXD
 70
     0
  9
$DIMSAH
 70
     0
  9
$DIMBLK1
  1

  9
$DIMBLK2
  1

  9
$DIMSTYLE
  2
STANDARD
  9
$DIMCLRD
 70
     0
  9
$DIMCLRE
 70
     0
  9
$DIMCLRT
 70
     0
  9
$DIMTFAC
 40
1.0
  9
$DIMGAP
 40
0.09
  9
$LUNITS
 70
     2
  9
$LUPREC
 70
     4
  9
$SKETCHINC
 40
0.1
  9
$FILLETRAD
 40
2.0
  9
$AUNITS
 70
     0
  9
$AUPREC
 70
     0
  9
$MENU
  1
ACAD
  9
$ELEVATION
 40
0.0
  9
$PELEVATION
 40
0.0
  9
$THICKNESS
 40
0.0
  9
$LIMCHECK
 70
     0
  9
$BLIPMODE
 70
     0
  9
$CHAMFERA
 40
0.0
  9
$CHAMFERB
 40
0.0
  9
$SKPOLY
 70
     0
  9
$TDCREATE
 40
2452094.9841268519
  9
$TDUPDATE
 40
2452094.9846538189
  9
$TDINDWG
 40
0.0005416667
  9
$TDUSRTIMER
 40
0.0005416667
  9
$USRTIMER
 70
     1
  9
$ANGBASE
 50
0.0
  9
$ANGDIR
 70
     0
  9
$PDMODE
 70
     0
  9
$PDSIZE
 40
0.0
  9
$PLINEWID
 40
0.0
  9
$COORDS
 70
     1
  9
$SPLFRAME
 70
     0
  9
$SPLINETYPE
 70
     6
  9
$SPLINESEGS
 70
     8
  9
$ATTDIA
 70
     0
  9
$ATTREQ
 70
     1
  9
$HANDLING
 70
 10241
  9
$HANDSEED
  5
26E
  9
$SURFTAB1
 70
     6
  9
$SURFTAB2
 70
     6
  9
$SURFTYPE
 70
     6
  9
$SURFU
 70
     6
  9
$SURFV
 70
     6
  9
$UCSNAME
  2

  9
$UCSORG
 10
0.0
 20
0.0
 30
0.0
  9
$UCSXDIR
 10
1.0
 20
0.0
 30
0.0
  9
$UCSYDIR
 10
0.0
 20
1.0
 30
0.0
  9
$PUCSNAME
  2

  9
$PUCSORG
 10
0.0
 20
0.0
 30
0.0
  9
$PUCSXDIR
 10
1.0
 20
0.0
 30
0.0
  9
$PUCSYDIR
 10
0.0
 20
1.0
 30
0.0
  9
$USERI1
 70
     0
  9
$USERI2
 70
     0
  9
$USERI3
 70
     0
  9
$USERI4
 70
     0
  9
$USERI5
 70
     0
  9
$USERR1
 40
0.0
  9
$USERR2
 40
0.0
  9
$USERR3
 40
0.0
  9
$USERR4
 40
0.0
  9
$USERR5
 40
0.0
  9
$WORLDVIEW
 70
     1
  9
$SHADEDGE
 70
     3
  9
$SHADEDIF
 70
    70
  9
$TILEMODE
 70
     1
  9
$MAXACTVP
 70
    64
  9
$PLIMCHECK
 70
     0
  9
$PEXTMIN
 10
1.0000000000000000E+020
 20
1.0000000000000000E+020
 30
1.0000000000000000E+020
  9
$PEXTMAX
 10
-1.0000000000000000E+020
 20
-1.0000000000000000E+020
 30
-1.0000000000000000E+020
  9
$PLIMMIN
 10
0.0
 20
0.0
  9
$PLIMMAX
 10
12.0
 20
9.0
  9
$UNITMODE
 70
     0
  9
$VISRETAIN
 70
     1
  9
$PLINEGEN
 70
     0
  9
$PSLTSCALE
 70
     1
  0
ENDSEC
  0
SECTION
  2
TABLES
  0
TABLE
  2
VPORT
 70
     2
  0
VPORT
  2
*ACTIVE
 70
     0
 10
0.0
 20
0.0
 11
1.0
 21
1.0
 12
-98.808680643294124
 22
109.1622706684614
 13
0.0
 23
0.0
 14
1.0
 24
1.0
 15
0.0
 25
0.0
 16
0.0
 26
0.0
 36
1.0
 17
0.0
 27
0.0
 37
0.0
 40
9.0000001707744932
 41
2.4144144144144142
 42
50.0
 43
0.0
 44
0.0
 50
0.0
 51
0.0
 71
     0
 72
   100
 73
     1
 74
     1
 75
     0
 76
     0
 77
     0
 78
     0
  0
ENDTAB
  0
TABLE
  2
LTYPE
 70
     9
  0
LTYPE
  2
CONTINUOUS
 70
     0
  3
Solid line
 72
    65
 73
     0
 40
0.0
  0
LTYPE
  2
BORDER
 70
     0
  3
__ __ . __ __ .
 72
    65
 73
     6
 40
17.949194035399351
 49
5.1283411529712426
 49
-2.5641705764856209
 49
5.1283411529712426
 49
-2.5641705764856209
 49
0.0
 49
-2.5641705764856209
  0
LTYPE
  2
CENTER
 70
     0
  3
____ _ ____ _
 72
    65
 73
     4
 40
20.51336461188496
 49
12.82085288242811
 49
-2.5641705764856209
 49
2.5641705764856209
 49
-2.5641705764856209
  0
LTYPE
  2
DASHDOT
 70
     0
  3
__ . __ . __ .
 72
    65
 73
     4
 40
10.256682305942491
 49
5.1283411529712426
 49
-2.5641705764856209
 49
0.0
 49
-2.5641705764856209
  0
LTYPE
  2
DASHED
 70
     0
  3
__ __ __ __ __
 72
    65
 73
     2
 40
7.6925117294568661
 49
5.1283411529712426
 49
-2.5641705764856209
  0
LTYPE
  2
DIVIDE
 70
     0
  3
__ . . __ . . 
 72
    65
 73
     6
 40
12.82085288242811
 49
5.1283411529712426
 49
-2.5641705764856209
 49
0.0
 49
-2.5641705764856209
 49
0.0
 49
-2.5641705764856209
  0
LTYPE
  2
DOT
 70
     0
  3
..............
 72
    65
 73
     4
 40
5.1283411529712426
 49
0.0
 49
-2.5641705764856209
 49
0.0
 49
-2.5641705764856209
  0
LTYPE
  2
HIDDEN
 70
     0
  3
_ _ _ _ _ _ _
 72
    65
 73
     2
 40
3.8462558647284331
 49
2.5641705764856209
 49
-1.28208528824281
  0
LTYPE
  2
PHANTOM
 70
     0
  3
_____ _ _ _____ _ _ 
 72
    65
 73
     6
 40
25.641705764856219
 49
12.82085288242811
 49
-2.5641705764856209
 49
2.5641705764856209
 49
-2.5641705764856209
 49
2.5641705764856209
 49
-2.5641705764856209
  0
ENDTAB
  0
TABLE
  2
LAYER
 70
     2
  0
LAYER
  2
0
 70
     0
 62
     7
  6
CONTINUOUS
  0
LAYER
  2
1
 70
     0
 62
     7
  6
CONTINUOUS
  0
ENDTAB
  0
TABLE
  2
STYLE
 70
     4
  0
STYLE
  2
STANDARD
 70
     0
 40
0.0
 41
1.0
 50
0.0
 71
     0
 42
3.5
  3
txt
  4

  0
STYLE
  2
SIMPLEX
 70
     0
 40
0.0
 41
1.0
 50
0.0
 71
     0
 42
3.5
  3
simplex
  4

  0
STYLE
  2
COMPLEX
 70
     0
 40
0.0
 41
1.0
 50
0.0
 71
     0
 42
3.5
  3
complex
  4

  0
STYLE
  2
ITALIC
 70
     0
 40
0.0
 41
1.0
 50
0.0
 71
     0
 42
3.5
  3
italic
  4

  0
ENDTAB
  0
TABLE
  2
VIEW
 70
     0
  0
ENDTAB
  0
TABLE
  2
UCS
 70
     0
  0
ENDTAB
  0
TABLE
  2
APPID
 70
     1
  0
APPID
  2
ACAD
 70
     0
  0
ENDTAB
  0
TABLE
  2
DIMSTYLE
 70
     1
  0
DIMSTYLE
  2
STANDARD
 70
     0
  3

  4

  5

  6

  7

 40
1.0
 41
0.18
 42
0.0625
 43
0.38
 44
0.18
 45
0.0
 46
0.0
 47
0.0
 48
0.0
140
0.18
141
0.09
142
0.0
143
25.399999999999999
144
1.0
145
0.0
146
1.0
147
0.09
 71
     0
 72
     0
 73
     1
 74
     1
 75
     0
 76
     0
 77
     0
 78
     0
170
     0
171
     2
172
     0
173
     0
174
     0
175
     0
176
     0
177
     0
178
     0
  0
ENDTAB
  0
ENDSEC
  0
SECTION
  2
BLOCKS
  0
BLOCK
  8
0
  2
$MODEL_SPACE
 70
     0
 10
0.0
 20
0.0
 30
0.0
  3
$MODEL_SPACE
  1

  0
ENDBLK
  5
20
  8
0
  0
BLOCK
 67
     1
  8
0
  2
$PAPER_SPACE
 70
     0
 10
0.0
 20
0.0
 30
0.0
  3
$PAPER_SPACE
  1

  0
ENDBLK
  5
1C
 67
     1
  8
0
  0
ENDSEC
  0
SECTION
  2
ENTITIES
  0
LINE
  5
33
  8
1
  6
DASHDOT
 62
     3
 10
186.15339568345331
 20
10.09702817873101
 30
0.0
 11
186.15339568345331
 21
17.000000000000011
 31
0.0
  0
LINE
  5
34
  8
1
  6
DASHDOT
 62
     3
 10
194.21116454041609
 20
0.0
 30
0.0
 11
202.15345534672869
 21
0.0
 31
0.0
  0
LINE
  5
35
  8
1
  6
DASHDOT
 62
     3
 10
186.15339568345331
 20
3.873121012776521
 30
0.0
 11
186.15339568345331
 21
-3.873121012776493
 31
0.0
  0
LINE
  5
36
  8
1
  6
DASHDOT
 62
     3
 10
190.02651669622981
 20
0.0
 30
0.0
 11
182.28027467067679
 21
0.0
 31
0.0
  0
LINE
  5
37
  8
1
  6
DASHDOT
 62
     3
 10
186.15339568345331
 20
-47.047094256052993
 30
0.0
 11
186.15339568345331
 21
-64.647070935789003
 31
0.0
  0
LINE
  5
38
  8
1
  6
DASHDOT
 62
     3
 10
226.71739794373551
 20
23.419637624382599
 30
0.0
 11
242.61042760746739
 21
32.595482578976799
 31
0.0
  0
LINE
  5
39
  8
1
  6
DASHDOT
 62
     3
 10
145.53115596544529
 20
23.45326103627751
 30
0.0
 11
129.97092270439171
 21
32.436965898200107
 31
0.0
  0
LINE
  5
3A
  8
1
 62
     7
 10
-113.0
 20
-61.0
 30
0.0
 11
-118.5
 21
-61.0
 31
0.0
  0
LINE
  5
3B
  8
1
 62
     7
 10
-128.0
 20
-53.0
 30
0.0
 11
-128.0
 21
-59.0
 31
0.0
  0
LINE
  5
3C
  8
1
 62
     7
 10
-113.0
 20
50.0
 30
0.0
 11
-120.0
 21
50.0
 31
0.0
  0
LINE
  5
3D
  8
1
 62
     7
 10
-105.2999999999999
 20
62.0
 30
0.0
 11
-104.0
 21
62.0
 31
0.0
  0
LINE
  5
3E
  8
1
 62
     7
 10
-105.2999999999999
 20
-62.0
 30
0.0
 11
-105.2999999999999
 21
62.0
 31
0.0
  0
LINE
  5
3F
  8
1
 62
     7
 10
-113.0
 20
-62.0
 30
0.0
 11
-113.0
 21
62.0
 31
0.0
  0
LINE
  5
40
  8
1
 62
     3
 10
-65.0
 20
0.0
 30
0.0
 11
-60.0
 21
0.0
 31
0.0
  0
LINE
  5
41
  8
1
 62
     3
 10
-133.0
 20
0.0
 30
0.0
 11
-128.0
 21
0.0
 31
0.0
  0
LINE
  5
42
  8
1
 62
     7
 10
-120.0
 20
-62.099999999999987
 30
0.0
 11
-120.0
 21
61.98089550658743
 31
0.0
  0
LINE
  5
43
  8
1
 62
     7
 10
-79.0
 20
59.0
 30
0.0
 11
-76.599999999999966
 21
59.0
 31
0.0
  0
LINE
  5
44
  8
1
 62
     3
 10
-79.0
 20
53.599999999999987
 30
0.0
 11
-76.0
 21
53.599999999999987
 31
0.0
  0
LINE
  5
45
  8
1
 62
     3
 10
-79.0
 20
58.400000000000013
 30
0.0
 11
-76.0
 21
58.400000000000013
 31
0.0
  0
LINE
  5
46
  8
1
 62
     3
 10
-99.0
 20
58.400000000000013
 30
0.0
 11
-96.0
 21
58.400000000000013
 31
0.0
  0
LINE
  5
47
  8
1
 62
     7
 10
-99.0
 20
59.0
 30
0.0
 11
-96.0
 21
59.0
 31
0.0
  0
LINE
  5
48
  8
1
 62
     7
 10
-96.0
 20
53.0
 30
0.0
 11
-99.0
 21
53.0
 31
0.0
  0
LINE
  5
49
  8
1
 62
     3
 10
-99.0
 20
53.599999999999987
 30
0.0
 11
-96.0
 21
53.599999999999987
 31
0.0
  0
LINE
  5
4A
  8
1
 62
     7
 10
-79.490747728811186
 20
50.25
 30
0.0
 11
-84.0
 21
50.25
 31
0.0
  0
LINE
  5
4B
  8
1
 62
     7
 10
-79.490747728811186
 20
53.125
 30
0.0
 11
-84.0
 21
53.125
 31
0.0
  0
LINE
  5
4C
  8
1
 62
     7
 10
-79.490747728811186
 20
58.875
 30
0.0
 11
-84.0
 21
58.875
 31
0.0
  0
LINE
  5
4D
  8
1
 62
     7
 10
-79.490747728811186
 20
61.75
 30
0.0
 11
-84.0
 21
61.75
 31
0.0
  0
LINE
  5
4E
  8
1
 62
     7
 10
-79.0
 20
60.3125
 30
0.0
 11
-79.0
 21
51.6875
 31
0.0
  0
LINE
  5
4F
  8
1
 62
     7
 10
-95.509252271188785
 20
61.75
 30
0.0
 11
-91.0
 21
61.75
 31
0.0
  0
LINE
  5
50
  8
1
 62
     7
 10
-95.509252271188785
 20
58.875
 30
0.0
 11
-91.0
 21
58.875
 31
0.0
  0
LINE
  5
51
  8
1
 62
     7
 10
-95.509252271188785
 20
53.125
 30
0.0
 11
-91.0
 21
53.125
 31
0.0
  0
LINE
  5
52
  8
1
 62
     7
 10
-95.509252271188785
 20
50.25
 30
0.0
 11
-91.0
 21
50.25
 31
0.0
  0
LINE
  5
53
  8
1
 62
     7
 10
-96.0
 20
51.6875
 30
0.0
 11
-96.0
 21
60.3125
 31
0.0
  0
LINE
  5
54
  8
1
 62
     7
 10
-104.0
 20
61.75
 30
0.0
 11
-104.0
 21
50.25
 31
0.0
  0
LINE
  5
55
  8
1
 62
     7
 10
-99.490747728811201
 20
50.25
 30
0.0
 11
-104.0
 21
50.25
 31
0.0
  0
LINE
  5
56
  8
1
 62
     7
 10
-99.490747728811201
 20
53.125
 30
0.0
 11
-104.0
 21
53.125
 31
0.0
  0
LINE
  5
57
  8
1
 62
     7
 10
-99.490747728811201
 20
58.875
 30
0.0
 11
-104.0
 21
58.875
 31
0.0
  0
LINE
  5
58
  8
1
 62
     7
 10
-99.490747728811201
 20
61.75
 30
0.0
 11
-104.0
 21
61.75
 31
0.0
  0
LINE
  5
59
  8
1
 62
     7
 10
-99.0
 20
60.3125
 30
0.0
 11
-99.0
 21
51.6875
 31
0.0
  0
LINE
  5
5A
  8
1
 62
     7
 10
-105.2999999999999
 20
62.0
 30
0.0
 11
-105.2999999999999
 21
62.099999999999987
 31
0.0
  0
LINE
  5
5B
  8
1
 62
     7
 10
-104.0
 20
50.0
 30
0.0
 11
-105.2999999999999
 21
50.0
 31
0.0
  0
LINE
  5
5C
  8
1
 62
     7
 10
-104.0
 20
62.0
 30
0.0
 11
-104.0
 21
50.0
 31
0.0
  0
LINE
  5
5D
  8
1
 62
     7
 10
-120.0
 20
62.0
 30
0.0
 11
-113.0
 21
62.0
 31
0.0
  0
LINE
  5
5E
  8
1
 62
     7
 10
-76.599999999999966
 20
59.0
 30
0.0
 11
-76.599999999999966
 21
53.0
 31
0.0
  0
LINE
  5
5F
  8
1
 62
     7
 10
-76.599999999999966
 20
53.0
 30
0.0
 11
-79.0
 21
53.0
 31
0.0
  0
LINE
  5
60
  8
1
 62
     7
 10
-76.0
 20
53.599999999999987
 30
0.0
 11
-76.599999999999966
 21
53.0
 31
0.0
  0
LINE
  5
61
  8
1
 62
     7
 10
-76.0
 20
58.400000000000013
 30
0.0
 11
-76.0
 21
53.599999999999987
 31
0.0
  0
LINE
  5
62
  8
1
 62
     7
 10
-76.599999999999966
 20
59.0
 30
0.0
 11
-76.0
 21
58.400000000000013
 31
0.0
  0
LINE
  5
63
  8
1
  6
DASHDOT
 62
     3
 10
-141.1005319423611
 20
-56.0
 30
0.0
 11
-108.9818982324888
 21
-56.0
 31
0.0
  0
LINE
  5
64
  8
1
 62
     7
 10
-128.0
 20
-59.0
 30
0.0
 11
-128.0
 21
-61.985598935034602
 31
0.0
  0
LINE
  5
65
  8
1
 62
     7
 10
-135.89999999999989
 20
-53.0
 30
0.0
 11
-128.0
 21
-53.0
 31
0.0
  0
LINE
  5
66
  8
1
 62
     3
 10
-136.49999999999989
 20
-58.399999999999977
 30
0.0
 11
-128.0
 21
-58.399999999999977
 31
0.0
  0
LINE
  5
67
  8
1
 62
     3
 10
-136.49999999999989
 20
-53.599999999999987
 30
0.0
 11
-128.0
 21
-53.599999999999987
 31
0.0
  0
LINE
  5
68
  8
1
 62
     7
 10
-135.89999999999989
 20
-53.0
 30
0.0
 11
-135.89999999999989
 21
-59.0
 31
0.0
  0
LINE
  5
69
  8
1
 62
     7
 10
-135.89999999999989
 20
-59.0
 30
0.0
 11
-128.0
 21
-59.0
 31
0.0
  0
LINE
  5
6A
  8
1
 62
     7
 10
-136.49999999999989
 20
-58.399999999999977
 30
0.0
 11
-135.89999999999989
 21
-59.0
 31
0.0
  0
LINE
  5
6B
  8
1
 62
     7
 10
-136.49999999999989
 20
-53.599999999999987
 30
0.0
 11
-136.49999999999989
 21
-58.399999999999977
 31
0.0
  0
LINE
  5
6C
  8
1
 62
     7
 10
-135.89999999999989
 20
-53.0
 30
0.0
 11
-136.49999999999989
 21
-53.599999999999987
 31
0.0
  0
LINE
  5
6D
  8
1
 62
     7
 10
-118.5
 20
-51.0
 30
0.0
 11
-113.0
 21
-51.0
 31
0.0
  0
LINE
  5
6E
  8
1
 62
     7
 10
-118.5
 20
-62.099999999999987
 30
0.0
 11
-120.0
 21
-62.099999999999987
 31
0.0
  0
LINE
  5
6F
  8
1
 62
     7
 10
-118.5
 20
-49.899999999999977
 30
0.0
 11
-118.5
 21
-62.099999999999987
 31
0.0
  0
LINE
  5
70
  8
1
 62
     7
 10
-120.0
 20
-49.899999999999977
 30
0.0
 11
-118.5
 21
-49.899999999999977
 31
0.0
  0
LINE
  5
71
  8
1
 62
     7
 10
-120.0
 20
-57.5
 30
0.0
 11
-118.5
 21
-56.0
 31
0.0
  0
LINE
  5
72
  8
1
 62
     7
 10
-120.0
 20
-56.0
 30
0.0
 11
-118.5
 21
-54.5
 31
0.0
  0
LINE
  5
73
  8
1
 62
     7
 10
-120.0
 20
-47.5
 30
0.0
 11
-113.0
 21
-47.5
 31
0.0
  0
LINE
  5
74
  8
1
 62
     7
 10
-120.0
 20
47.5
 30
0.0
 11
-113.0
 21
47.5
 31
0.0
  0
LINE
  5
75
  8
1
 62
     7
 10
-113.0
 20
62.0
 30
0.0
 11
-113.0
 21
62.099999999999987
 31
0.0
  0
LINE
  5
76
  8
1
 62
     7
 10
-105.6999999999999
 20
62.5
 30
0.0
 11
-112.59999999999989
 21
62.5
 31
0.0
  0
LINE
  5
77
  8
1
 62
     7
 10
-112.5
 20
-62.5
 30
0.0
 11
-105.8
 21
-62.5
 31
0.0
  0
LINE
  5
78
  8
1
 62
     7
 10
-128.0
 20
61.98089550658743
 30
0.0
 11
-128.0
 21
-53.0
 31
0.0
  0
LINE
  5
79
  8
1
 62
     7
 10
-120.5
 20
62.5
 30
0.0
 11
-127.5
 21
62.5
 31
0.0
  0
LINE
  5
7A
  8
1
 62
     7
 10
-127.5
 20
-62.5
 30
0.0
 11
-120.5
 21
-62.5
 31
0.0
  0
LINE
  5
7B
  8
1
 62
     7
 10
-91.0
 20
-49.0
 30
0.0
 11
-104.8
 21
-49.0
 31
0.0
  0
LINE
  5
7C
  8
1
 62
     7
 10
-91.0
 20
-62.0
 30
0.0
 11
-91.0
 21
61.999999999999993
 31
0.0
  0
LINE
  5
7D
  8
1
 62
     7
 10
-90.5
 20
-62.5
 30
0.0
 11
-84.500000000000014
 21
-62.5
 31
0.0
  0
LINE
  5
7E
  8
1
 62
     7
 10
-84.0
 20
-49.0
 30
0.0
 11
-66.0
 21
-49.0
 31
0.0
  0
LINE
  5
7F
  8
1
 62
     7
 10
-65.0
 20
-48.0
 30
0.0
 11
-65.0
 21
48.0
 31
0.0
  0
LINE
  5
80
  8
1
 62
     7
 10
-84.0
 20
49.0
 30
0.0
 11
-66.0
 21
49.0
 31
0.0
  0
LINE
  5
81
  8
1
 62
     7
 10
-84.0
 20
62.0
 30
0.0
 11
-84.0
 21
-62.0
 31
0.0
  0
LINE
  5
82
  8
1
 62
     7
 10
-90.5
 20
62.5
 30
0.0
 11
-84.500000000000014
 21
62.5
 31
0.0
  0
LINE
  5
83
  8
1
 62
     7
 10
-104.8
 20
49.0
 30
0.0
 11
-91.0
 21
49.0
 31
0.0
  0
LINE
  5
84
  8
1
 62
     7
 10
-61.0
 20
-19.049999999999969
 30
0.0
 11
-61.0
 21
-25.949999999999989
 31
0.0
  0
LINE
  5
85
  8
1
 62
     7
 10
-61.404145188432651
 20
-17.899999999999981
 30
0.0
 11
-65.0
 21
-17.899999999999981
 31
0.0
  0
LINE
  5
86
  8
1
 62
     7
 10
-61.404145188432651
 20
-20.199999999999989
 30
0.0
 11
-65.0
 21
-20.199999999999989
 31
0.0
  0
LINE
  5
87
  8
1
 62
     7
 10
-61.404145188432651
 20
-24.799999999999979
 30
0.0
 11
-65.0
 21
-24.799999999999979
 31
0.0
  0
LINE
  5
88
  8
1
 62
     7
 10
-61.404145188432651
 20
-27.099999999999991
 30
0.0
 11
-65.0
 21
-27.099999999999991
 31
0.0
  0
LINE
  5
89
  8
1
 62
     7
 10
-60.0
 20
-24.13397459621557
 30
0.0
 11
-60.5
 21
-25.0
 31
0.0
  0
LINE
  5
8A
  8
1
 62
     7
 10
-60.5
 20
-25.0
 30
0.0
 11
-60.5
 21
-20.0
 31
0.0
  0
LINE
  5
8B
  8
1
 62
     7
 10
-60.5
 20
-20.0
 30
0.0
 11
-60.0
 21
-20.866025403784501
 31
0.0
  0
LINE
  5
8C
  8
1
 62
     7
 10
-60.0
 20
-20.866025403784501
 30
0.0
 11
-60.0
 21
-24.13397459621557
 31
0.0
  0
LINE
  5
8D
  8
1
 62
     7
 10
-60.5
 20
-25.0
 30
0.0
 11
-61.0
 21
-25.0
 31
0.0
  0
LINE
  5
8E
  8
1
 62
     3
 10
-60.21132486540516
 20
-24.5
 30
0.0
 11
-61.0
 21
-24.5
 31
0.0
  0
LINE
  5
8F
  8
1
 62
     3
 10
-60.21132486540516
 20
-20.5
 30
0.0
 11
-61.0
 21
-20.5
 31
0.0
  0
LINE
  5
90
  8
1
 62
     7
 10
-61.0
 20
-20.0
 30
0.0
 11
-60.5
 21
-20.0
 31
0.0
  0
LINE
  5
91
  8
1
 62
     7
 10
-104.8
 20
49.0
 30
0.0
 11
-104.8
 21
-49.0
 31
0.0
  0
LINE
  5
92
  8
1
 62
     7
 10
-77.099999999999966
 20
80.5
 30
0.0
 11
-77.099999999999966
 21
77.5
 31
0.0
  0
LINE
  5
93
  8
1
 62
     7
 10
-77.300000000000026
 20
77.5
 30
0.0
 11
-77.300000000000026
 21
80.5
 31
0.0
  0
LINE
  5
94
  8
1
 62
     7
 10
-77.5
 20
80.5
 30
0.0
 11
-77.5
 21
77.5
 31
0.0
  0
LINE
  5
95
  8
1
 62
     7
 10
-77.699999999999974
 20
77.5
 30
0.0
 11
-77.699999999999974
 21
80.5
 31
0.0
  0
LINE
  5
96
  8
1
 62
     7
 10
-77.899999999999977
 20
80.5
 30
0.0
 11
-77.899999999999977
 21
77.5
 31
0.0
  0
LINE
  5
97
  8
1
 62
     7
 10
-78.5
 20
77.5
 30
0.0
 11
-76.5
 21
77.5
 31
0.0
  0
LINE
  5
98
  8
1
 62
     7
 10
-76.5
 20
58.900000000000013
 30
0.0
 11
-76.5
 21
77.5
 31
0.0
  0
LINE
  5
99
  8
1
 62
     7
 10
-76.5
 20
53.09999999999998
 30
0.0
 11
-76.5
 21
49.0
 31
0.0
  0
LINE
  5
9A
  8
1
 62
     7
 10
-78.5
 20
49.0
 30
0.0
 11
-78.5
 21
53.0
 31
0.0
  0
LINE
  5
9B
  8
1
 62
     7
 10
-78.5
 20
59.0
 30
0.0
 11
-78.5
 21
77.5
 31
0.0
  0
LINE
  5
9C
  8
1
 62
     7
 10
-91.0
 20
61.999999999999993
 30
0.0
 11
-90.5
 21
62.5
 31
0.0
  0
LINE
  5
9D
  8
1
 62
     7
 10
-84.500000000000014
 20
62.5
 30
0.0
 11
-84.0
 21
62.0
 31
0.0
  0
LINE
  5
9E
  8
1
 62
     7
 10
-120.5
 20
62.5
 30
0.0
 11
-120.0
 21
61.98089550658743
 31
0.0
  0
LINE
  5
9F
  8
1
 62
     7
 10
-127.5
 20
62.5
 30
0.0
 11
-128.0
 21
61.98089550658743
 31
0.0
  0
LINE
  5
A0
  8
1
 62
     7
 10
-105.6999999999999
 20
62.5
 30
0.0
 11
-105.2999999999999
 21
62.099999999999987
 31
0.0
  0
LINE
  5
A1
  8
1
 62
     7
 10
-112.59999999999989
 20
62.5
 30
0.0
 11
-113.0
 21
62.099999999999987
 31
0.0
  0
LINE
  5
A2
  8
1
 62
     7
 10
-127.5
 20
-62.5
 30
0.0
 11
-128.0
 21
-61.985598935034602
 31
0.0
  0
LINE
  5
A3
  8
1
 62
     7
 10
-120.5
 20
-62.5
 30
0.0
 11
-120.0
 21
-61.985598935034602
 31
0.0
  0
LINE
  5
A4
  8
1
 62
     7
 10
-112.5
 20
-62.5
 30
0.0
 11
-113.0
 21
-62.0
 31
0.0
  0
LINE
  5
A5
  8
1
 62
     7
 10
-105.8
 20
-62.5
 30
0.0
 11
-105.2999999999999
 21
-62.0
 31
0.0
  0
LINE
  5
A6
  8
1
 62
     7
 10
-90.5
 20
-62.5
 30
0.0
 11
-91.0
 21
-62.0
 31
0.0
  0
LINE
  5
A7
  8
1
 62
     7
 10
-84.0
 20
-62.0
 30
0.0
 11
-84.500000000000014
 21
-62.5
 31
0.0
  0
LINE
  5
A8
  8
1
 62
     7
 10
-65.0
 20
-48.0
 30
0.0
 11
-66.0
 21
-49.0
 31
0.0
  0
LINE
  5
A9
  8
1
 62
     7
 10
-66.0
 20
49.0
 30
0.0
 11
-65.0
 21
48.0
 31
0.0
  0
LINE
  5
AA
  8
1
 62
     7
 10
-115.2
 20
-47.5
 30
0.0
 11
-115.2
 21
47.5
 31
0.0
  0
LINE
  5
AB
  8
1
 62
     7
 10
-117.7999999999999
 20
47.5
 30
0.0
 11
-117.7999999999999
 21
-47.5
 31
0.0
  0
LINE
  5
AC
  8
1
 62
     3
 10
63.0
 20
0.0
 30
0.0
 11
68.0
 21
0.0
 31
0.0
  0
LINE
  5
AD
  8
1
 62
     3
 10
-5.0
 20
0.0
 30
0.0
 11
0.0
 21
0.0
 31
0.0
  0
LINE
  5
AE
  8
1
  6
DASHDOT
 62
     3
 10
22.835516931472
 20
0.0
 30
0.0
 11
29.199305886004979
 21
0.0
 31
0.0
  0
LINE
  5
AF
  8
1
  6
DASHDOT
 62
     3
 10
26.0
 20
2.990316742379008
 30
0.0
 11
26.0
 21
-2.8754365548429912
 31
0.0
  0
LINE
  5
B0
  8
1
  6
DASHDOT
 62
     3
 10
26.0
 20
16.437279489784
 30
0.0
 11
26.0
 21
10.405514306791011
 31
0.0
  0
LINE
  5
B1
  8
1
 62
     7
 10
20.0
 20
-15.0
 30
0.0
 11
20.0
 21
-17.0
 31
0.0
  0
LINE
  5
B2
  8
1
 62
     7
 10
15.0
 20
-15.0
 30
0.0
 11
15.0
 21
-51.0
 31
0.0
  0
LINE
  5
B3
  8
1
 62
     7
 10
14.5
 20
-15.44999999999999
 30
0.0
 11
8.0
 21
-15.44999999999999
 31
0.0
  0
LINE
  5
B4
  8
1
 62
     7
 10
8.5
 20
-17.099999999999991
 30
0.0
 11
8.0
 21
-16.599999999999991
 31
0.0
  0
LINE
  5
B5
  8
1
 62
     7
 10
14.0
 20
-17.099999999999991
 30
0.0
 11
8.5
 21
-17.099999999999991
 31
0.0
  0
LINE
  5
B6
  8
1
 62
     7
 10
14.0
 20
-17.099999999999991
 30
0.0
 11
8.5
 21
-17.099999999999991
 31
0.0
  0
LINE
  5
B7
  8
1
 62
     7
 10
14.5
 20
-16.599999999999991
 30
0.0
 11
14.0
 21
-17.099999999999991
 31
0.0
  0
LINE
  5
B8
  8
1
 62
     7
 10
14.5
 20
-15.0
 30
0.0
 11
14.5
 21
-16.599999999999991
 31
0.0
  0
LINE
  5
B9
  8
1
 62
     7
 10
32.5
 20
-15.0
 30
0.0
 11
14.5
 21
-15.0
 31
0.0
  0
LINE
  5
BA
  8
1
 62
     7
 10
33.0
 20
-14.5
 30
0.0
 11
32.5
 21
-15.0
 31
0.0
  0
LINE
  5
BB
  8
1
 62
     7
 10
33.0
 20
-9.5
 30
0.0
 11
8.0
 21
-9.5
 31
0.0
  0
LINE
  5
BC
  8
1
 62
     7
 10
49.5
 20
-18.5
 30
0.0
 11
49.5
 21
-18.570577136593979
 31
0.0
  0
LINE
  5
BD
  8
1
 62
     7
 10
37.0
 20
-49.5
 30
0.0
 11
44.0
 21
-49.5
 31
0.0
  0
LINE
  5
BE
  8
1
 62
     7
 10
49.0
 20
59.0
 30
0.0
 11
51.400000000000013
 21
59.0
 31
0.0
  0
LINE
  5
BF
  8
1
 62
     3
 10
49.0
 20
53.599999999999987
 30
0.0
 11
52.0
 21
53.599999999999987
 31
0.0
  0
LINE
  5
C0
  8
1
 62
     3
 10
49.0
 20
58.400000000000013
 30
0.0
 11
52.0
 21
58.400000000000013
 31
0.0
  0
LINE
  5
C1
  8
1
 62
     3
 10
29.0
 20
58.400000000000013
 30
0.0
 11
32.0
 21
58.400000000000013
 31
0.0
  0
LINE
  5
C2
  8
1
 62
     7
 10
29.0
 20
59.0
 30
0.0
 11
32.0
 21
59.0
 31
0.0
  0
LINE
  5
C3
  8
1
 62
     7
 10
32.0
 20
53.0
 30
0.0
 11
29.0
 21
53.0
 31
0.0
  0
LINE
  5
C4
  8
1
 62
     3
 10
29.0
 20
53.599999999999987
 30
0.0
 11
32.0
 21
53.599999999999987
 31
0.0
  0
LINE
  5
C5
  8
1
 62
     7
 10
48.509252271188821
 20
50.25
 30
0.0
 11
44.0
 21
50.25
 31
0.0
  0
LINE
  5
C6
  8
1
 62
     7
 10
48.509252271188821
 20
53.125
 30
0.0
 11
44.0
 21
53.125
 31
0.0
  0
LINE
  5
C7
  8
1
 62
     7
 10
48.509252271188821
 20
58.875
 30
0.0
 11
44.0
 21
58.875
 31
0.0
  0
LINE
  5
C8
  8
1
 62
     7
 10
48.509252271188821
 20
61.75
 30
0.0
 11
44.0
 21
61.75
 31
0.0
  0
LINE
  5
C9
  8
1
 62
     7
 10
49.0
 20
60.3125
 30
0.0
 11
49.0
 21
51.6875
 31
0.0
  0
LINE
  5
CA
  8
1
 62
     7
 10
32.490747728811208
 20
61.75
 30
0.0
 11
37.0
 21
61.75
 31
0.0
  0
LINE
  5
CB
  8
1
 62
     7
 10
32.490747728811208
 20
58.875
 30
0.0
 11
37.0
 21
58.875
 31
0.0
  0
LINE
  5
CC
  8
1
 62
     7
 10
32.490747728811208
 20
53.125
 30
0.0
 11
37.0
 21
53.125
 31
0.0
  0
LINE
  5
CD
  8
1
 62
     7
 10
32.490747728811208
 20
50.25
 30
0.0
 11
37.0
 21
50.25
 31
0.0
  0
LINE
  5
CE
  8
1
 62
     7
 10
32.0
 20
51.6875
 30
0.0
 11
32.0
 21
60.3125
 31
0.0
  0
LINE
  5
CF
  8
1
 62
     7
 10
28.509252271188799
 20
50.25
 30
0.0
 11
24.0
 21
50.25
 31
0.0
  0
LINE
  5
D0
  8
1
 62
     7
 10
28.509252271188799
 20
53.125
 30
0.0
 11
24.0
 21
53.125
 31
0.0
  0
LINE
  5
D1
  8
1
 62
     7
 10
28.509252271188799
 20
58.875
 30
0.0
 11
24.0
 21
58.875
 31
0.0
  0
LINE
  5
D2
  8
1
 62
     7
 10
28.509252271188799
 20
61.75
 30
0.0
 11
24.0
 21
61.75
 31
0.0
  0
LINE
  5
D3
  8
1
 62
     7
 10
29.0
 20
60.3125
 30
0.0
 11
29.0
 21
51.6875
 31
0.0
  0
LINE
  5
D4
  8
1
 62
     7
 10
15.0
 20
49.5
 30
0.0
 11
22.699999999999989
 21
49.5
 31
0.0
  0
LINE
  5
D5
  8
1
 62
     7
 10
22.699999999999989
 20
62.0
 30
0.0
 11
22.699999999999989
 21
62.099999999999987
 31
0.0
  0
LINE
  5
D6
  8
1
 62
     7
 10
15.0
 20
50.0
 30
0.0
 11
15.0
 21
15.0
 31
0.0
  0
LINE
  5
D7
  8
1
 62
     7
 10
24.0
 20
50.0
 30
0.0
 11
8.0
 21
50.0
 31
0.0
  0
LINE
  5
D8
  8
1
 62
     7
 10
24.0
 20
62.0
 30
0.0
 11
24.0
 21
50.0
 31
0.0
  0
LINE
  5
D9
  8
1
 62
     7
 10
8.0
 20
62.0
 30
0.0
 11
24.0
 21
62.0
 31
0.0
  0
LINE
  5
DA
  8
1
 62
     7
 10
8.0
 20
61.98089550658743
 30
0.0
 11
8.0
 21
-62.099999999999987
 31
0.0
  0
LINE
  5
DB
  8
1
 62
     7
 10
51.400000000000013
 20
59.0
 30
0.0
 11
51.400000000000013
 21
53.0
 31
0.0
  0
LINE
  5
DC
  8
1
 62
     7
 10
51.400000000000013
 20
53.0
 30
0.0
 11
49.0
 21
53.0
 31
0.0
  0
LINE
  5
DD
  8
1
 62
     7
 10
52.0
 20
53.599999999999987
 30
0.0
 11
51.400000000000013
 21
53.0
 31
0.0
  0
LINE
  5
DE
  8
1
 62
     7
 10
52.0
 20
58.400000000000013
 30
0.0
 11
52.0
 21
53.599999999999987
 31
0.0
  0
LINE
  5
DF
  8
1
 62
     7
 10
51.400000000000013
 20
59.0
 30
0.0
 11
52.0
 21
58.400000000000013
 31
0.0
  0
LINE
  5
E0
  8
1
 62
     7
 10
15.0
 20
-61.0
 30
0.0
 11
15.0
 21
-62.0
 31
0.0
  0
LINE
  5
E1
  8
1
  6
DASHDOT
 62
     3
 10
-13.100531942361149
 20
-56.0
 30
0.0
 11
18.818101767511209
 21
-56.0
 31
0.0
  0
LINE
  5
E2
  8
1
 62
     7
 10
0.0
 20
-59.0
 30
0.0
 11
0.0
 21
-61.985598935034602
 31
0.0
  0
LINE
  5
E3
  8
1
 62
     7
 10
-7.8999999999999773
 20
-53.0
 30
0.0
 11
8.0
 21
-53.0
 31
0.0
  0
LINE
  5
E4
  8
1
 62
     7
 10
0.0
 20
-59.5
 30
0.0
 11
8.0
 21
-59.5
 31
0.0
  0
LINE
  5
E5
  8
1
 62
     7
 10
0.0
 20
-52.5
 30
0.0
 11
8.0
 21
-52.5
 31
0.0
  0
LINE
  5
E6
  8
1
 62
     3
 10
-8.5
 20
-58.399999999999977
 30
0.0
 11
7.9607695154585931
 21
-58.399999999999977
 31
0.0
  0
LINE
  5
E7
  8
1
 62
     3
 10
-8.5
 20
-53.599999999999987
 30
0.0
 11
7.9607695154585931
 21
-53.599999999999987
 31
0.0
  0
LINE
  5
E8
  8
1
 62
     7
 10
-7.8999999999999773
 20
-53.0
 30
0.0
 11
-7.8999999999999773
 21
-59.0
 31
0.0
  0
LINE
  5
E9
  8
1
 62
     7
 10
-7.8999999999999773
 20
-59.0
 30
0.0
 11
8.0
 21
-59.0
 31
0.0
  0
LINE
  5
EA
  8
1
 62
     7
 10
-8.5
 20
-58.399999999999977
 30
0.0
 11
-7.8999999999999773
 21
-59.0
 31
0.0
  0
LINE
  5
EB
  8
1
 62
     7
 10
-8.5
 20
-53.599999999999987
 30
0.0
 11
-8.5
 21
-58.399999999999977
 31
0.0
  0
LINE
  5
EC
  8
1
 62
     7
 10
-7.8999999999999773
 20
-53.0
 30
0.0
 11
-8.5
 21
-53.599999999999987
 31
0.0
  0
LINE
  5
ED
  8
1
 62
     7
 10
15.100000000000019
 20
-51.0
 30
0.0
 11
15.100000000000019
 21
-61.0
 31
0.0
  0
LINE
  5
EE
  8
1
 62
     7
 10
15.100000000000019
 20
-61.0
 30
0.0
 11
9.5
 21
-61.0
 31
0.0
  0
LINE
  5
EF
  8
1
 62
     7
 10
15.5
 20
-60.307179676972467
 30
0.0
 11
15.100000000000019
 21
-61.0
 31
0.0
  0
LINE
  5
F0
  8
1
 62
     7
 10
15.5
 20
-51.692820323027597
 30
0.0
 11
15.5
 21
-60.307179676972467
 31
0.0
  0
LINE
  5
F1
  8
1
 62
     7
 10
15.100000000000019
 20
-51.0
 30
0.0
 11
15.5
 21
-51.692820323027597
 31
0.0
  0
LINE
  5
F2
  8
1
 62
     7
 10
9.5
 20
-51.0
 30
0.0
 11
15.100000000000019
 21
-51.0
 31
0.0
  0
LINE
  5
F3
  8
1
 62
     7
 10
9.5
 20
-62.099999999999987
 30
0.0
 11
8.0
 21
-62.099999999999987
 31
0.0
  0
LINE
  5
F4
  8
1
 62
     7
 10
9.5
 20
-49.899999999999977
 30
0.0
 11
9.5
 21
-62.099999999999987
 31
0.0
  0
LINE
  5
F5
  8
1
 62
     7
 10
8.0
 20
-49.899999999999977
 30
0.0
 11
9.5
 21
-49.899999999999977
 31
0.0
  0
LINE
  5
F6
  8
1
 62
     7
 10
8.0
 20
-57.5
 30
0.0
 11
9.5
 21
-56.0
 31
0.0
  0
LINE
  5
F7
  8
1
 62
     7
 10
8.0
 20
-56.0
 30
0.0
 11
9.5
 21
-54.5
 31
0.0
  0
LINE
  5
F8
  8
1
 62
     7
 10
0.0
 20
30.000000000000011
 30
0.0
 11
10.19999999999999
 21
30.000000000000011
 31
0.0
  0
LINE
  5
F9
  8
1
 62
     7
 10
8.0
 20
-47.5
 30
0.0
 11
15.0
 21
-47.5
 31
0.0
  0
LINE
  5
FA
  8
1
 62
     7
 10
8.0
 20
47.5
 30
0.0
 11
15.0
 21
47.5
 31
0.0
  0
LINE
  5
FB
  8
1
 62
     7
 10
15.0
 20
62.0
 30
0.0
 11
15.0
 21
62.099999999999987
 31
0.0
  0
LINE
  5
FC
  8
1
 62
     7
 10
22.300000000000001
 20
62.5
 30
0.0
 11
15.40000000000002
 21
62.5
 31
0.0
  0
LINE
  5
FD
  8
1
 62
     7
 10
15.5
 20
-62.5
 30
0.0
 11
22.199999999999989
 21
-62.5
 31
0.0
  0
LINE
  5
FE
  8
1
 62
     7
 10
0.0
 20
61.98089550658743
 30
0.0
 11
0.0
 21
-53.0
 31
0.0
  0
LINE
  5
FF
  8
1
 62
     7
 10
7.5
 20
62.5
 30
0.0
 11
0.5
 21
62.5
 31
0.0
  0
LINE
  5
100
  8
1
 62
     7
 10
0.5
 20
-62.5
 30
0.0
 11
7.5
 21
-62.5
 31
0.0
  0
LINE
  5
101
  8
1
 62
     7
 10
23.199999999999989
 20
-18.199999999999982
 30
0.0
 11
23.199999999999989
 21
-15.0
 31
0.0
  0
LINE
  5
102
  8
1
 62
     7
 10
55.200000000000017
 20
-26.799999999999969
 30
0.0
 11
23.199999999999989
 21
-26.799999999999969
 31
0.0
  0
LINE
  5
103
  8
1
 62
     7
 10
55.200000000000017
 20
-18.199999999999982
 30
0.0
 11
55.200000000000017
 21
-20.5
 31
0.0
  0
LINE
  5
104
  8
1
 62
     7
 10
23.199999999999989
 20
-18.199999999999982
 30
0.0
 11
55.200000000000017
 21
-18.199999999999982
 31
0.0
  0
LINE
  5
105
  8
1
 62
     7
 10
23.199999999999989
 20
-17.0
 30
0.0
 11
63.0
 21
-17.0
 31
0.0
  0
LINE
  5
106
  8
1
 62
     7
 10
23.199999999999989
 20
17.000000000000011
 30
0.0
 11
63.0
 21
17.000000000000011
 31
0.0
  0
LINE
  5
107
  8
1
 62
     7
 10
23.199999999999989
 20
-49.0
 30
0.0
 11
23.199999999999989
 21
-26.799999999999969
 31
0.0
  0
LINE
  5
108
  8
1
 62
     7
 10
37.0
 20
-49.0
 30
0.0
 11
23.199999999999989
 21
-49.0
 31
0.0
  0
LINE
  5
109
  8
1
 62
     7
 10
37.0
 20
-49.0
 30
0.0
 11
37.0
 21
-62.0
 31
0.0
  0
LINE
  5
10A
  8
1
 62
     7
 10
37.5
 20
-62.5
 30
0.0
 11
43.5
 21
-62.5
 31
0.0
  0
LINE
  5
10B
  8
1
 62
     7
 10
44.0
 20
-49.0
 30
0.0
 11
44.0
 21
-62.0
 31
0.0
  0
LINE
  5
10C
  8
1
 62
     7
 10
44.0
 20
-49.0
 30
0.0
 11
62.0
 21
-49.0
 31
0.0
  0
LINE
  5
10D
  8
1
 62
     7
 10
63.0
 20
-48.0
 30
0.0
 11
63.0
 21
48.0
 31
0.0
  0
LINE
  5
10E
  8
1
 62
     7
 10
44.0
 20
49.0
 30
0.0
 11
62.0
 21
49.0
 31
0.0
  0
LINE
  5
10F
  8
1
 62
     7
 10
44.0
 20
49.0
 30
0.0
 11
44.0
 21
62.0
 31
0.0
  0
LINE
  5
110
  8
1
 62
     7
 10
37.5
 20
62.5
 30
0.0
 11
43.5
 21
62.5
 31
0.0
  0
LINE
  5
111
  8
1
 62
     7
 10
37.0
 20
49.0
 30
0.0
 11
37.0
 21
62.0
 31
0.0
  0
LINE
  5
112
  8
1
 62
     7
 10
23.199999999999989
 20
49.0
 30
0.0
 11
37.0
 21
49.0
 31
0.0
  0
LINE
  5
113
  8
1
 62
     7
 10
188.65339568345331
 20
-57.443375672974099
 30
0.0
 11
188.65339568345331
 21
-54.556624327025901
 31
0.0
  0
LINE
  5
114
  8
1
 62
     7
 10
186.15339568345331
 20
-58.886751345948191
 30
0.0
 11
188.65339568345331
 21
-57.443375672974099
 31
0.0
  0
LINE
  5
115
  8
1
 62
     7
 10
183.65339568345331
 20
-57.443375672974099
 30
0.0
 11
186.15339568345331
 21
-58.886751345948191
 31
0.0
  0
LINE
  5
116
  8
1
 62
     7
 10
183.65339568345331
 20
-54.556624327025901
 30
0.0
 11
183.65339568345331
 21
-57.443375672974099
 31
0.0
  0
LINE
  5
117
  8
1
 62
     7
 10
186.15339568345331
 20
-53.113248654051901
 30
0.0
 11
183.65339568345331
 21
-54.556624327025901
 31
0.0
  0
LINE
  5
118
  8
1
 62
     7
 10
188.65339568345331
 20
-54.556624327025901
 30
0.0
 11
186.15339568345331
 21
-53.113248654051901
 31
0.0
  0
LINE
  5
119
  8
1
 62
     7
 10
140.1559730715247
 20
26.556624327025919
 30
0.0
 11
140.1559730715247
 21
29.44337567297411
 31
0.0
  0
LINE
  5
11A
  8
1
 62
     7
 10
137.6559730715247
 20
25.113248654051919
 30
0.0
 11
140.1559730715247
 21
26.556624327025919
 31
0.0
  0
LINE
  5
11B
  8
1
 62
     7
 10
135.15597307152461
 20
26.556624327025919
 30
0.0
 11
137.6559730715247
 21
25.113248654051919
 31
0.0
  0
LINE
  5
11C
  8
1
 62
     7
 10
135.15597307152461
 20
29.44337567297411
 30
0.0
 11
135.15597307152461
 21
26.556624327025919
 31
0.0
  0
LINE
  5
11D
  8
1
 62
     7
 10
137.6559730715247
 20
30.88675134594811
 30
0.0
 11
135.15597307152461
 21
29.44337567297411
 31
0.0
  0
LINE
  5
11E
  8
1
 62
     7
 10
140.1559730715247
 20
29.44337567297411
 30
0.0
 11
137.6559730715247
 21
30.88675134594811
 31
0.0
  0
LINE
  5
11F
  8
1
 62
     7
 10
237.1508182953819
 20
26.556624327025919
 30
0.0
 11
237.1508182953819
 21
29.44337567297401
 31
0.0
  0
LINE
  5
120
  8
1
 62
     7
 10
234.65081829538181
 20
25.113248654051819
 30
0.0
 11
237.1508182953819
 21
26.556624327025919
 31
0.0
  0
LINE
  5
121
  8
1
 62
     7
 10
232.15081829538181
 20
26.556624327025919
 30
0.0
 11
234.65081829538181
 21
25.113248654051819
 31
0.0
  0
LINE
  5
122
  8
1
 62
     7
 10
232.15081829538181
 20
29.44337567297401
 30
0.0
 11
232.15081829538181
 21
26.556624327025919
 31
0.0
  0
LINE
  5
123
  8
1
 62
     7
 10
234.65081829538181
 20
30.88675134594811
 30
0.0
 11
232.15081829538181
 21
29.44337567297401
 31
0.0
  0
LINE
  5
124
  8
1
 62
     7
 10
237.1508182953819
 20
29.44337567297401
 30
0.0
 11
234.65081829538181
 21
30.88675134594811
 31
0.0
  0
LINE
  5
125
  8
1
 62
     7
 10
191.15339568345331
 20
53.113248654051858
 30
0.0
 11
191.15339568345331
 21
58.886751345948127
 31
0.0
  0
LINE
  5
126
  8
1
 62
     7
 10
186.15339568345331
 20
50.226497308103752
 30
0.0
 11
191.15339568345331
 21
53.113248654051858
 31
0.0
  0
LINE
  5
127
  8
1
 62
     7
 10
181.15339568345331
 20
53.113248654051858
 30
0.0
 11
186.15339568345331
 21
50.226497308103752
 31
0.0
  0
LINE
  5
128
  8
1
 62
     7
 10
181.15339568345331
 20
58.886751345948127
 30
0.0
 11
181.15339568345331
 21
53.113248654051858
 31
0.0
  0
LINE
  5
129
  8
1
 62
     7
 10
186.15339568345331
 20
61.77350269189624
 30
0.0
 11
181.15339568345331
 21
58.886751345948127
 31
0.0
  0
LINE
  5
12A
  8
1
 62
     7
 10
191.15339568345331
 20
58.886751345948127
 30
0.0
 11
186.15339568345331
 21
61.77350269189624
 31
0.0
  0
LINE
  5
12B
  8
1
 62
     7
 10
142.6559730715247
 20
-30.886751345948081
 30
0.0
 11
142.6559730715247
 21
-25.113248654051802
 31
0.0
  0
LINE
  5
12C
  8
1
 62
     7
 10
137.6559730715247
 20
-33.773502691896191
 30
0.0
 11
142.6559730715247
 21
-30.886751345948081
 31
0.0
  0
LINE
  5
12D
  8
1
 62
     7
 10
132.6559730715247
 20
-30.886751345948081
 30
0.0
 11
137.6559730715247
 21
-33.773502691896191
 31
0.0
  0
LINE
  5
12E
  8
1
 62
     7
 10
132.6559730715247
 20
-25.113248654051802
 30
0.0
 11
132.6559730715247
 21
-30.886751345948081
 31
0.0
  0
LINE
  5
12F
  8
1
 62
     7
 10
137.6559730715247
 20
-22.226497308103681
 30
0.0
 11
132.6559730715247
 21
-25.113248654051802
 31
0.0
  0
LINE
  5
130
  8
1
 62
     7
 10
142.6559730715247
 20
-25.113248654051802
 30
0.0
 11
137.6559730715247
 21
-22.226497308103681
 31
0.0
  0
LINE
  5
131
  8
1
 62
     7
 10
239.6508182953819
 20
-30.886751345948198
 30
0.0
 11
239.6508182953819
 21
-25.11324865405189
 31
0.0
  0
LINE
  5
132
  8
1
 62
     7
 10
234.65081829538181
 20
-33.773502691896283
 30
0.0
 11
239.6508182953819
 21
-30.886751345948198
 31
0.0
  0
LINE
  5
133
  8
1
 62
     7
 10
229.65081829538181
 20
-30.886751345948198
 30
0.0
 11
234.65081829538181
 21
-33.773502691896283
 31
0.0
  0
LINE
  5
134
  8
1
 62
     7
 10
229.65081829538181
 20
-25.11324865405189
 30
0.0
 11
229.65081829538181
 21
-30.886751345948198
 31
0.0
  0
LINE
  5
135
  8
1
 62
     7
 10
234.65081829538181
 20
-22.226497308103792
 30
0.0
 11
229.65081829538181
 21
-25.11324865405189
 31
0.0
  0
LINE
  5
136
  8
1
 62
     7
 10
239.6508182953819
 20
-25.11324865405189
 30
0.0
 11
234.65081829538181
 21
-22.226497308103792
 31
0.0
  0
LINE
  5
137
  8
1
 62
     7
 10
190.15339568345331
 20
-24.80940107675849
 30
0.0
 11
190.15339568345331
 21
-20.190598923241481
 31
0.0
  0
LINE
  5
138
  8
1
 62
     7
 10
186.15339568345331
 20
-27.118802153516981
 30
0.0
 11
190.15339568345331
 21
-24.80940107675849
 31
0.0
  0
LINE
  5
139
  8
1
 62
     7
 10
182.15339568345331
 20
-24.80940107675849
 30
0.0
 11
186.15339568345331
 21
-27.118802153516981
 31
0.0
  0
LINE
  5
13A
  8
1
 62
     7
 10
182.15339568345331
 20
-20.190598923241481
 30
0.0
 11
182.15339568345331
 21
-24.80940107675849
 31
0.0
  0
LINE
  5
13B
  8
1
 62
     7
 10
186.15339568345331
 20
-17.88119784648298
 30
0.0
 11
182.15339568345331
 21
-20.190598923241481
 31
0.0
  0
LINE
  5
13C
  8
1
 62
     7
 10
190.15339568345331
 20
-20.190598923241481
 30
0.0
 11
186.15339568345331
 21
-17.88119784648298
 31
0.0
  0
LINE
  5
13D
  8
1
 62
     7
 10
170.66782409830341
 20
8.9405989232415095
 30
0.0
 11
170.66782409830341
 21
13.55940107675849
 31
0.0
  0
LINE
  5
13E
  8
1
 62
     7
 10
166.66782409830341
 20
6.6311978464830048
 30
0.0
 11
170.66782409830341
 21
8.9405989232415095
 31
0.0
  0
LINE
  5
13F
  8
1
 62
     7
 10
162.66782409830341
 20
8.9405989232415095
 30
0.0
 11
166.66782409830341
 21
6.6311978464830048
 31
0.0
  0
LINE
  5
140
  8
1
 62
     7
 10
162.66782409830341
 20
13.55940107675849
 30
0.0
 11
162.66782409830341
 21
8.9405989232415095
 31
0.0
  0
LINE
  5
141
  8
1
 62
     7
 10
166.66782409830341
 20
15.868802153517001
 30
0.0
 11
162.66782409830341
 21
13.55940107675849
 31
0.0
  0
LINE
  5
142
  8
1
 62
     7
 10
170.66782409830341
 20
13.55940107675849
 30
0.0
 11
166.66782409830341
 21
15.868802153517001
 31
0.0
  0
LINE
  5
143
  8
1
 62
     7
 10
209.63896726860321
 20
8.9405989232416072
 30
0.0
 11
209.63896726860321
 21
13.55940107675859
 31
0.0
  0
LINE
  5
144
  8
1
 62
     7
 10
205.63896726860321
 20
6.6311978464831034
 30
0.0
 11
209.63896726860321
 21
8.9405989232416072
 31
0.0
  0
LINE
  5
145
  8
1
 62
     7
 10
201.6389672686031
 20
8.9405989232416072
 30
0.0
 11
205.63896726860321
 21
6.6311978464831034
 31
0.0
  0
LINE
  5
146
  8
1
 62
     7
 10
201.6389672686031
 20
13.55940107675859
 30
0.0
 11
201.6389672686031
 21
8.9405989232416072
 31
0.0
  0
LINE
  5
147
  8
1
 62
     7
 10
205.63896726860321
 20
15.868802153517111
 30
0.0
 11
201.6389672686031
 21
13.55940107675859
 31
0.0
  0
LINE
  5
148
  8
1
 62
     7
 10
209.63896726860321
 20
13.55940107675859
 30
0.0
 11
205.63896726860321
 21
15.868802153517111
 31
0.0
  0
LINE
  5
149
  8
1
 62
     7
 10
137.724120000547
 20
39.507660735977069
 30
0.0
 11
139.6248841582792
 21
38.410254037844417
 31
0.0
  0
LINE
  5
14A
  8
1
 62
     7
 10
244.58267136635959
 20
22.187152660288302
 30
0.0
 11
242.68190720862731
 21
21.08974596215559
 31
0.0
  0
LINE
  5
14B
  8
1
 62
     7
 10
129.62488415827909
 20
21.0897459621557
 30
0.0
 11
127.724120000547
 21
22.187152660288302
 31
0.0
  0
LINE
  5
14C
  8
1
 62
     7
 10
232.68190720862731
 20
38.410254037844382
 30
0.0
 11
234.58267136635951
 21
39.507660735977041
 31
0.0
  0
LINE
  5
14D
  8
1
 62
     7
 10
176.15339568345331
 20
-61.694813396265282
 30
0.0
 11
176.15339568345331
 21
-59.5
 31
0.0
  0
LINE
  5
14E
  8
1
 62
     7
 10
196.15339568345331
 20
-59.5
 30
0.0
 11
196.15339568345331
 21
-61.694813396265282
 31
0.0
  0
LINE
  5
14F
  8
1
 62
     7
 10
49.5
 20
-26.5
 30
0.0
 11
51.5
 21
-26.5
 31
0.0
  0
LINE
  5
150
  8
1
 62
     7
 10
51.5
 20
-26.5
 30
0.0
 11
51.5
 21
-18.5
 31
0.0
  0
LINE
  5
151
  8
1
 62
     7
 10
51.5
 20
-18.5
 30
0.0
 11
49.5
 21
-18.5
 31
0.0
  0
LINE
  5
152
  8
1
 62
     7
 10
67.0
 20
-19.049999999999969
 30
0.0
 11
67.0
 21
-25.949999999999989
 31
0.0
  0
LINE
  5
153
  8
1
 62
     7
 10
66.595854811567222
 20
-17.899999999999981
 30
0.0
 11
63.0
 21
-17.899999999999981
 31
0.0
  0
LINE
  5
154
  8
1
 62
     7
 10
66.595854811567222
 20
-20.199999999999989
 30
0.0
 11
63.0
 21
-20.199999999999989
 31
0.0
  0
LINE
  5
155
  8
1
 62
     7
 10
66.595854811567222
 20
-24.799999999999979
 30
0.0
 11
63.0
 21
-24.799999999999979
 31
0.0
  0
LINE
  5
156
  8
1
 62
     7
 10
66.595854811567222
 20
-27.099999999999991
 30
0.0
 11
63.0
 21
-27.099999999999991
 31
0.0
  0
LINE
  5
157
  8
1
 62
     7
 10
68.0
 20
-24.13397459621557
 30
0.0
 11
67.5
 21
-25.0
 31
0.0
  0
LINE
  5
158
  8
1
 62
     7
 10
67.5
 20
-25.0
 30
0.0
 11
67.5
 21
-20.0
 31
0.0
  0
LINE
  5
159
  8
1
 62
     7
 10
67.5
 20
-20.0
 30
0.0
 11
68.0
 21
-20.866025403784501
 31
0.0
  0
LINE
  5
15A
  8
1
 62
     7
 10
68.0
 20
-20.866025403784501
 30
0.0
 11
68.0
 21
-24.13397459621557
 31
0.0
  0
LINE
  5
15B
  8
1
 62
     7
 10
67.5
 20
-25.0
 30
0.0
 11
67.0
 21
-25.0
 31
0.0
  0
LINE
  5
15C
  8
1
 62
     7
 10
52.400000000000013
 20
-25.0
 30
0.0
 11
51.5
 21
-24.099999999999991
 31
0.0
  0
LINE
  5
15D
  8
1
 62
     7
 10
51.5
 20
-20.899999999999981
 30
0.0
 11
52.400000000000013
 21
-20.0
 31
0.0
  0
LINE
  5
15E
  8
1
 62
     7
 10
52.400000000000013
 20
-20.0
 30
0.0
 11
63.0
 21
-20.0
 31
0.0
  0
LINE
  5
15F
  8
1
 62
     7
 10
52.400000000000013
 20
-25.0
 30
0.0
 11
52.400000000000013
 21
-20.0
 31
0.0
  0
LINE
  5
160
  8
1
 62
     3
 10
67.788675134594826
 20
-24.5
 30
0.0
 11
67.0
 21
-24.5
 31
0.0
  0
LINE
  5
161
  8
1
 62
     3
 10
67.788675134594826
 20
-20.5
 30
0.0
 11
67.0
 21
-20.5
 31
0.0
  0
LINE
  5
162
  8
1
 62
     7
 10
67.0
 20
-20.0
 30
0.0
 11
67.5
 21
-20.0
 31
0.0
  0
LINE
  5
163
  8
1
 62
     7
 10
63.0
 20
-25.0
 30
0.0
 11
52.400000000000013
 21
-25.0
 31
0.0
  0
LINE
  5
164
  8
1
 62
     3
 10
63.0
 20
-24.5
 30
0.0
 11
51.900000000000013
 21
-24.5
 31
0.0
  0
LINE
  5
165
  8
1
 62
     3
 10
63.0
 20
-20.5
 30
0.0
 11
51.900000000000013
 21
-20.5
 31
0.0
  0
LINE
  5
166
  8
1
 62
     7
 10
55.200000000000017
 20
-24.5
 30
0.0
 11
55.200000000000017
 21
-26.799999999999969
 31
0.0
  0
LINE
  5
167
  8
1
 62
     7
 10
15.0
 20
-22.0
 30
0.0
 11
20.0
 21
-17.0
 31
0.0
  0
LINE
  5
168
  8
1
 62
     7
 10
20.0
 20
-17.0
 30
0.0
 11
22.699999999999989
 21
-17.0
 31
0.0
  0
LINE
  5
169
  8
1
 62
     7
 10
20.0
 20
17.000000000000011
 30
0.0
 11
22.699999999999989
 21
17.000000000000011
 31
0.0
  0
LINE
  5
16A
  8
1
 62
     7
 10
20.0
 20
17.000000000000011
 30
0.0
 11
15.0
 21
22.000000000000011
 31
0.0
  0
LINE
  5
16B
  8
1
 62
     7
 10
20.0
 20
17.000000000000011
 30
0.0
 11
20.0
 21
15.0
 31
0.0
  0
LINE
  5
16C
  8
1
 62
     7
 10
8.0
 20
16.600000000000009
 30
0.0
 11
8.5
 21
17.100000000000001
 31
0.0
  0
LINE
  5
16D
  8
1
 62
     7
 10
8.5
 20
17.100000000000001
 30
0.0
 11
14.0
 21
17.100000000000001
 31
0.0
  0
LINE
  5
16E
  8
1
 62
     7
 10
14.0
 20
17.100000000000001
 30
0.0
 11
14.5
 21
16.600000000000009
 31
0.0
  0
LINE
  5
16F
  8
1
 62
     7
 10
14.5
 20
16.600000000000009
 30
0.0
 11
14.5
 21
15.0
 31
0.0
  0
LINE
  5
170
  8
1
 62
     7
 10
14.5
 20
15.0
 30
0.0
 11
32.5
 21
15.0
 31
0.0
  0
LINE
  5
171
  8
1
 62
     7
 10
32.5
 20
15.0
 30
0.0
 11
33.0
 21
14.500000000000011
 31
0.0
  0
LINE
  5
172
  8
1
 62
     7
 10
33.0
 20
14.500000000000011
 30
0.0
 11
33.0
 21
-14.5
 31
0.0
  0
LINE
  5
173
  8
1
 62
     7
 10
8.0
 20
15.44999999999999
 30
0.0
 11
14.5
 21
15.44999999999999
 31
0.0
  0
LINE
  5
174
  8
1
 62
     7
 10
23.199999999999989
 20
15.0
 30
0.0
 11
23.199999999999989
 21
49.0
 31
0.0
  0
LINE
  5
175
  8
1
 62
     7
 10
8.0
 20
11.500000000000011
 30
0.0
 11
33.0
 21
11.500000000000011
 31
0.0
  0
LINE
  5
176
  8
1
 62
     7
 10
8.0
 20
9.5000000000000124
 30
0.0
 11
33.0
 21
9.5000000000000124
 31
0.0
  0
LINE
  5
177
  8
1
 62
     7
 10
142.62118538655551
 20
78.199999999999974
 30
0.0
 11
141.12118538655551
 21
80.798076211353305
 31
0.0
  0
LINE
  5
178
  8
1
 62
     7
 10
142.44798030579869
 20
78.09999999999998
 30
0.0
 11
140.94798030579861
 21
80.698076211353296
 31
0.0
  0
LINE
  5
179
  8
1
 62
     7
 10
142.27477522504179
 20
78.0
 30
0.0
 11
140.77477522504179
 21
80.598076211353316
 31
0.0
  0
LINE
  5
17A
  8
1
 62
     7
 10
142.10157014428489
 20
77.90000000000002
 30
0.0
 11
140.60157014428481
 21
80.498076211353307
 31
0.0
  0
LINE
  5
17B
  8
1
 62
     7
 10
141.92836506352791
 20
77.799999999999997
 30
0.0
 11
140.42836506352799
 21
80.398076211353327
 31
0.0
  0
LINE
  5
17C
  8
1
 62
     7
 10
140.8891345789865
 20
77.199999999999974
 30
0.0
 11
139.3891345789865
 21
79.798076211353333
 31
0.0
  0
LINE
  5
17D
  8
1
 62
     7
 10
140.7159294982298
 20
77.09999999999998
 30
0.0
 11
139.2159294982298
 21
79.698076211353296
 31
0.0
  0
LINE
  5
17E
  8
1
 62
     7
 10
140.5427244174729
 20
77.0
 30
0.0
 11
139.0427244174729
 21
79.598076211353316
 31
0.0
  0
LINE
  5
17F
  8
1
 62
     7
 10
140.36951933671591
 20
76.90000000000002
 30
0.0
 11
138.869519336716
 21
79.498076211353307
 31
0.0
  0
LINE
  5
180
  8
1
 62
     7
 10
140.19631425595901
 20
76.799999999999983
 30
0.0
 11
138.69631425595901
 21
79.398076211353327
 31
0.0
  0
LINE
  5
181
  8
1
 62
     7
 10
139.67669901368839
 20
76.5
 30
0.0
 11
143.1408006288261
 21
78.499999999999986
 31
0.0
  0
LINE
  5
182
  8
1
 62
     7
 10
50.900000000000013
 20
80.5
 30
0.0
 11
50.900000000000013
 21
77.5
 31
0.0
  0
LINE
  5
183
  8
1
 62
     7
 10
50.700000000000017
 20
77.5
 30
0.0
 11
50.700000000000017
 21
80.5
 31
0.0
  0
LINE
  5
184
  8
1
 62
     7
 10
50.5
 20
80.5
 30
0.0
 11
50.5
 21
77.5
 31
0.0
  0
LINE
  5
185
  8
1
 62
     7
 10
50.300000000000011
 20
77.5
 30
0.0
 11
50.300000000000011
 21
80.5
 31
0.0
  0
LINE
  5
186
  8
1
 62
     7
 10
50.100000000000009
 20
80.5
 30
0.0
 11
50.100000000000009
 21
77.5
 31
0.0
  0
LINE
  5
187
  8
1
 62
     7
 10
49.5
 20
77.5
 30
0.0
 11
51.5
 21
77.5
 31
0.0
  0
LINE
  5
188
  8
1
 62
     7
 10
51.5
 20
58.900000000000013
 30
0.0
 11
51.5
 21
77.5
 31
0.0
  0
LINE
  5
189
  8
1
 62
     7
 10
51.5
 20
53.09999999999998
 30
0.0
 11
51.5
 21
49.0
 31
0.0
  0
LINE
  5
18A
  8
1
 62
     7
 10
49.5
 20
49.0
 30
0.0
 11
49.5
 21
53.0
 31
0.0
  0
LINE
  5
18B
  8
1
 62
     7
 10
49.5
 20
59.0
 30
0.0
 11
49.5
 21
77.5
 31
0.0
  0
LINE
  5
18C
  8
1
 62
     7
 10
37.0
 20
62.0
 30
0.0
 11
37.5
 21
62.5
 31
0.0
  0
LINE
  5
18D
  8
1
 62
     7
 10
43.5
 20
62.5
 30
0.0
 11
44.0
 21
62.0
 31
0.0
  0
LINE
  5
18E
  8
1
 62
     7
 10
7.5
 20
62.5
 30
0.0
 11
8.0
 21
61.98089550658743
 31
0.0
  0
LINE
  5
18F
  8
1
 62
     7
 10
0.5
 20
62.5
 30
0.0
 11
0.0
 21
61.98089550658743
 31
0.0
  0
LINE
  5
190
  8
1
 62
     7
 10
22.300000000000001
 20
62.5
 30
0.0
 11
22.699999999999989
 21
62.099999999999987
 31
0.0
  0
LINE
  5
191
  8
1
 62
     7
 10
15.40000000000002
 20
62.5
 30
0.0
 11
15.0
 21
62.099999999999987
 31
0.0
  0
LINE
  5
192
  8
1
 62
     7
 10
0.5
 20
-62.5
 30
0.0
 11
0.0
 21
-61.985598935034602
 31
0.0
  0
LINE
  5
193
  8
1
 62
     7
 10
7.5
 20
-62.5
 30
0.0
 11
8.0
 21
-61.985598935034602
 31
0.0
  0
LINE
  5
194
  8
1
 62
     7
 10
15.5
 20
-62.5
 30
0.0
 11
15.0
 21
-62.0
 31
0.0
  0
LINE
  5
195
  8
1
 62
     7
 10
22.199999999999989
 20
-62.5
 30
0.0
 11
22.699999999999989
 21
-62.0
 31
0.0
  0
LINE
  5
196
  8
1
 62
     7
 10
37.5
 20
-62.5
 30
0.0
 11
37.0
 21
-62.0
 31
0.0
  0
LINE
  5
197
  8
1
 62
     7
 10
44.0
 20
-62.0
 30
0.0
 11
43.5
 21
-62.5
 31
0.0
  0
LINE
  5
198
  8
1
 62
     7
 10
63.0
 20
-48.0
 30
0.0
 11
62.0
 21
-49.0
 31
0.0
  0
LINE
  5
199
  8
1
 62
     7
 10
62.0
 20
49.0
 30
0.0
 11
63.0
 21
48.0
 31
0.0
  0
LINE
  5
19A
  8
1
 62
     7
 10
10.19999999999999
 20
-30.0
 30
0.0
 11
0.0
 21
-30.0
 31
0.0
  0
LINE
  5
19B
  8
1
 62
     7
 10
10.19999999999999
 20
-30.0
 30
0.0
 11
10.19999999999999
 21
-47.5
 31
0.0
  0
LINE
  5
19C
  8
1
 62
     7
 10
12.80000000000001
 20
-47.5
 30
0.0
 11
12.80000000000001
 21
-30.0
 31
0.0
  0
LINE
  5
19D
  8
1
 62
     7
 10
12.80000000000001
 20
-30.0
 30
0.0
 11
15.0
 21
-30.0
 31
0.0
  0
LINE
  5
19E
  8
1
 62
     7
 10
10.19999999999999
 20
30.000000000000011
 30
0.0
 11
10.19999999999999
 21
47.5
 31
0.0
  0
LINE
  5
19F
  8
1
 62
     7
 10
12.80000000000001
 20
47.5
 30
0.0
 11
12.80000000000001
 21
30.000000000000011
 31
0.0
  0
LINE
  5
1A0
  8
1
 62
     7
 10
12.80000000000001
 20
30.000000000000011
 30
0.0
 11
15.0
 21
30.000000000000011
 31
0.0
  0
LINE
  5
1A1
  8
1
 62
     7
 10
13.600000000000019
 20
30.000000000000011
 30
0.0
 11
13.600000000000019
 21
15.44999999999999
 31
0.0
  0
LINE
  5
1A2
  8
1
 62
     7
 10
9.4000000000000341
 20
30.000000000000011
 30
0.0
 11
9.4000000000000341
 21
15.44999999999999
 31
0.0
  0
LINE
  5
1A3
  8
1
 62
     7
 10
13.600000000000019
 20
-15.44999999999999
 30
0.0
 11
13.600000000000019
 21
-30.0
 31
0.0
  0
LINE
  5
1A4
  8
1
 62
     7
 10
9.4000000000000341
 20
-30.0
 30
0.0
 11
9.4000000000000341
 21
-15.44999999999999
 31
0.0
  0
LINE
  5
1A5
  8
1
 62
     7
 10
9.4000000000000341
 20
17.400000000000009
 30
0.0
 11
13.600000000000019
 21
17.400000000000009
 31
0.0
  0
LINE
  5
1A6
  8
1
 62
     7
 10
9.4000000000000341
 20
15.750000000000011
 30
0.0
 11
13.600000000000019
 21
15.750000000000011
 31
0.0
  0
LINE
  5
1A7
  8
1
 62
     7
 10
9.4000000000000341
 20
-15.75
 30
0.0
 11
13.600000000000019
 21
-15.75
 31
0.0
  0
LINE
  5
1A8
  8
1
 62
     7
 10
9.4000000000000341
 20
-17.399999999999981
 30
0.0
 11
13.600000000000019
 21
-17.399999999999981
 31
0.0
  0
LINE
  5
1A9
  8
1
 62
     7
 10
15.0
 20
-49.5
 30
0.0
 11
22.699999999999989
 21
-49.5
 31
0.0
  0
LINE
  5
1AA
  8
1
 62
     7
 10
27.480384757729329
 20
15.5
 30
0.0
 11
28.0
 21
15.199999999999999
 31
0.0
  0
LINE
  5
1AB
  8
1
 62
     7
 10
28.0
 20
15.199999999999999
 30
0.0
 11
24.0
 21
15.199999999999999
 31
0.0
  0
LINE
  5
1AC
  8
1
 62
     7
 10
24.0
 20
15.199999999999999
 30
0.0
 11
24.519615242270731
 21
15.5
 31
0.0
  0
LINE
  5
1AD
  8
1
 62
     7
 10
24.519615242270731
 20
15.5
 30
0.0
 11
27.480384757729329
 21
15.5
 31
0.0
  0
LINE
  5
1AE
  8
1
 62
     7
 10
28.0
 20
15.199999999999999
 30
0.0
 11
28.0
 21
12.5
 31
0.0
  0
LINE
  5
1AF
  8
1
 62
     7
 10
28.0
 20
12.5
 30
0.0
 11
24.0
 21
12.5
 31
0.0
  0
LINE
  5
1B0
  8
1
 62
     7
 10
24.0
 20
12.5
 30
0.0
 11
24.0
 21
15.199999999999999
 31
0.0
  0
LINE
  5
1B1
  8
1
 62
     7
 10
28.0
 20
12.5
 30
0.0
 11
27.0
 21
11.500000000000011
 31
0.0
  0
LINE
  5
1B2
  8
1
 62
     7
 10
25.0
 20
11.500000000000011
 30
0.0
 11
24.0
 21
12.5
 31
0.0
  0
LINE
  5
1B3
  8
1
 62
     3
 10
27.600000000000019
 20
15.430940107675809
 30
0.0
 11
27.600000000000019
 21
12.10000000000001
 31
0.0
  0
LINE
  5
1B4
  8
1
 62
     3
 10
24.400000000000031
 20
15.430940107675809
 30
0.0
 11
24.400000000000031
 21
12.10000000000001
 31
0.0
  0
LINE
  5
1B5
  8
1
 62
     3
 10
28.0
 20
12.5
 30
0.0
 11
28.0
 21
11.500000000000011
 31
0.0
  0
LINE
  5
1B6
  8
1
 62
     7
 10
27.600000000000019
 20
12.10000000000001
 30
0.0
 11
27.600000000000019
 21
11.500000000000011
 31
0.0
  0
LINE
  5
1B7
  8
1
 62
     7
 10
24.400000000000031
 20
12.10000000000001
 30
0.0
 11
24.400000000000031
 21
11.500000000000011
 31
0.0
  0
LINE
  5
1B8
  8
1
 62
     3
 10
24.0
 20
12.5
 30
0.0
 11
24.0
 21
11.500000000000011
 31
0.0
  0
LINE
  5
1B9
  8
1
 62
     7
 10
188.65339568345331
 20
9.1651513899117116
 30
0.0
 11
188.65339568345331
 21
11.500000000000011
 31
0.0
  0
LINE
  5
1BA
  8
1
 62
     7
 10
188.65339568345331
 20
11.500000000000011
 30
0.0
 11
183.65339568345331
 21
11.500000000000011
 31
0.0
  0
LINE
  5
1BB
  8
1
 62
     7
 10
183.65339568345331
 20
11.500000000000011
 30
0.0
 11
183.65339568345331
 21
9.1651513899117116
 31
0.0
  0
LINE
  5
1BC
  8
1
  6
DASHED
 62
     7
 10
199.65339568345331
 20
-1.480384757729297
 30
0.0
 11
199.3533956834533
 21
-2.0
 31
0.0
  0
LINE
  5
1BD
  8
1
  6
DASHED
 62
     7
 10
199.3533956834533
 20
-2.0
 30
0.0
 11
199.3533956834533
 21
2.0
 31
0.0
  0
LINE
  5
1BE
  8
1
  6
DASHED
 62
     7
 10
199.3533956834533
 20
2.0
 30
0.0
 11
199.65339568345331
 21
1.480384757729297
 31
0.0
  0
LINE
  5
1BF
  8
1
  6
DASHED
 62
     7
 10
199.65339568345331
 20
1.480384757729297
 30
0.0
 11
199.65339568345331
 21
-1.480384757729297
 31
0.0
  0
LINE
  5
1C0
  8
1
  6
DASHED
 62
     7
 10
199.3533956834533
 20
-2.0
 30
0.0
 11
196.65339568345331
 21
-2.0
 31
0.0
  0
LINE
  5
1C1
  8
1
  6
DASHED
 62
     7
 10
196.65339568345331
 20
-2.0
 30
0.0
 11
196.65339568345331
 21
2.0
 31
0.0
  0
LINE
  5
1C2
  8
1
  6
DASHED
 62
     7
 10
196.65339568345331
 20
2.0
 30
0.0
 11
199.3533956834533
 21
2.0
 31
0.0
  0
LINE
  5
1C3
  8
1
  6
DASHED
 62
     7
 10
196.65339568345331
 20
-2.0
 30
0.0
 11
195.65339568345331
 21
-1.0
 31
0.0
  0
LINE
  5
1C4
  8
1
  6
DASHED
 62
     7
 10
195.65339568345331
 20
-1.0
 30
0.0
 11
195.65339568345331
 21
1.0
 31
0.0
  0
LINE
  5
1C5
  8
1
  6
DASHED
 62
     7
 10
195.65339568345331
 20
1.0
 30
0.0
 11
196.65339568345331
 21
2.0
 31
0.0
  0
LINE
  5
1C6
  8
1
  6
DASHED
 62
     3
 10
199.58433579112909
 20
-1.5999999999999941
 30
0.0
 11
196.25339568345331
 21
-1.5999999999999941
 31
0.0
  0
LINE
  5
1C7
  8
1
  6
DASHED
 62
     3
 10
199.58433579112909
 20
1.600000000000023
 30
0.0
 11
196.25339568345331
 21
1.600000000000023
 31
0.0
  0
LINE
  5
1C8
  8
1
 62
     7
 10
187.63378044118261
 20
15.5
 30
0.0
 11
188.15339568345331
 21
15.199999999999999
 31
0.0
  0
LINE
  5
1C9
  8
1
 62
     7
 10
188.15339568345331
 20
15.199999999999999
 30
0.0
 11
184.15339568345331
 21
15.199999999999999
 31
0.0
  0
LINE
  5
1CA
  8
1
 62
     7
 10
184.15339568345331
 20
15.199999999999999
 30
0.0
 11
184.6730109257239
 21
15.5
 31
0.0
  0
LINE
  5
1CB
  8
1
 62
     7
 10
184.6730109257239
 20
15.5
 30
0.0
 11
187.63378044118261
 21
15.5
 31
0.0
  0
LINE
  5
1CC
  8
1
 62
     7
 10
188.15339568345331
 20
15.199999999999999
 30
0.0
 11
188.15339568345331
 21
14.866068747318501
 31
0.0
  0
LINE
  5
1CD
  8
1
  6
DASHED
 62
     7
 10
188.15339568345331
 20
12.5
 30
0.0
 11
184.15339568345331
 21
12.5
 31
0.0
  0
LINE
  5
1CE
  8
1
  6
DASHED
 62
     7
 10
184.15339568345331
 20
12.5
 30
0.0
 11
184.15339568345331
 21
14.866068747318501
 31
0.0
  0
LINE
  5
1CF
  8
1
  6
DASHED
 62
     7
 10
188.15339568345331
 20
12.5
 30
0.0
 11
187.15339568345331
 21
11.500000000000011
 31
0.0
  0
LINE
  5
1D0
  8
1
  6
DASHED
 62
     7
 10
185.15339568345331
 20
11.500000000000011
 30
0.0
 11
184.15339568345331
 21
12.5
 31
0.0
  0
LINE
  5
1D1
  8
1
 62
     3
 10
187.75339568345331
 20
15.430940107675809
 30
0.0
 11
187.75339568345331
 21
14.914422550001699
 31
0.0
  0
LINE
  5
1D2
  8
1
 62
     3
 10
184.55339568345329
 20
15.430940107675809
 30
0.0
 11
184.55339568345329
 21
14.914422550001699
 31
0.0
  0
LINE
  5
1D3
  8
1
  6
DASHED
 62
     3
 10
199.3533956834533
 20
2.0
 30
0.0
 11
201.01946443077179
 21
2.0
 31
0.0
  0
LINE
  5
1D4
  8
1
  6
DASHED
 62
     7
 10
199.58433579112909
 20
1.600000000000023
 30
0.0
 11
201.067818233455
 21
1.600000000000023
 31
0.0
  0
LINE
  5
1D5
  8
1
  6
DASHED
 62
     7
 10
199.58433579112909
 20
-1.5999999999999941
 30
0.0
 11
201.067818233455
 21
-1.5999999999999941
 31
0.0
  0
LINE
  5
1D6
  8
1
  6
DASHED
 62
     3
 10
199.3533956834533
 20
-2.0
 30
0.0
 11
201.01946443077179
 21
-2.0
 31
0.0
  0
LINE
  5
1D7
  8
1
  6
DASHED
 62
     3
 10
196.65339568345331
 20
-2.0
 30
0.0
 11
195.44048349395661
 21
-2.0
 31
0.0
  0
LINE
  5
1D8
  8
1
  6
DASHED
 62
     7
 10
196.25339568345331
 20
-1.5999999999999941
 30
0.0
 11
195.51768957034091
 21
-1.5999999999999941
 31
0.0
  0
LINE
  5
1D9
  8
1
  6
DASHED
 62
     7
 10
196.25339568345331
 20
1.600000000000023
 30
0.0
 11
195.51768957034091
 21
1.600000000000023
 31
0.0
  0
LINE
  5
1DA
  8
1
  6
DASHED
 62
     3
 10
196.65339568345331
 20
2.0
 30
0.0
 11
195.44048349395661
 21
2.0
 31
0.0
  0
LINE
  5
1DB
  8
1
  6
DASHED
 62
     7
 10
188.15339568345331
 20
14.866068747318501
 30
0.0
 11
188.15339568345331
 21
12.5
 31
0.0
  0
LINE
  5
1DC
  8
1
  6
DASHED
 62
     3
 10
187.75339568345331
 20
14.914422550001699
 30
0.0
 11
187.75339568345331
 21
12.10000000000001
 31
0.0
  0
LINE
  5
1DD
  8
1
  6
DASHED
 62
     3
 10
184.55339568345329
 20
14.914422550001699
 30
0.0
 11
184.55339568345329
 21
12.10000000000001
 31
0.0
  0
LINE
  5
1DE
  8
1
 62
     7
 10
184.15339568345331
 20
14.866068747318501
 30
0.0
 11
184.15339568345331
 21
15.199999999999999
 31
0.0
  0
LINE
  5
1DF
  8
1
  6
DASHED
 62
     7
 10
187.75339568345331
 20
12.10000000000001
 30
0.0
 11
187.75339568345331
 21
11.500000000000011
 31
0.0
  0
LINE
  5
1E0
  8
1
  6
DASHED
 62
     3
 10
188.15339568345331
 20
12.5
 30
0.0
 11
188.15339568345331
 21
11.500000000000011
 31
0.0
  0
LINE
  5
1E1
  8
1
  6
DASHED
 62
     3
 10
184.15339568345331
 20
12.5
 30
0.0
 11
184.15339568345331
 21
11.500000000000011
 31
0.0
  0
LINE
  5
1E2
  8
1
  6
DASHED
 62
     7
 10
184.55339568345329
 20
12.10000000000001
 30
0.0
 11
184.55339568345329
 21
11.500000000000011
 31
0.0
  0
LINE
  5
1E3
  8
1
 62
     7
 10
163.40652448159739
 20
43.400228692095382
 30
0.0
 11
143.1408006288261
 21
78.499999999999986
 31
0.0
  0
LINE
  5
1E4
  8
1
 62
     7
 10
161.65339568345351
 20
42.435244785437611
 30
0.0
 11
141.40874982125729
 21
77.5
 31
0.0
  0
LINE
  5
1E5
  8
1
 62
     7
 10
159.94176154609741
 20
41.399882075307929
 30
0.0
 11
139.67669901368839
 21
76.5
 31
0.0
  0
LINE
  5
1E6
  8
1
 62
     7
 10
48.602287170152323
 20
-25.585877655010901
 30
0.0
 11
49.052287170152312
 21
-19.285877655010879
 31
0.0
  0
LINE
  5
1E7
  8
1
 62
     7
 10
49.5
 20
-26.549999999999979
 30
0.0
 11
49.5
 21
-18.570577136593979
 31
0.0
  0
LINE
  5
1E8
  8
1
 62
     7
 10
49.5
 20
-18.570577136593979
 30
0.0
 11
49.5
 21
-26.549999999999979
 31
0.0
  0
LINE
  5
1E9
  8
1
 62
     7
 10
47.989978072935003
 20
-25.797661009340079
 30
0.0
 11
49.037804159891522
 21
-19.497661009340071
 31
0.0
  0
LINE
  5
1EA
  8
1
 62
     7
 10
46.21436975315202
 20
-25.50233899065989
 30
0.0
 11
47.262195840108518
 21
-19.202338990659872
 31
0.0
  0
LINE
  5
1EB
  8
1
 62
     7
 10
45.894325899021901
 20
-25.797661009340199
 30
0.0
 11
46.942151985978427
 21
-19.497661009340071
 31
0.0
  0
LINE
  5
1EC
  8
1
 62
     7
 10
44.118717579238897
 20
-25.50233899065989
 30
0.0
 11
45.166543666195501
 21
-19.202338990659872
 31
0.0
  0
LINE
  5
1ED
  8
1
 62
     7
 10
43.798673725108927
 20
-25.797661009340199
 30
0.0
 11
44.84649981206541
 21
-19.497661009340071
 31
0.0
  0
LINE
  5
1EE
  8
1
 62
     7
 10
42.023065405325923
 20
-25.50233899065989
 30
0.0
 11
43.070891492282399
 21
-19.202338990659872
 31
0.0
  0
LINE
  5
1EF
  8
1
 62
     7
 10
41.703021551195789
 20
-25.797661009340199
 30
0.0
 11
42.750847638152401
 21
-19.497661009340071
 31
0.0
  0
LINE
  5
1F0
  8
1
 62
     7
 10
39.927413231412828
 20
-25.50233899065989
 30
0.0
 11
40.97523931836939
 21
-19.202338990659872
 31
0.0
  0
LINE
  5
1F1
  8
1
 62
     7
 10
39.607369377282822
 20
-25.797661009340199
 30
0.0
 11
40.655195464239313
 21
-19.497661009340071
 31
0.0
  0
LINE
  5
1F2
  8
1
 62
     7
 10
37.831761057499818
 20
-25.50233899065989
 30
0.0
 11
38.879587144456302
 21
-19.202338990659872
 31
0.0
  0
LINE
  5
1F3
  8
1
 62
     7
 10
37.511717203369813
 20
-25.797661009340199
 30
0.0
 11
38.559543290326289
 21
-19.497661009340071
 31
0.0
  0
LINE
  5
1F4
  8
1
 62
     7
 10
35.736108883586709
 20
-25.50233899065989
 30
0.0
 11
36.783934970543328
 21
-19.202338990659872
 31
0.0
  0
LINE
  5
1F5
  8
1
 62
     7
 10
35.416065029456718
 20
-25.797661009340199
 30
0.0
 11
36.463891116413208
 21
-19.497661009340071
 31
0.0
  0
LINE
  5
1F6
  8
1
 62
     7
 10
33.6404567096737
 20
-25.50233899065989
 30
0.0
 11
34.688282796630197
 21
-19.202338990659872
 31
0.0
  0
LINE
  5
1F7
  8
1
 62
     7
 10
33.320412855543708
 20
-25.797661009340199
 30
0.0
 11
34.36823894250022
 21
-19.497661009340071
 31
0.0
  0
LINE
  5
1F8
  8
1
 62
     7
 10
31.54480453576069
 20
-25.50233899065989
 30
0.0
 11
32.592630622717209
 21
-19.202338990659872
 31
0.0
  0
LINE
  5
1F9
  8
1
 62
     7
 10
31.22476068163061
 20
-25.797661009340199
 30
0.0
 11
32.272586768587097
 21
-19.497661009340071
 31
0.0
  0
LINE
  5
1FA
  8
1
 62
     7
 10
29.44915236184772
 20
-25.50233899065989
 30
0.0
 11
30.49697844880421
 21
-19.202338990659872
 31
0.0
  0
LINE
  5
1FB
  8
1
 62
     7
 10
29.12910850771749
 20
-25.797661009340199
 30
0.0
 11
30.176934594674119
 21
-19.497661009340071
 31
0.0
  0
LINE
  5
1FC
  8
1
 62
     7
 10
27.353500187934628
 20
-25.50233899065989
 30
0.0
 11
28.401326274891009
 21
-19.202338990659872
 31
0.0
  0
LINE
  5
1FD
  8
1
 62
     7
 10
27.033456333804509
 20
-25.797661009340079
 30
0.0
 11
28.081282420760989
 21
-19.497661009340071
 31
0.0
  0
LINE
  5
1FE
  8
1
 62
     7
 10
25.25784801402153
 20
-25.50233899065989
 30
0.0
 11
26.30567410097802
 21
-19.202338990659872
 31
0.0
  0
LINE
  5
1FF
  8
1
 62
     7
 10
24.937804159891531
 20
-25.797661009340199
 30
0.0
 11
25.985630246848022
 21
-19.497661009340071
 31
0.0
  0
LINE
  5
200
  8
1
 62
     7
 10
23.162195840108499
 20
-25.50233899065989
 30
0.0
 11
24.210021927064979
 21
-19.202338990659872
 31
0.0
  0
LINE
  5
201
  8
1
 62
     7
 10
23.147712829847709
 20
-25.714122344989072
 30
0.0
 11
23.597712829847641
 21
-19.414122344989099
 31
0.0
  0
LINE
  5
202
  8
1
 62
     7
 10
22.699999999999989
 20
-62.0
 30
0.0
 11
22.699999999999989
 21
-15.0
 31
0.0
  0
LINE
  5
203
  8
1
 62
     7
 10
22.699999999999989
 20
50.0
 30
0.0
 11
22.699999999999989
 21
15.0
 31
0.0
  0
ARC
  5
204
  8
1
  6
DASHDOT
 62
     3
 10
186.15339568345331
 20
0.0
 30
0.0
 40
56.000000000000043
 50
261.45532838192412
 51
278.10308762405128
  0
ARC
  5
205
  8
1
  6
DASHDOT
 62
     3
 10
186.15339568345331
 20
0.0
 30
0.0
 40
55.999999999999957
 50
21.577295401567788
 51
38.509301941476203
  0
ARC
  5
206
  8
1
  6
DASHDOT
 62
     3
 10
186.15339568345331
 20
0.0
 30
0.0
 40
56.0
 50
142.10287918832489
 51
158.34946957401411
  0
ARC
  5
207
  8
1
 62
     7
 10
-81.350738931510193
 20
51.6875
 30
0.0
 40
2.350738931510195
 50
322.30124515331812
 51
37.698754846681929
  0
ARC
  5
208
  8
1
 62
     7
 10
-87.666834132824064
 20
56.0
 30
0.0
 40
8.6668341328240768
 50
340.6265294576769
 51
19.373470542323052
  0
ARC
  5
209
  8
1
 62
     7
 10
-81.350738931510193
 20
60.3125
 30
0.0
 40
2.350738931510195
 50
322.30124515331812
 51
37.698754846681929
  0
ARC
  5
20A
  8
1
 62
     7
 10
-93.649261068489793
 20
60.3125
 30
0.0
 40
2.350738931510195
 50
142.30124515331809
 51
217.69875484668179
  0
ARC
  5
20B
  8
1
 62
     7
 10
-87.333165867175879
 20
56.0
 30
0.0
 40
8.6668341328241301
 50
160.62652945767701
 51
199.37347054232291
  0
ARC
  5
20C
  8
1
 62
     7
 10
-93.649261068489793
 20
51.6875
 30
0.0
 40
2.350738931510195
 50
142.30124515331809
 51
217.69875484668179
  0
ARC
  5
20D
  8
1
 62
     7
 10
-101.35073893151019
 20
51.6875
 30
0.0
 40
2.350738931510195
 50
322.30124515331812
 51
37.698754846681929
  0
ARC
  5
20E
  8
1
 62
     7
 10
-107.66683413282399
 20
56.0
 30
0.0
 40
8.6668341328239951
 50
340.62652945767672
 51
19.37347054232325
  0
ARC
  5
20F
  8
1
 62
     7
 10
-101.35073893151019
 20
60.3125
 30
0.0
 40
2.350738931510195
 50
322.30124515331812
 51
37.698754846681929
  0
ARC
  5
210
  8
1
 62
     7
 10
-62.838242017794812
 20
-19.049999999999969
 30
0.0
 40
1.8382420177948831
 50
321.27392863382471
 51
38.726071366175027
  0
ARC
  5
211
  8
1
 62
     7
 10
-67.746750288530095
 20
-22.5
 30
0.0
 40
6.7467502885301824
 50
340.06798704944418
 51
19.93201295055605
  0
ARC
  5
212
  8
1
 62
     7
 10
-62.838242017794812
 20
-25.949999999999989
 30
0.0
 40
1.8382420177948791
 50
321.27392863382482
 51
38.72607136617529
  0
ARC
  5
213
  8
1
 62
     3
 10
26.0
 20
0.0
 30
0.0
 40
2.0
 50
180.0
 51
0.0
  0
ARC
  5
214
  8
1
 62
     7
 10
26.0
 20
0.0
 30
0.0
 40
1.600000000000019
 50
180.0
 51
0.0
  0
ARC
  5
215
  8
1
 62
     7
 10
46.6492610684898
 20
51.6875
 30
0.0
 40
2.3507389315101901
 50
322.30124515331789
 51
37.698754846682043
  0
ARC
  5
216
  8
1
 62
     7
 10
40.333165867175907
 20
56.0
 30
0.0
 40
8.6668341328240714
 50
340.6265294576769
 51
19.373470542323059
  0
ARC
  5
217
  8
1
 62
     7
 10
46.6492610684898
 20
60.3125
 30
0.0
 40
2.3507389315101901
 50
322.30124515331789
 51
37.698754846682043
  0
ARC
  5
218
  8
1
 62
     7
 10
34.350738931510222
 20
60.3125
 30
0.0
 40
2.3507389315102012
 50
142.30124515331821
 51
217.69875484668179
  0
ARC
  5
219
  8
1
 62
     7
 10
40.666834132824022
 20
56.0
 30
0.0
 40
8.6668341328240022
 50
160.62652945767681
 51
199.3734705423231
  0
ARC
  5
21A
  8
1
 62
     7
 10
34.350738931510222
 20
51.6875
 30
0.0
 40
2.3507389315102012
 50
142.30124515331821
 51
217.69875484668179
  0
ARC
  5
21B
  8
1
 62
     7
 10
26.64926106848981
 20
51.6875
 30
0.0
 40
2.3507389315101901
 50
322.30124515331789
 51
37.698754846682043
  0
ARC
  5
21C
  8
1
 62
     7
 10
20.333165867176032
 20
56.0
 30
0.0
 40
8.6668341328239631
 50
340.62652945767672
 51
19.373470542323322
  0
ARC
  5
21D
  8
1
 62
     7
 10
26.64926106848981
 20
60.3125
 30
0.0
 40
2.3507389315101901
 50
322.30124515331789
 51
37.698754846682043
  0
ARC
  5
21E
  8
1
 62
     7
 10
134.6248841582792
 20
29.750000000000011
 30
0.0
 40
9.9999999999999361
 50
239.9999999999998
 51
60.000000000000057
  0
ARC
  5
21F
  8
1
 62
     7
 10
237.68190720862739
 20
29.750000000000011
 30
0.0
 40
9.9999999999999876
 50
119.9999999999999
 51
299.99999999999989
  0
ARC
  5
220
  8
1
 62
     7
 10
186.15339568345331
 20
-59.5
 30
0.0
 40
10.0
 50
0.0
 51
180.0
  0
ARC
  5
221
  8
1
 62
     7
 10
65.161757982205302
 20
-19.049999999999969
 30
0.0
 40
1.8382420177947001
 50
321.27392863382011
 51
38.726071366179603
  0
ARC
  5
222
  8
1
 62
     7
 10
60.25324971146992
 20
-22.5
 30
0.0
 40
6.7467502885300421
 50
340.06798704944367
 51
19.93201295055648
  0
ARC
  5
223
  8
1
 62
     7
 10
65.161757982205216
 20
-25.949999999999989
 30
0.0
 40
1.8382420177947629
 50
321.27392863382192
 51
38.726071366178203
  0
ARC
  5
224
  8
1
 62
     7
 10
186.15339568345331
 20
0.0
 30
0.0
 40
62.5
 50
121.83377800004661
 51
118.1656972580361
  0
ARC
  5
225
  8
1
 62
     7
 10
26.0
 20
0.0
 30
0.0
 40
1.600000000000019
 50
0.0
 51
180.0
  0
ARC
  5
226
  8
1
 62
     3
 10
26.0
 20
0.0
 30
0.0
 40
2.0
 50
0.0
 51
180.0
  0
ARC
  5
227
  8
1
 62
     7
 10
186.15339568345331
 20
0.0
 30
0.0
 40
9.5000000000000338
 50
105.25752329045621
 51
74.742476709543709
  0
ARC
  5
228
  8
1
 62
     7
 10
49.5
 20
-25.649999999999981
 30
0.0
 40
0.8999999999999808
 50
90.0
 51
270.0
  0
ARC
  5
229
  8
1
 62
     7
 10
49.95000000000001
 20
-19.34999999999998
 30
0.0
 40
0.9000000000000232
 50
120.0000000000003
 51
239.99999999999909
  0
ARC
  5
22A
  8
1
 62
     7
 10
22.25
 20
-25.649999999999981
 30
0.0
 40
0.9000000000000058
 50
299.99999999999892
 51
60.000000000000242
  0
ARC
  5
22B
  8
1
 62
     7
 10
22.699999999999989
 20
-19.34999999999998
 30
0.0
 40
0.9000000000000092
 50
270.0
 51
90.0
  0
CIRCLE
  5
22C
  8
1
 62
     7
 10
130.1533956834532
 20
0.0
 30
0.0
 40
3.25
  0
CIRCLE
  5
22D
  8
1
 62
     3
 10
130.1533956834532
 20
0.0
 30
0.0
 40
2.5
  0
CIRCLE
  5
22E
  8
1
 62
     7
 10
130.1533956834532
 20
0.0
 30
0.0
 40
2.0
  0
CIRCLE
  5
22F
  8
1
 62
     7
 10
242.15339568345331
 20
0.0
 30
0.0
 40
2.0
  0
CIRCLE
  5
230
  8
1
 62
     3
 10
242.15339568345331
 20
0.0
 30
0.0
 40
2.5
  0
CIRCLE
  5
231
  8
1
 62
     7
 10
242.15339568345331
 20
0.0
 30
0.0
 40
3.25
  0
CIRCLE
  5
232
  8
1
 62
     7
 10
186.15339568345331
 20
-56.0
 30
0.0
 40
5.0
  0
CIRCLE
  5
233
  8
1
 62
     7
 10
137.6559730715247
 20
28.000000000000011
 30
0.0
 40
5.0
  0
CIRCLE
  5
234
  8
1
 62
     7
 10
234.65081829538181
 20
28.000000000000011
 30
0.0
 40
5.0
  0
CIRCLE
  5
235
  8
1
 62
     7
 10
137.6559730715247
 20
28.000000000000011
 30
0.0
 40
6.0999999999999943
  0
CIRCLE
  5
236
  8
1
 62
     7
 10
234.65081829538181
 20
28.000000000000011
 30
0.0
 40
6.0999999999999943
  0
CIRCLE
  5
237
  8
1
 62
     7
 10
186.15339568345331
 20
-56.0
 30
0.0
 40
6.0999999999999943
  0
CIRCLE
  5
238
  8
1
 62
     3
 10
186.15339568345331
 20
56.0
 30
0.0
 40
2.3999999999999768
  0
CIRCLE
  5
239
  8
1
 62
     7
 10
186.15339568345331
 20
56.0
 30
0.0
 40
3.0
  0
CIRCLE
  5
23A
  8
1
 62
     7
 10
186.15339568345331
 20
56.0
 30
0.0
 40
5.0
  0
CIRCLE
  5
23B
  8
1
 62
     3
 10
137.6559730715247
 20
-28.0
 30
0.0
 40
2.4000000000000061
  0
CIRCLE
  5
23C
  8
1
 62
     7
 10
137.6559730715247
 20
-28.0
 30
0.0
 40
3.0
  0
CIRCLE
  5
23D
  8
1
 62
     7
 10
137.6559730715247
 20
-28.0
 30
0.0
 40
5.0
  0
CIRCLE
  5
23E
  8
1
 62
     3
 10
234.65081829538181
 20
-28.0
 30
0.0
 40
2.4000000000000061
  0
CIRCLE
  5
23F
  8
1
 62
     7
 10
234.65081829538181
 20
-28.0
 30
0.0
 40
3.0
  0
CIRCLE
  5
240
  8
1
 62
     7
 10
234.65081829538181
 20
-28.0
 30
0.0
 40
5.0
  0
CIRCLE
  5
241
  8
1
 62
     3
 10
186.15339568345331
 20
-22.5
 30
0.0
 40
2.0
  0
CIRCLE
  5
242
  8
1
 62
     7
 10
186.15339568345331
 20
-22.5
 30
0.0
 40
2.5
  0
CIRCLE
  5
243
  8
1
 62
     7
 10
186.15339568345331
 20
-22.5
 30
0.0
 40
4.0
  0
CIRCLE
  5
244
  8
1
 62
     3
 10
166.66782409830341
 20
11.25
 30
0.0
 40
2.0
  0
CIRCLE
  5
245
  8
1
 62
     7
 10
166.66782409830341
 20
11.25
 30
0.0
 40
2.5
  0
CIRCLE
  5
246
  8
1
 62
     7
 10
166.66782409830341
 20
11.25
 30
0.0
 40
4.0
  0
CIRCLE
  5
247
  8
1
 62
     3
 10
205.63896726860321
 20
11.25000000000011
 30
0.0
 40
2.0
  0
CIRCLE
  5
248
  8
1
 62
     7
 10
205.63896726860321
 20
11.25000000000011
 30
0.0
 40
2.5
  0
CIRCLE
  5
249
  8
1
 62
     7
 10
205.63896726860321
 20
11.25000000000011
 30
0.0
 40
4.0
  0
CIRCLE
  5
24A
  8
1
 62
     7
 10
186.15339568345331
 20
0.0
 30
0.0
 40
15.0
  0
CIRCLE
  5
24B
  8
1
 62
     7
 10
186.15339568345331
 20
0.0
 30
0.0
 40
17.0
  0
CIRCLE
  5
24C
  8
1
 62
     7
 10
186.15339568345331
 20
0.0
 30
0.0
 40
49.0
  0
CIRCLE
  5
24D
  8
1
 62
     7
 10
47.102173913043529
 20
-25.649999999999981
 30
0.0
 40
0.9000000000000198
  0
CIRCLE
  5
24E
  8
1
 62
     7
 10
48.150000000000013
 20
-19.34999999999998
 30
0.0
 40
0.9000000000000198
  0
CIRCLE
  5
24F
  8
1
 62
     7
 10
45.006521739130413
 20
-25.649999999999981
 30
0.0
 40
0.9000000000000127
  0
CIRCLE
  5
250
  8
1
 62
     7
 10
46.054347826087017
 20
-19.34999999999998
 30
0.0
 40
0.9000000000001051
  0
CIRCLE
  5
251
  8
1
 62
     7
 10
42.910869565217403
 20
-25.649999999999981
 30
0.0
 40
0.9000000000000127
  0
CIRCLE
  5
252
  8
1
 62
     7
 10
43.958695652173901
 20
-19.34999999999998
 30
0.0
 40
0.8999999999999914
  0
CIRCLE
  5
253
  8
1
 62
     7
 10
40.815217391304323
 20
-25.649999999999981
 30
0.0
 40
0.9000000000000198
  0
CIRCLE
  5
254
  8
1
 62
     7
 10
41.863043478260813
 20
-19.34999999999998
 30
0.0
 40
0.9000000000000198
  0
CIRCLE
  5
255
  8
1
 62
     7
 10
38.719565217391313
 20
-25.649999999999981
 30
0.0
 40
0.9000000000000198
  0
CIRCLE
  5
256
  8
1
 62
     7
 10
39.767391304347832
 20
-19.34999999999998
 30
0.0
 40
0.9000000000000198
  0
CIRCLE
  5
257
  8
1
 62
     7
 10
36.623913043478318
 20
-25.649999999999981
 30
0.0
 40
0.9000000000001051
  0
CIRCLE
  5
258
  8
1
 62
     7
 10
37.671739130434808
 20
-19.34999999999998
 30
0.0
 40
0.9000000000000198
  0
CIRCLE
  5
259
  8
1
 62
     7
 10
34.528260869565202
 20
-25.649999999999981
 30
0.0
 40
0.8999999999999914
  0
CIRCLE
  5
25A
  8
1
 62
     7
 10
35.576086956521721
 20
-19.34999999999998
 30
0.0
 40
0.9000000000000127
  0
CIRCLE
  5
25B
  8
1
 62
     7
 10
32.4326086956521
 20
-25.649999999999981
 30
0.0
 40
0.9000000000000056
  0
CIRCLE
  5
25C
  8
1
 62
     7
 10
33.480434782608711
 20
-19.34999999999998
 30
0.0
 40
0.8999999999999985
  0
CIRCLE
  5
25D
  8
1
 62
     7
 10
30.336956521739118
 20
-25.649999999999981
 30
0.0
 40
0.9000000000000412
  0
CIRCLE
  5
25E
  8
1
 62
     7
 10
31.38478260869562
 20
-19.34999999999998
 30
0.0
 40
0.9000000000000092
  0
CIRCLE
  5
25F
  8
1
 62
     7
 10
28.241304347826091
 20
-25.649999999999981
 30
0.0
 40
0.8999999999999772
  0
CIRCLE
  5
260
  8
1
 62
     7
 10
29.289130434782621
 20
-19.34999999999998
 30
0.0
 40
0.900000000000027
  0
CIRCLE
  5
261
  8
1
 62
     7
 10
26.145652173912978
 20
-25.649999999999981
 30
0.0
 40
0.8999999999998598
  0
CIRCLE
  5
262
  8
1
 62
     7
 10
27.19347826086954
 20
-19.34999999999998
 30
0.0
 40
0.9000000000000306
  0
CIRCLE
  5
263
  8
1
 62
     7
 10
24.050000000000011
 20
-25.649999999999981
 30
0.0
 40
0.8999999999999772
  0
CIRCLE
  5
264
  8
1
 62
     7
 10
25.097826086956498
 20
-19.34999999999998
 30
0.0
 40
0.8999999999999808
  0
TEXT
  5
266
  8
1
 62
     7
 10
-112.795113154757
 20
114.437256573033
 30
0.0
 40
5.0
  1
MNB 1.2
 41
0.9
  7
SIMPLEX
  0
ENDSEC
  0
EOF
