  0
SECTION
  2
HEADER
  9
$ACADVER
  1
AC1009
  9
$INSBASE
 10
0.0
 20
0.0
 30
0.0
  9
$EXTMIN
 10
-162.195449945767
 20
-84.517807262931086
 30
0.0
  9
$EXTMAX
 10
310.12693720907799
 20
137.97371177201441
 30
0.0
  9
$LIMMIN
 10
-162.195449945767
 20
-73.498173307285867
  9
$LIMMAX
 10
292.55001418744968
 20
137.97371177201441
  9
$ORTHOMODE
 70
     0
  9
$REGENMODE
 70
     1
  9
$FILLMODE
 70
     1
  9
$QTEXTMODE
 70
     0
  9
$MIRRTEXT
 70
     1
  9
$DRAGMODE
 70
     2
  9
$LTSCALE
 40
1.0
  9
$OSMODE
 70
    37
  9
$ATTMODE
 70
     1
  9
$TEXTSIZE
 40
3.5
  9
$TRACEWID
 40
0.5
  9
$TEXTSTYLE
  7
STANDARD
  9
$CLAYER
  8
0
  9
$CELTYPE
  6
BYLAYER
  9
$CECOLOR
 62
   256
  9
$DIMSCALE
 40
1.0
  9
$DIMASZ
 40
0.18
  9
$DIMEXO
 40
0.0625
  9
$DIMDLI
 40
0.38
  9
$DIMRND
 40
0.0
  9
$DIMDLE
 40
0.0
  9
$DIMEXE
 40
0.18
  9
$DIMTP
 40
0.0
  9
$DIMTM
 40
0.0
  9
$DIMTXT
 40
0.18
  9
$DIMCEN
 40
0.09
  9
$DIMTSZ
 40
0.0
  9
$DIMTOL
 70
     0
  9
$DIMLIM
 70
     0
  9
$DIMTIH
 70
     1
  9
$DIMTOH
 70
     1
  9
$DIMSE1
 70
     0
  9
$DIMSE2
 70
     0
  9
$DIMTAD
 70
     0
  9
$DIMZIN
 70
     0
  9
$DIMBLK
  1

  9
$DIMASO
 70
     1
  9
$DIMSHO
 70
     1
  9
$DIMPOST
  1

  9
$DIMAPOST
  1

  9
$DIMALT
 70
     0
  9
$DIMALTD
 70
     2
  9
$DIMALTF
 40
25.399999999999999
  9
$DIMLFAC
 40
1.0
  9
$DIMTOFL
 70
     0
  9
$DIMTVP
 40
0.0
  9
$DIMTIX
 70
     0
  9
$DIMSOXD
 70
     0
  9
$DIMSAH
 70
     0
  9
$DIMBLK1
  1

  9
$DIMBLK2
  1

  9
$DIMSTYLE
  2
STANDARD
  9
$DIMCLRD
 70
     0
  9
$DIMCLRE
 70
     0
  9
$DIMCLRT
 70
     0
  9
$DIMTFAC
 40
1.0
  9
$DIMGAP
 40
0.09
  9
$LUNITS
 70
     2
  9
$LUPREC
 70
     4
  9
$SKETCHINC
 40
0.1
  9
$FILLETRAD
 40
2.0
  9
$AUNITS
 70
     0
  9
$AUPREC
 70
     0
  9
$MENU
  1
ACAD
  9
$ELEVATION
 40
0.0
  9
$PELEVATION
 40
0.0
  9
$THICKNESS
 40
0.0
  9
$LIMCHECK
 70
     0
  9
$BLIPMODE
 70
     0
  9
$CHAMFERA
 40
0.0
  9
$CHAMFERB
 40
0.0
  9
$SKPOLY
 70
     0
  9
$TDCREATE
 40
2452094.9850340271
  9
$TDUPDATE
 40
2452094.9856150462
  9
$TDINDWG
 40
0.0005886574
  9
$TDUSRTIMER
 40
0.0005886574
  9
$USRTIMER
 70
     1
  9
$ANGBASE
 50
0.0
  9
$ANGDIR
 70
     0
  9
$PDMODE
 70
     0
  9
$PDSIZE
 40
0.0
  9
$PLINEWID
 40
0.0
  9
$COORDS
 70
     1
  9
$SPLFRAME
 70
     0
  9
$SPLINETYPE
 70
     6
  9
$SPLINESEGS
 70
     8
  9
$ATTDIA
 70
     0
  9
$ATTREQ
 70
     1
  9
$HANDLING
 70
 10241
  9
$HANDSEED
  5
265
  9
$SURFTAB1
 70
     6
  9
$SURFTAB2
 70
     6
  9
$SURFTYPE
 70
     6
  9
$SURFU
 70
     6
  9
$SURFV
 70
     6
  9
$UCSNAME
  2

  9
$UCSORG
 10
0.0
 20
0.0
 30
0.0
  9
$UCSXDIR
 10
1.0
 20
0.0
 30
0.0
  9
$UCSYDIR
 10
0.0
 20
1.0
 30
0.0
  9
$PUCSNAME
  2

  9
$PUCSORG
 10
0.0
 20
0.0
 30
0.0
  9
$PUCSXDIR
 10
1.0
 20
0.0
 30
0.0
  9
$PUCSYDIR
 10
0.0
 20
1.0
 30
0.0
  9
$USERI1
 70
     0
  9
$USERI2
 70
     0
  9
$USERI3
 70
     0
  9
$USERI4
 70
     0
  9
$USERI5
 70
     0
  9
$USERR1
 40
0.0
  9
$USERR2
 40
0.0
  9
$USERR3
 40
0.0
  9
$USERR4
 40
0.0
  9
$USERR5
 40
0.0
  9
$WORLDVIEW
 70
     1
  9
$SHADEDGE
 70
     3
  9
$SHADEDIF
 70
    70
  9
$TILEMODE
 70
     1
  9
$MAXACTVP
 70
    64
  9
$PLIMCHECK
 70
     0
  9
$PEXTMIN
 10
1.0000000000000000E+020
 20
1.0000000000000000E+020
 30
1.0000000000000000E+020
  9
$PEXTMAX
 10
-1.0000000000000000E+020
 20
-1.0000000000000000E+020
 30
-1.0000000000000000E+020
  9
$PLIMMIN
 10
0.0
 20
0.0
  9
$PLIMMAX
 10
12.0
 20
9.0
  9
$UNITMODE
 70
     0
  9
$VISRETAIN
 70
     1
  9
$PLINEGEN
 70
     0
  9
$PSLTSCALE
 70
     1
  0
ENDSEC
  0
SECTION
  2
TABLES
  0
TABLE
  2
VPORT
 70
     2
  0
VPORT
  2
*ACTIVE
 70
     0
 10
0.0
 20
0.0
 11
1.0
 21
1.0
 12
-119.85596875446041
 22
128.31588926582299
 13
0.0
 23
0.0
 14
1.0
 24
1.0
 15
0.0
 25
0.0
 16
0.0
 26
0.0
 36
1.0
 17
0.0
 27
0.0
 37
0.0
 40
9.0000002985856327
 41
2.4144144144144142
 42
50.0
 43
0.0
 44
0.0
 50
0.0
 51
0.0
 71
     0
 72
   100
 73
     1
 74
     1
 75
     0
 76
     0
 77
     0
 78
     0
  0
ENDTAB
  0
TABLE
  2
LTYPE
 70
     9
  0
LTYPE
  2
CONTINUOUS
 70
     0
  3
Solid line
 72
    65
 73
     0
 40
0.0
  0
LTYPE
  2
BORDER
 70
     0
  3
__ __ . __ __ .
 72
    65
 73
     6
 40
20.94222532192445
 49
5.9834929491212723
 49
-2.9917464745606361
 49
5.9834929491212723
 49
-2.9917464745606361
 49
0.0
 49
-2.9917464745606361
  0
LTYPE
  2
CENTER
 70
     0
  3
____ _ ____ _
 72
    65
 73
     4
 40
23.933971796485089
 49
14.95873237280318
 49
-2.9917464745606361
 49
2.9917464745606361
 49
-2.9917464745606361
  0
LTYPE
  2
DASHDOT
 70
     0
  3
__ . __ . __ .
 72
    65
 73
     4
 40
11.96698589824255
 49
5.9834929491212723
 49
-2.9917464745606361
 49
0.0
 49
-2.9917464745606361
  0
LTYPE
  2
DASHED
 70
     0
  3
__ __ __ __ __
 72
    65
 73
     2
 40
8.9752394236819075
 49
5.9834929491212723
 49
-2.9917464745606361
  0
LTYPE
  2
DIVIDE
 70
     0
  3
__ . . __ . . 
 72
    65
 73
     6
 40
14.95873237280318
 49
5.9834929491212723
 49
-2.9917464745606361
 49
0.0
 49
-2.9917464745606361
 49
0.0
 49
-2.9917464745606361
  0
LTYPE
  2
DOT
 70
     0
  3
..............
 72
    65
 73
     4
 40
5.9834929491212723
 49
0.0
 49
-2.9917464745606361
 49
0.0
 49
-2.9917464745606361
  0
LTYPE
  2
HIDDEN
 70
     0
  3
_ _ _ _ _ _ _
 72
    65
 73
     2
 40
4.4876197118409538
 49
2.9917464745606361
 49
-1.4958732372803181
  0
LTYPE
  2
PHANTOM
 70
     0
  3
_____ _ _ _____ _ _ 
 72
    65
 73
     6
 40
29.91746474560636
 49
14.95873237280318
 49
-2.9917464745606361
 49
2.9917464745606361
 49
-2.9917464745606361
 49
2.9917464745606361
 49
-2.9917464745606361
  0
ENDTAB
  0
TABLE
  2
LAYER
 70
     2
  0
LAYER
  2
0
 70
     0
 62
     7
  6
CONTINUOUS
  0
LAYER
  2
1
 70
     0
 62
     7
  6
CONTINUOUS
  0
ENDTAB
  0
TABLE
  2
STYLE
 70
     4
  0
STYLE
  2
STANDARD
 70
     0
 40
0.0
 41
1.0
 50
0.0
 71
     0
 42
3.5
  3
txt
  4

  0
STYLE
  2
SIMPLEX
 70
     0
 40
0.0
 41
1.0
 50
0.0
 71
     0
 42
3.5
  3
simplex
  4

  0
STYLE
  2
COMPLEX
 70
     0
 40
0.0
 41
1.0
 50
0.0
 71
     0
 42
3.5
  3
complex
  4

  0
STYLE
  2
ITALIC
 70
     0
 40
0.0
 41
1.0
 50
0.0
 71
     0
 42
3.5
  3
italic
  4

  0
ENDTAB
  0
TABLE
  2
VIEW
 70
     0
  0
ENDTAB
  0
TABLE
  2
UCS
 70
     0
  0
ENDTAB
  0
TABLE
  2
APPID
 70
     1
  0
APPID
  2
ACAD
 70
     0
  0
ENDTAB
  0
TABLE
  2
DIMSTYLE
 70
     1
  0
DIMSTYLE
  2
STANDARD
 70
     0
  3

  4

  5

  6

  7

 40
1.0
 41
0.18
 42
0.0625
 43
0.38
 44
0.18
 45
0.0
 46
0.0
 47
0.0
 48
0.0
140
0.18
141
0.09
142
0.0
143
25.399999999999999
144
1.0
145
0.0
146
1.0
147
0.09
 71
     0
 72
     0
 73
     1
 74
     1
 75
     0
 76
     0
 77
     0
 78
     0
170
     0
171
     2
172
     0
173
     0
174
     0
175
     0
176
     0
177
     0
178
     0
  0
ENDTAB
  0
ENDSEC
  0
SECTION
  2
BLOCKS
  0
BLOCK
  8
0
  2
$MODEL_SPACE
 70
     0
 10
0.0
 20
0.0
 30
0.0
  3
$MODEL_SPACE
  1

  0
ENDBLK
  5
20
  8
0
  0
BLOCK
 67
     1
  8
0
  2
$PAPER_SPACE
 70
     0
 10
0.0
 20
0.0
 30
0.0
  3
$PAPER_SPACE
  1

  0
ENDBLK
  5
1C
 67
     1
  8
0
  0
ENDSEC
  0
SECTION
  2
ENTITIES
  0
POINT
  5
33
  8
1
  6
DOT
 62
     7
 10
270.60814904228778
 20
50.558134854838109
 30
0.0
  0
POINT
  5
34
  8
1
  6
DOT
 62
     7
 10
169.4918793326116
 20
-50.558134854838173
 30
0.0
  0
LINE
  5
35
  8
1
 62
     7
 10
-94.699999999999974
 20
68.062500000000028
 30
0.0
 11
-94.699999999999974
 21
61.937500000000028
 31
0.0
  0
LINE
  5
36
  8
1
 62
     7
 10
-96.440747728811147
 20
59.250000000000028
 30
0.0
 11
-99.999999999999957
 21
59.250000000000021
 31
0.0
  0
LINE
  5
37
  8
1
 62
     7
 10
-96.440747728811147
 20
62.125000000000028
 30
0.0
 11
-99.999999999999957
 21
62.125000000000028
 31
0.0
  0
LINE
  5
38
  8
1
 62
     7
 10
-96.440747728811147
 20
67.875000000000028
 30
0.0
 11
-99.999999999999957
 21
67.875000000000028
 31
0.0
  0
LINE
  5
39
  8
1
 62
     7
 10
-96.440747728811147
 20
70.750000000000014
 30
0.0
 11
-99.999999999999957
 21
70.750000000000014
 31
0.0
  0
LINE
  5
3A
  8
1
 62
     7
 10
-95.949999999999974
 20
69.312500000000028
 30
0.0
 11
-95.949999999999974
 21
60.687500000000028
 31
0.0
  0
LINE
  5
3B
  8
1
 62
     7
 10
55.299999999999997
 20
68.062500000000028
 30
0.0
 11
55.299999999999997
 21
61.937500000000028
 31
0.0
  0
LINE
  5
3C
  8
1
 62
     7
 10
53.559252271188818
 20
59.250000000000028
 30
0.0
 11
50.0
 21
59.250000000000021
 31
0.0
  0
LINE
  5
3D
  8
1
 62
     7
 10
53.559252271188818
 20
62.125000000000028
 30
0.0
 11
50.0
 21
62.125000000000021
 31
0.0
  0
LINE
  5
3E
  8
1
 62
     7
 10
53.559252271188818
 20
67.875000000000028
 30
0.0
 11
50.0
 21
67.875000000000028
 31
0.0
  0
LINE
  5
3F
  8
1
 62
     7
 10
53.559252271188818
 20
70.750000000000014
 30
0.0
 11
50.0
 21
70.750000000000014
 31
0.0
  0
LINE
  5
40
  8
1
 62
     7
 10
54.049999999999997
 20
69.312500000000028
 30
0.0
 11
54.049999999999997
 21
60.687500000000028
 31
0.0
  0
LINE
  5
41
  8
1
 62
     7
 10
56.0
 20
-25.0
 30
0.0
 11
56.0
 21
-35.0
 31
0.0
  0
LINE
  5
42
  8
1
  6
DASHDOT
 62
     3
 10
220.05001418744959
 20
4.9785846044511501
 30
0.0
 11
220.05001418744959
 21
-4.9785846044511919
 31
0.0
  0
LINE
  5
43
  8
1
  6
DASHDOT
 62
     3
 10
225.02859879190089
 20
-0.0000000000000213
 30
0.0
 11
215.07142958299849
 21
-0.0000000000000213
 31
0.0
  0
LINE
  5
44
  8
1
  6
DASHDOT
 62
     3
 10
220.05001418744959
 20
13.346737452836431
 30
0.0
 11
220.05001418744959
 21
21.045008502002521
 31
0.0
  0
LINE
  5
45
  8
1
  6
DASHDOT
 62
     3
 10
230.1078704119692
 20
-0.0000000000000213
 30
0.0
 11
240.58386812836031
 21
-0.0000000000000213
 31
0.0
  0
LINE
  5
46
  8
1
  6
DASHDOT
 62
     3
 10
220.05001418744959
 20
-56.666439851405009
 30
0.0
 11
220.05001418744959
 21
-73.498173307285867
 31
0.0
  0
LINE
  5
47
  8
1
  6
DASHDOT
 62
     3
 10
268.87663807270951
 20
28.190064443775348
 30
0.0
 11
284.2343669498739
 21
37.056853345147452
 31
0.0
  0
LINE
  5
48
  8
1
  6
DASHDOT
 62
     3
 10
171.39550614848281
 20
28.09069331358635
 30
0.0
 11
155.79211623233761
 21
37.099314681943433
 31
0.0
  0
LINE
  5
49
  8
1
 62
     7
 10
-99.999999999999957
 20
71.000000000000028
 30
0.0
 11
-99.999999999999957
 21
-71.000000000000014
 31
0.0
  0
LINE
  5
4A
  8
1
 62
     7
 10
-150.0
 20
-62.0
 30
0.0
 11
-158.90000000000001
 21
-62.0
 31
0.0
  0
LINE
  5
4B
  8
1
 62
     7
 10
-150.0
 20
-62.0
 30
0.0
 11
-150.0
 21
-68.0
 31
0.0
  0
LINE
  5
4C
  8
1
 62
     7
 10
-122.3
 20
71.000000000000028
 30
0.0
 11
-121.0
 21
71.000000000000028
 31
0.0
  0
LINE
  5
4D
  8
1
 62
     7
 10
-122.3
 20
59.000000000000021
 30
0.0
 11
-121.0
 21
59.000000000000021
 31
0.0
  0
LINE
  5
4E
  8
1
 62
     7
 10
27.700000000000021
 20
59.000000000000021
 30
0.0
 11
27.700000000000021
 21
19.999999999999979
 31
0.0
  0
LINE
  5
4F
  8
1
 62
     7
 10
-138.0
 20
-57.5
 30
0.0
 11
-138.0
 21
57.500000000000021
 31
0.0
  0
LINE
  5
50
  8
1
 62
     3
 10
-155.0
 20
0.0
 30
0.0
 11
-150.0
 21
0.0
 31
0.0
  0
LINE
  5
51
  8
1
 62
     3
 10
-78.0
 20
0.0
 30
0.0
 11
-73.0
 21
0.0
 31
0.0
  0
LINE
  5
52
  8
1
 62
     7
 10
-94.500000000000014
 20
62.000000000000021
 30
0.0
 11
-94.500000000000014
 21
58.000000000000021
 31
0.0
  0
LINE
  5
53
  8
1
 62
     7
 10
-94.500000000000014
 20
82.010413253439125
 30
0.0
 11
-94.500000000000014
 21
68.000000000000028
 31
0.0
  0
LINE
  5
54
  8
1
 62
     7
 10
-92.5
 20
62.000000000000021
 30
0.0
 11
-92.5
 21
58.000000000000021
 31
0.0
  0
LINE
  5
55
  8
1
 62
     7
 10
-92.5
 20
82.010413253439125
 30
0.0
 11
-92.5
 21
68.000000000000028
 31
0.0
  0
LINE
  5
56
  8
1
 62
     7
 10
-121.7999999999999
 20
58.000000000000021
 30
0.0
 11
-107.4999999999999
 21
58.000000000000021
 31
0.0
  0
LINE
  5
57
  8
1
 62
     7
 10
-107.4999999999999
 20
71.000000000000028
 30
0.0
 11
-107.4999999999999
 21
-71.000000000000014
 31
0.0
  0
LINE
  5
58
  8
1
 62
     7
 10
-107.0
 20
71.500000000000028
 30
0.0
 11
-100.5
 21
71.500000000000028
 31
0.0
  0
LINE
  5
59
  8
1
 62
     7
 10
-99.999999999999957
 20
58.000000000000021
 30
0.0
 11
-79.0
 21
58.000000000000021
 31
0.0
  0
LINE
  5
5A
  8
1
 62
     7
 10
-78.0
 20
57.000000000000021
 30
0.0
 11
-78.0
 21
-57.000000000000007
 31
0.0
  0
LINE
  5
5B
  8
1
 62
     7
 10
-99.999999999999957
 20
-58.0
 30
0.0
 11
-79.0
 21
-58.0
 31
0.0
  0
LINE
  5
5C
  8
1
 62
     7
 10
-100.5
 20
-71.500000000000014
 30
0.0
 11
-107.0
 21
-71.500000000000014
 31
0.0
  0
LINE
  5
5D
  8
1
 62
     7
 10
-107.4999999999999
 20
-58.0
 30
0.0
 11
-121.7999999999999
 21
-58.0
 31
0.0
  0
LINE
  5
5E
  8
1
 62
     7
 10
-121.7999999999999
 20
58.000000000000021
 30
0.0
 11
-121.7999999999999
 21
-58.0
 31
0.0
  0
LINE
  5
5F
  8
1
 62
     7
 10
-73.0
 20
-25.6875
 30
0.0
 11
-73.0
 21
-34.3125
 31
0.0
  0
LINE
  5
60
  8
1
 62
     7
 10
-73.490747728811186
 20
-24.25
 30
0.0
 11
-78.0
 21
-24.25
 31
0.0
  0
LINE
  5
61
  8
1
 62
     7
 10
-73.490747728811186
 20
-27.125
 30
0.0
 11
-78.0
 21
-27.125
 31
0.0
  0
LINE
  5
62
  8
1
 62
     7
 10
-73.490747728811186
 20
-32.875
 30
0.0
 11
-78.0
 21
-32.875
 31
0.0
  0
LINE
  5
63
  8
1
 62
     7
 10
-73.490747728811186
 20
-35.75
 30
0.0
 11
-78.0
 21
-35.75
 31
0.0
  0
LINE
  5
64
  8
1
 62
     7
 10
-73.0
 20
-27.0
 30
0.0
 11
-72.59999999999998
 21
-27.0
 31
0.0
  0
LINE
  5
65
  8
1
 62
     7
 10
-72.59999999999998
 20
-27.0
 30
0.0
 11
-72.0
 21
-27.600000000000009
 31
0.0
  0
LINE
  5
66
  8
1
 62
     7
 10
-72.0
 20
-27.600000000000009
 30
0.0
 11
-72.0
 21
-32.400000000000013
 31
0.0
  0
LINE
  5
67
  8
1
 62
     7
 10
-72.0
 20
-32.400000000000013
 30
0.0
 11
-72.59999999999998
 21
-33.0
 31
0.0
  0
LINE
  5
68
  8
1
 62
     7
 10
-72.59999999999998
 20
-33.0
 30
0.0
 11
-73.0
 21
-33.0
 31
0.0
  0
LINE
  5
69
  8
1
 62
     7
 10
-72.59999999999998
 20
-33.0
 30
0.0
 11
-72.59999999999998
 21
-27.0
 31
0.0
  0
LINE
  5
6A
  8
1
 62
     3
 10
-73.0
 20
-32.400000000000013
 30
0.0
 11
-72.0
 21
-32.400000000000013
 31
0.0
  0
LINE
  5
6B
  8
1
 62
     3
 10
-73.0
 20
-27.600000000000009
 30
0.0
 11
-72.0
 21
-27.600000000000009
 31
0.0
  0
LINE
  5
6C
  8
1
 62
     7
 10
-141.5
 20
-72.5
 30
0.0
 11
-149.5
 21
-72.5
 31
0.0
  0
LINE
  5
6D
  8
1
 62
     7
 10
-149.5
 20
72.500000000000028
 30
0.0
 11
-141.5
 21
72.500000000000028
 31
0.0
  0
LINE
  5
6E
  8
1
 62
     7
 10
-150.0
 20
72.000000000000014
 30
0.0
 11
-150.0
 21
-62.0
 31
0.0
  0
LINE
  5
6F
  8
1
 62
     7
 10
-122.7999999999999
 20
-72.5
 30
0.0
 11
-131.49999999999989
 21
-72.5
 31
0.0
  0
LINE
  5
70
  8
1
 62
     7
 10
-131.49999999999989
 20
72.500000000000028
 30
0.0
 11
-122.7999999999999
 21
72.500000000000028
 31
0.0
  0
LINE
  5
71
  8
1
 62
     7
 10
-132.0
 20
-72.0
 30
0.0
 11
-132.0
 21
72.000000000000014
 31
0.0
  0
LINE
  5
72
  8
1
 62
     7
 10
-141.0
 20
57.500000000000021
 30
0.0
 11
-132.0
 21
57.500000000000021
 31
0.0
  0
LINE
  5
73
  8
1
 62
     7
 10
-141.0
 20
-57.5
 30
0.0
 11
-132.0
 21
-57.5
 31
0.0
  0
LINE
  5
74
  8
1
 62
     7
 10
-135.0
 20
57.500000000000021
 30
0.0
 11
-135.0
 21
-57.5
 31
0.0
  0
LINE
  5
75
  8
1
 62
     7
 10
-112.5
 20
60.687500000000021
 30
0.0
 11
-112.5
 21
69.312500000000028
 31
0.0
  0
LINE
  5
76
  8
1
 62
     7
 10
-112.0092522711888
 20
59.250000000000021
 30
0.0
 11
-107.4999999999999
 21
59.250000000000021
 31
0.0
  0
LINE
  5
77
  8
1
 62
     7
 10
-112.0092522711888
 20
62.125000000000021
 30
0.0
 11
-107.4999999999999
 21
62.125000000000021
 31
0.0
  0
LINE
  5
78
  8
1
 62
     7
 10
-112.0092522711888
 20
67.875000000000028
 30
0.0
 11
-107.4999999999999
 21
67.875000000000028
 31
0.0
  0
LINE
  5
79
  8
1
 62
     7
 10
-112.0092522711888
 20
70.750000000000014
 30
0.0
 11
-107.4999999999999
 21
70.750000000000014
 31
0.0
  0
LINE
  5
7A
  8
1
 62
     7
 10
-116.0
 20
69.312500000000028
 30
0.0
 11
-116.0
 21
60.687500000000021
 31
0.0
  0
LINE
  5
7B
  8
1
 62
     7
 10
-116.4907477288112
 20
70.750000000000014
 30
0.0
 11
-121.0
 21
70.750000000000014
 31
0.0
  0
LINE
  5
7C
  8
1
 62
     7
 10
-116.4907477288112
 20
67.875000000000028
 30
0.0
 11
-121.0
 21
67.875000000000028
 31
0.0
  0
LINE
  5
7D
  8
1
 62
     7
 10
-116.4907477288112
 20
62.125000000000021
 30
0.0
 11
-121.0
 21
62.125000000000021
 31
0.0
  0
LINE
  5
7E
  8
1
 62
     7
 10
-116.4907477288112
 20
59.250000000000021
 30
0.0
 11
-121.0
 21
59.250000000000021
 31
0.0
  0
LINE
  5
7F
  8
1
 62
     7
 10
-141.0
 20
71.000000000000028
 30
0.0
 11
-132.0
 21
71.000000000000028
 31
0.0
  0
LINE
  5
80
  8
1
 62
     7
 10
-141.0
 20
59.000000000000021
 30
0.0
 11
-132.0
 21
59.000000000000021
 31
0.0
  0
LINE
  5
81
  8
1
 62
     7
 10
-121.0
 20
71.000000000000028
 30
0.0
 11
-121.0
 21
59.000000000000021
 31
0.0
  0
LINE
  5
82
  8
1
 62
     7
 10
-122.3
 20
-72.0
 30
0.0
 11
-122.3
 21
72.000000000000014
 31
0.0
  0
LINE
  5
83
  8
1
 62
     7
 10
-116.0
 20
68.000000000000028
 30
0.0
 11
-112.5
 21
68.000000000000028
 31
0.0
  0
LINE
  5
84
  8
1
 62
     7
 10
-116.0
 20
62.000000000000021
 30
0.0
 11
-112.5
 21
62.000000000000021
 31
0.0
  0
LINE
  5
85
  8
1
 62
     7
 10
-94.699999999999974
 20
68.000000000000028
 30
0.0
 11
-91.599999999999994
 21
68.000000000000028
 31
0.0
  0
LINE
  5
86
  8
1
 62
     7
 10
-91.599999999999994
 20
68.000000000000028
 30
0.0
 11
-91.0
 21
67.400000000000034
 31
0.0
  0
LINE
  5
87
  8
1
 62
     7
 10
-91.0
 20
67.400000000000034
 30
0.0
 11
-91.0
 21
62.60000000000003
 31
0.0
  0
LINE
  5
88
  8
1
 62
     7
 10
-91.0
 20
62.60000000000003
 30
0.0
 11
-91.599999999999994
 21
62.000000000000021
 31
0.0
  0
LINE
  5
89
  8
1
 62
     7
 10
-91.599999999999994
 20
62.000000000000021
 30
0.0
 11
-94.699999999999974
 21
62.000000000000021
 31
0.0
  0
LINE
  5
8A
  8
1
 62
     7
 10
-91.599999999999994
 20
68.000000000000028
 30
0.0
 11
-91.599999999999994
 21
62.000000000000021
 31
0.0
  0
LINE
  5
8B
  8
1
 62
     3
 10
-116.0
 20
67.400000000000034
 30
0.0
 11
-112.5
 21
67.400000000000034
 31
0.0
  0
LINE
  5
8C
  8
1
 62
     3
 10
-116.0
 20
62.60000000000003
 30
0.0
 11
-112.5
 21
62.60000000000003
 31
0.0
  0
LINE
  5
8D
  8
1
 62
     3
 10
-94.699999999999974
 20
67.400000000000034
 30
0.0
 11
-91.0
 21
67.400000000000034
 31
0.0
  0
LINE
  5
8E
  8
1
 62
     3
 10
-94.699999999999974
 20
62.60000000000003
 30
0.0
 11
-91.0
 21
62.60000000000003
 31
0.0
  0
LINE
  5
8F
  8
1
 62
     7
 10
-141.0
 20
-65.0
 30
0.0
 11
-139.5
 21
-63.5
 31
0.0
  0
LINE
  5
90
  8
1
 62
     7
 10
-141.0
 20
-66.5
 30
0.0
 11
-139.5
 21
-65.0
 31
0.0
  0
LINE
  5
91
  8
1
 62
     7
 10
-141.0
 20
-58.900000000000013
 30
0.0
 11
-139.5
 21
-58.900000000000013
 31
0.0
  0
LINE
  5
92
  8
1
 62
     7
 10
-139.5
 20
-58.900000000000013
 30
0.0
 11
-139.5
 21
-71.100000000000023
 31
0.0
  0
LINE
  5
93
  8
1
 62
     7
 10
-139.5
 20
-71.100000000000023
 30
0.0
 11
-141.0
 21
-71.100000000000023
 31
0.0
  0
LINE
  5
94
  8
1
 62
     7
 10
-139.5
 20
-60.0
 30
0.0
 11
-133.90000000000001
 21
-60.0
 31
0.0
  0
LINE
  5
95
  8
1
 62
     7
 10
-133.90000000000001
 20
-60.0
 30
0.0
 11
-133.49999999999989
 21
-60.692820323027547
 31
0.0
  0
LINE
  5
96
  8
1
 62
     7
 10
-133.49999999999989
 20
-60.692820323027547
 30
0.0
 11
-133.49999999999989
 21
-69.307179676972453
 31
0.0
  0
LINE
  5
97
  8
1
 62
     7
 10
-133.49999999999989
 20
-69.307179676972453
 30
0.0
 11
-133.90000000000001
 21
-70.0
 31
0.0
  0
LINE
  5
98
  8
1
 62
     7
 10
-133.90000000000001
 20
-70.0
 30
0.0
 11
-139.5
 21
-70.0
 31
0.0
  0
LINE
  5
99
  8
1
 62
     7
 10
-133.90000000000001
 20
-60.0
 30
0.0
 11
-133.90000000000001
 21
-70.0
 31
0.0
  0
LINE
  5
9A
  8
1
 62
     7
 10
-158.90000000000001
 20
-62.0
 30
0.0
 11
-159.49999999999989
 21
-62.600000000000001
 31
0.0
  0
LINE
  5
9B
  8
1
 62
     7
 10
-159.49999999999989
 20
-62.600000000000001
 30
0.0
 11
-159.49999999999989
 21
-67.400000000000006
 31
0.0
  0
LINE
  5
9C
  8
1
 62
     7
 10
-159.49999999999989
 20
-67.400000000000006
 30
0.0
 11
-158.90000000000001
 21
-68.0
 31
0.0
  0
LINE
  5
9D
  8
1
 62
     7
 10
-158.90000000000001
 20
-68.0
 30
0.0
 11
-150.0
 21
-68.0
 31
0.0
  0
LINE
  5
9E
  8
1
 62
     7
 10
-158.90000000000001
 20
-62.0
 30
0.0
 11
-158.90000000000001
 21
-68.0
 31
0.0
  0
LINE
  5
9F
  8
1
 62
     3
 10
-159.49999999999989
 20
-62.600000000000001
 30
0.0
 11
-150.0
 21
-62.600000000000001
 31
0.0
  0
LINE
  5
A0
  8
1
 62
     3
 10
-159.49999999999989
 20
-67.400000000000006
 30
0.0
 11
-150.0
 21
-67.400000000000006
 31
0.0
  0
LINE
  5
A1
  8
1
 62
     7
 10
-150.0
 20
-68.0
 30
0.0
 11
-150.0
 21
-72.0
 31
0.0
  0
LINE
  5
A2
  8
1
  6
DASHDOT
 62
     3
 10
-162.195449945767
 20
-65.0
 30
0.0
 11
-130.6404655928975
 21
-65.0
 31
0.0
  0
LINE
  5
A3
  8
1
 62
     7
 10
-141.0
 20
-72.0
 30
0.0
 11
-141.0
 21
72.000000000000014
 31
0.0
  0
LINE
  5
A4
  8
1
 62
     7
 10
-78.0
 20
57.000000000000021
 30
0.0
 11
-79.0
 21
58.000000000000021
 31
0.0
  0
LINE
  5
A5
  8
1
 62
     7
 10
-79.0
 20
-58.0
 30
0.0
 11
-78.0
 21
-57.000000000000007
 31
0.0
  0
LINE
  5
A6
  8
1
 62
     7
 10
-100.5
 20
-71.500000000000014
 30
0.0
 11
-99.999999999999957
 21
-71.000000000000014
 31
0.0
  0
LINE
  5
A7
  8
1
 62
     7
 10
-107.4999999999999
 20
-71.000000000000014
 30
0.0
 11
-107.0
 21
-71.500000000000014
 31
0.0
  0
LINE
  5
A8
  8
1
 62
     7
 10
-122.3
 20
-72.0
 30
0.0
 11
-122.7999999999999
 21
-72.5
 31
0.0
  0
LINE
  5
A9
  8
1
 62
     7
 10
-132.0
 20
-72.0
 30
0.0
 11
-131.49999999999989
 21
-72.5
 31
0.0
  0
LINE
  5
AA
  8
1
 62
     7
 10
-141.0
 20
-72.0
 30
0.0
 11
-141.5
 21
-72.5
 31
0.0
  0
LINE
  5
AB
  8
1
 62
     7
 10
-150.0
 20
-72.0
 30
0.0
 11
-149.5
 21
-72.5
 31
0.0
  0
LINE
  5
AC
  8
1
 62
     7
 10
-150.0
 20
72.000000000000014
 30
0.0
 11
-149.5
 21
72.500000000000028
 31
0.0
  0
LINE
  5
AD
  8
1
 62
     7
 10
-141.0
 20
72.000000000000014
 30
0.0
 11
-141.5
 21
72.500000000000028
 31
0.0
  0
LINE
  5
AE
  8
1
 62
     7
 10
-132.0
 20
72.000000000000014
 30
0.0
 11
-131.49999999999989
 21
72.500000000000028
 31
0.0
  0
LINE
  5
AF
  8
1
 62
     7
 10
-122.3
 20
72.000000000000014
 30
0.0
 11
-122.7999999999999
 21
72.500000000000028
 31
0.0
  0
LINE
  5
B0
  8
1
 62
     7
 10
-107.0
 20
71.500000000000028
 30
0.0
 11
-107.4999999999999
 21
71.000000000000028
 31
0.0
  0
LINE
  5
B1
  8
1
 62
     7
 10
-99.999999999999957
 20
71.000000000000028
 30
0.0
 11
-100.5
 21
71.500000000000028
 31
0.0
  0
LINE
  5
B2
  8
1
 62
     7
 10
-93.099999999999994
 20
85.01041325343914
 30
0.0
 11
-93.099999999999994
 21
82.010413253439125
 31
0.0
  0
LINE
  5
B3
  8
1
 62
     7
 10
-93.299999999999983
 20
82.010413253439125
 30
0.0
 11
-93.299999999999983
 21
85.01041325343914
 31
0.0
  0
LINE
  5
B4
  8
1
 62
     7
 10
-93.499999999999986
 20
85.01041325343914
 30
0.0
 11
-93.499999999999986
 21
82.010413253439125
 31
0.0
  0
LINE
  5
B5
  8
1
 62
     7
 10
-93.700000000000003
 20
82.010413253439125
 30
0.0
 11
-93.700000000000003
 21
85.01041325343914
 31
0.0
  0
LINE
  5
B6
  8
1
 62
     7
 10
-93.900000000000006
 20
85.01041325343914
 30
0.0
 11
-93.900000000000006
 21
82.010413253439125
 31
0.0
  0
LINE
  5
B7
  8
1
 62
     7
 10
-94.500000000000014
 20
82.010413253439125
 30
0.0
 11
-92.5
 21
82.010413253439125
 31
0.0
  0
LINE
  5
B8
  8
1
  6
DASHDOT
 62
     3
 10
24.359774663295301
 20
0.0
 30
0.0
 11
33.378648586219299
 21
0.0
 31
0.0
  0
LINE
  5
B9
  8
1
  6
DASHDOT
 62
     3
 10
29.0
 20
3.9343541589977278
 30
0.0
 11
29.0
 21
-3.9034767502100749
 31
0.0
  0
LINE
  5
BA
  8
1
 62
     3
 10
-5.0
 20
0.0
 30
0.0
 11
0.0
 21
0.0
 31
0.0
  0
LINE
  5
BB
  8
1
 62
     3
 10
71.999999999999972
 20
0.0
 30
0.0
 11
76.999999999999972
 21
0.0
 31
0.0
  0
LINE
  5
BC
  8
1
 62
     7
 10
28.148466988698509
 20
-33.902507811027853
 30
0.0
 11
28.598466988698501
 21
-26.202507811027839
 31
0.0
  0
LINE
  5
BD
  8
1
 62
     7
 10
28.17132437762319
 20
-33.65524592265934
 30
0.0
 11
29.8779910442898
 21
-25.955245922659341
 31
0.0
  0
LINE
  5
BE
  8
1
 62
     7
 10
29.928675622376709
 20
-34.044754077340663
 30
0.0
 11
31.63534228904339
 21
-26.344754077340649
 31
0.0
  0
LINE
  5
BF
  8
1
 62
     7
 10
31.584657710956488
 20
-33.655245922659361
 30
0.0
 11
33.291324377623198
 21
-25.955245922659358
 31
0.0
  0
LINE
  5
C0
  8
1
 62
     7
 10
33.342008955710099
 20
-34.044754077340663
 30
0.0
 11
35.048675622376699
 21
-26.344754077340649
 31
0.0
  0
LINE
  5
C1
  8
1
 62
     7
 10
34.99799104428989
 20
-33.65524592265934
 30
0.0
 11
36.704657710956504
 21
-25.955245922659351
 31
0.0
  0
LINE
  5
C2
  8
1
 62
     7
 10
36.755342289043391
 20
-34.044754077340663
 30
0.0
 11
38.462008955710097
 21
-26.344754077340649
 31
0.0
  0
LINE
  5
C3
  8
1
 62
     7
 10
38.411324377623203
 20
-33.65524592265934
 30
0.0
 11
40.117991044289901
 21
-25.955245922659351
 31
0.0
  0
LINE
  5
C4
  8
1
 62
     7
 10
40.168675622376703
 20
-34.044754077340663
 30
0.0
 11
41.875342289043388
 21
-26.344754077340649
 31
0.0
  0
LINE
  5
C5
  8
1
 62
     7
 10
41.824657710956501
 20
-33.65524592265934
 30
0.0
 11
43.531324377623207
 21
-25.955245922659351
 31
0.0
  0
LINE
  5
C6
  8
1
 62
     7
 10
43.582008955710108
 20
-34.044754077340663
 30
0.0
 11
45.288675622376701
 21
-26.344754077340649
 31
0.0
  0
LINE
  5
C7
  8
1
 62
     7
 10
45.237991044289892
 20
-33.65524592265934
 30
0.0
 11
46.944657710956498
 21
-25.955245922659351
 31
0.0
  0
LINE
  5
C8
  8
1
 62
     7
 10
46.9953422890434
 20
-34.044754077340663
 30
0.0
 11
48.702008955710099
 21
-26.344754077340649
 31
0.0
  0
LINE
  5
C9
  8
1
 62
     7
 10
48.651324377623197
 20
-33.65524592265934
 30
0.0
 11
50.357991044289889
 21
-25.955245922659351
 31
0.0
  0
LINE
  5
CA
  8
1
 62
     7
 10
50.408675622376713
 20
-34.044754077340663
 30
0.0
 11
52.115342289043397
 21
-26.34475407734066
 31
0.0
  0
LINE
  5
CB
  8
1
 62
     7
 10
52.06465771095651
 20
-33.655245922659361
 30
0.0
 11
53.771324377623202
 21
-25.955245922659358
 31
0.0
  0
LINE
  5
CC
  8
1
 62
     7
 10
53.822008955710103
 20
-34.044754077340663
 30
0.0
 11
55.52867562237671
 21
-26.344754077340649
 31
0.0
  0
LINE
  5
CD
  8
1
 62
     7
 10
55.101533011301413
 20
-33.79749218897215
 30
0.0
 11
55.551533011301402
 21
-26.097492188972168
 31
0.0
  0
LINE
  5
CE
  8
1
 62
     7
 10
27.700000000000021
 20
-22.0
 30
0.0
 11
27.700000000000021
 21
-72.0
 31
0.0
  0
LINE
  5
CF
  8
1
 62
     7
 10
39.0
 20
-12.000000000000011
 30
0.0
 11
9.0
 21
-12.000000000000011
 31
0.0
  0
LINE
  5
D0
  8
1
 62
     7
 10
18.0
 20
-19.0
 30
0.0
 11
18.0
 21
-72.0
 31
0.0
  0
LINE
  5
D1
  8
1
 62
     7
 10
17.0
 20
-20.5
 30
0.0
 11
9.0
 21
-20.5
 31
0.0
  0
LINE
  5
D2
  8
1
 62
     7
 10
38.5
 20
-19.0
 30
0.0
 11
39.0
 21
-18.5
 31
0.0
  0
LINE
  5
D3
  8
1
 62
     7
 10
38.5
 20
-19.0
 30
0.0
 11
17.0
 21
-19.0
 31
0.0
  0
LINE
  5
D4
  8
1
 62
     7
 10
17.0
 20
-23.0
 30
0.0
 11
17.0
 21
-19.0
 31
0.0
  0
LINE
  5
D5
  8
1
 62
     7
 10
16.5
 20
-23.5
 30
0.0
 11
17.0
 21
-23.0
 31
0.0
  0
LINE
  5
D6
  8
1
 62
     7
 10
9.5
 20
-23.5
 30
0.0
 11
16.5
 21
-23.5
 31
0.0
  0
LINE
  5
D7
  8
1
 62
     7
 10
9.0
 20
-23.0
 30
0.0
 11
9.5
 21
-23.5
 31
0.0
  0
LINE
  5
D8
  8
1
 62
     7
 10
31.0
 20
18.999999999999979
 30
0.0
 11
38.5
 21
18.999999999999979
 31
0.0
  0
LINE
  5
D9
  8
1
 62
     7
 10
189.3352098875024
 20
49.199601592044793
 30
0.0
 11
170.9692292116556
 21
81.010413253439125
 31
0.0
  0
LINE
  5
DA
  8
1
 62
     7
 10
191.0500141874509
 20
50.229473419498142
 30
0.0
 11
172.7012800192245
 21
82.010413253439125
 31
0.0
  0
LINE
  5
DB
  8
1
 62
     7
 10
192.7993115026396
 20
51.199601592044509
 30
0.0
 11
174.43333082679331
 21
83.010413253439154
 31
0.0
  0
LINE
  5
DC
  8
1
 62
     7
 10
23.0
 20
-22.0
 30
0.0
 11
27.700000000000021
 21
-22.0
 31
0.0
  0
LINE
  5
DD
  8
1
 62
     7
 10
23.0
 20
21.999999999999979
 30
0.0
 11
27.700000000000021
 21
21.999999999999979
 31
0.0
  0
LINE
  5
DE
  8
1
 62
     7
 10
23.0
 20
18.999999999999979
 30
0.0
 11
23.0
 21
21.999999999999979
 31
0.0
  0
LINE
  5
DF
  8
1
 62
     7
 10
23.0
 20
-22.0
 30
0.0
 11
23.0
 21
-19.0
 31
0.0
  0
LINE
  5
E0
  8
1
 62
     7
 10
23.0
 20
-22.0
 30
0.0
 11
18.0
 21
-27.0
 31
0.0
  0
LINE
  5
E1
  8
1
 62
     7
 10
23.0
 20
21.999999999999979
 30
0.0
 11
18.0
 21
26.999999999999989
 31
0.0
  0
LINE
  5
E2
  8
1
 62
     7
 10
55.5
 20
62.000000000000021
 30
0.0
 11
55.5
 21
58.000000000000021
 31
0.0
  0
LINE
  5
E3
  8
1
 62
     7
 10
55.5
 20
82.010413253439125
 30
0.0
 11
55.5
 21
68.000000000000028
 31
0.0
  0
LINE
  5
E4
  8
1
 62
     7
 10
57.5
 20
62.000000000000021
 30
0.0
 11
57.5
 21
58.000000000000021
 31
0.0
  0
LINE
  5
E5
  8
1
 62
     7
 10
57.5
 20
82.010413253439125
 30
0.0
 11
57.5
 21
68.000000000000028
 31
0.0
  0
LINE
  5
E6
  8
1
 62
     7
 10
18.0
 20
-58.500000000000021
 30
0.0
 11
27.6999999999999
 21
-58.500000000000021
 31
0.0
  0
LINE
  5
E7
  8
1
 62
     7
 10
230.0500141874497
 20
-68.500000000000028
 30
0.0
 11
230.0500141874497
 21
-70.797245709137599
 31
0.0
  0
LINE
  5
E8
  8
1
 62
     7
 10
210.05001418744959
 20
-70.797245709137599
 30
0.0
 11
210.05001418744959
 21
-68.500000000000028
 31
0.0
  0
LINE
  5
E9
  8
1
 62
     7
 10
274.37275434668379
 20
42.910254037844354
 30
0.0
 11
276.36222748953162
 21
44.058876892413139
 31
0.0
  0
LINE
  5
EA
  8
1
 62
     7
 10
155.7272740282157
 20
25.589745962155611
 30
0.0
 11
153.73780088536759
 21
26.73836881672441
 31
0.0
  0
LINE
  5
EB
  8
1
 62
     7
 10
286.36222748953162
 20
26.738368816724371
 30
0.0
 11
284.37275434668362
 21
25.589745962155568
 31
0.0
  0
LINE
  5
EC
  8
1
 62
     7
 10
163.73780088536759
 20
44.058876892413167
 30
0.0
 11
165.7272740282157
 21
42.910254037844389
 31
0.0
  0
LINE
  5
ED
  8
1
 62
     7
 10
281.34166543343821
 20
-29.61324865405188
 30
0.0
 11
276.34166543343821
 21
-26.72649730810376
 31
0.0
  0
LINE
  5
EE
  8
1
 62
     7
 10
276.34166543343821
 20
-26.72649730810376
 30
0.0
 11
271.34166543343821
 21
-29.61324865405188
 31
0.0
  0
LINE
  5
EF
  8
1
 62
     7
 10
271.34166543343821
 20
-29.61324865405188
 30
0.0
 11
271.34166543343821
 21
-35.386751345948142
 31
0.0
  0
LINE
  5
F0
  8
1
 62
     7
 10
271.34166543343821
 20
-35.386751345948142
 30
0.0
 11
276.34166543343821
 21
-38.273502691896283
 31
0.0
  0
LINE
  5
F1
  8
1
 62
     7
 10
276.34166543343821
 20
-38.273502691896283
 30
0.0
 11
281.34166543343821
 21
-35.386751345948142
 31
0.0
  0
LINE
  5
F2
  8
1
 62
     7
 10
281.34166543343821
 20
-35.386751345948142
 30
0.0
 11
281.34166543343821
 21
-29.61324865405188
 31
0.0
  0
LINE
  5
F3
  8
1
 62
     7
 10
168.75836294146109
 20
-29.61324865405188
 30
0.0
 11
163.75836294146109
 21
-26.72649730810376
 31
0.0
  0
LINE
  5
F4
  8
1
 62
     7
 10
163.75836294146109
 20
-26.72649730810376
 30
0.0
 11
158.75836294146109
 21
-29.61324865405188
 31
0.0
  0
LINE
  5
F5
  8
1
 62
     7
 10
158.75836294146109
 20
-29.61324865405188
 30
0.0
 11
158.75836294146109
 21
-35.386751345948142
 31
0.0
  0
LINE
  5
F6
  8
1
 62
     7
 10
158.75836294146109
 20
-35.386751345948142
 30
0.0
 11
163.75836294146109
 21
-38.273502691896283
 31
0.0
  0
LINE
  5
F7
  8
1
 62
     7
 10
163.75836294146109
 20
-38.273502691896283
 30
0.0
 11
168.75836294146109
 21
-35.386751345948142
 31
0.0
  0
LINE
  5
F8
  8
1
 62
     7
 10
168.75836294146109
 20
-35.386751345948142
 30
0.0
 11
168.75836294146109
 21
-29.61324865405188
 31
0.0
  0
LINE
  5
F9
  8
1
 62
     7
 10
225.05001418744959
 20
67.886751345948099
 30
0.0
 11
220.05001418744959
 21
70.77350269189624
 31
0.0
  0
LINE
  5
FA
  8
1
 62
     7
 10
220.05001418744959
 20
70.77350269189624
 30
0.0
 11
215.05001418744959
 21
67.886751345948099
 31
0.0
  0
LINE
  5
FB
  8
1
 62
     7
 10
215.05001418744959
 20
67.886751345948099
 30
0.0
 11
215.05001418744959
 21
62.113248654051809
 31
0.0
  0
LINE
  5
FC
  8
1
 62
     7
 10
215.05001418744959
 20
62.113248654051809
 30
0.0
 11
220.05001418744959
 21
59.226497308103717
 31
0.0
  0
LINE
  5
FD
  8
1
 62
     7
 10
220.05001418744959
 20
59.226497308103717
 30
0.0
 11
225.05001418744959
 21
62.113248654051809
 31
0.0
  0
LINE
  5
FE
  8
1
 62
     7
 10
225.05001418744959
 20
62.113248654051809
 30
0.0
 11
225.05001418744959
 21
67.886751345948099
 31
0.0
  0
LINE
  5
FF
  8
1
 62
     7
 10
278.84166543343821
 20
33.943375672974049
 30
0.0
 11
276.34166543343821
 21
35.386751345948113
 31
0.0
  0
LINE
  5
100
  8
1
 62
     7
 10
276.34166543343821
 20
35.386751345948113
 30
0.0
 11
273.84166543343821
 21
33.943375672974049
 31
0.0
  0
LINE
  5
101
  8
1
 62
     7
 10
273.84166543343821
 20
33.943375672974049
 30
0.0
 11
273.84166543343821
 21
31.056624327025901
 31
0.0
  0
LINE
  5
102
  8
1
 62
     7
 10
273.84166543343821
 20
31.056624327025901
 30
0.0
 11
276.34166543343821
 21
29.613248654051851
 31
0.0
  0
LINE
  5
103
  8
1
 62
     7
 10
276.34166543343821
 20
29.613248654051851
 30
0.0
 11
278.84166543343821
 21
31.056624327025901
 31
0.0
  0
LINE
  5
104
  8
1
 62
     7
 10
278.84166543343821
 20
31.056624327025901
 30
0.0
 11
278.84166543343821
 21
33.943375672974049
 31
0.0
  0
LINE
  5
105
  8
1
 62
     7
 10
166.25836294146109
 20
33.943375672974049
 30
0.0
 11
163.75836294146109
 21
35.38675134594812
 31
0.0
  0
LINE
  5
106
  8
1
 62
     7
 10
163.75836294146109
 20
35.38675134594812
 30
0.0
 11
161.25836294146109
 21
33.943375672974049
 31
0.0
  0
LINE
  5
107
  8
1
 62
     7
 10
161.25836294146109
 20
33.943375672974049
 30
0.0
 11
161.25836294146109
 21
31.056624327025919
 31
0.0
  0
LINE
  5
108
  8
1
 62
     7
 10
161.25836294146109
 20
31.056624327025919
 30
0.0
 11
163.75836294146109
 21
29.613248654051869
 31
0.0
  0
LINE
  5
109
  8
1
 62
     7
 10
163.75836294146109
 20
29.613248654051869
 30
0.0
 11
166.25836294146109
 21
31.056624327025919
 31
0.0
  0
LINE
  5
10A
  8
1
 62
     7
 10
166.25836294146109
 20
31.056624327025919
 30
0.0
 11
166.25836294146109
 21
33.943375672974049
 31
0.0
  0
LINE
  5
10B
  8
1
 62
     7
 10
222.55001418744959
 20
-63.556624327025958
 30
0.0
 11
220.05001418744959
 21
-62.113248654051887
 31
0.0
  0
LINE
  5
10C
  8
1
 62
     7
 10
220.05001418744959
 20
-62.113248654051887
 30
0.0
 11
217.5500141874497
 21
-63.556624327025958
 31
0.0
  0
LINE
  5
10D
  8
1
 62
     7
 10
217.5500141874497
 20
-63.556624327025958
 30
0.0
 11
217.5500141874497
 21
-66.443375672974085
 31
0.0
  0
LINE
  5
10E
  8
1
 62
     7
 10
217.5500141874497
 20
-66.443375672974085
 30
0.0
 11
220.05001418744959
 21
-67.886751345948156
 31
0.0
  0
LINE
  5
10F
  8
1
 62
     7
 10
220.05001418744959
 20
-67.886751345948156
 30
0.0
 11
222.55001418744959
 21
-66.443375672974085
 31
0.0
  0
LINE
  5
110
  8
1
 62
     7
 10
222.55001418744959
 20
-66.443375672974085
 30
0.0
 11
222.55001418744959
 21
-63.556624327025958
 31
0.0
  0
LINE
  5
111
  8
1
 62
     7
 10
199.0692520739166
 20
17.88675134594811
 30
0.0
 11
194.0692520739166
 21
20.77350269189623
 31
0.0
  0
LINE
  5
112
  8
1
 62
     7
 10
194.0692520739166
 20
20.77350269189623
 30
0.0
 11
189.0692520739166
 21
17.88675134594811
 31
0.0
  0
LINE
  5
113
  8
1
 62
     7
 10
189.0692520739166
 20
17.88675134594811
 30
0.0
 11
189.0692520739166
 21
12.113248654051841
 31
0.0
  0
LINE
  5
114
  8
1
 62
     7
 10
189.0692520739166
 20
12.113248654051841
 30
0.0
 11
194.0692520739166
 21
9.226497308103724
 31
0.0
  0
LINE
  5
115
  8
1
 62
     7
 10
194.0692520739166
 20
9.226497308103724
 30
0.0
 11
199.0692520739166
 21
12.113248654051841
 31
0.0
  0
LINE
  5
116
  8
1
 62
     7
 10
199.0692520739166
 20
12.113248654051841
 30
0.0
 11
199.0692520739166
 21
17.88675134594811
 31
0.0
  0
LINE
  5
117
  8
1
 62
     7
 10
251.03077630098289
 20
17.88675134594811
 30
0.0
 11
246.03077630098281
 21
20.77350269189623
 31
0.0
  0
LINE
  5
118
  8
1
 62
     7
 10
246.03077630098281
 20
20.77350269189623
 30
0.0
 11
241.03077630098289
 21
17.88675134594811
 31
0.0
  0
LINE
  5
119
  8
1
 62
     7
 10
241.03077630098289
 20
17.88675134594811
 30
0.0
 11
241.03077630098289
 21
12.113248654051841
 31
0.0
  0
LINE
  5
11A
  8
1
 62
     7
 10
241.03077630098289
 20
12.113248654051841
 30
0.0
 11
246.03077630098281
 21
9.226497308103724
 31
0.0
  0
LINE
  5
11B
  8
1
 62
     7
 10
246.03077630098281
 20
9.226497308103724
 30
0.0
 11
251.03077630098289
 21
12.113248654051841
 31
0.0
  0
LINE
  5
11C
  8
1
 62
     7
 10
251.03077630098289
 20
12.113248654051841
 30
0.0
 11
251.03077630098289
 21
17.88675134594811
 31
0.0
  0
LINE
  5
11D
  8
1
 62
     7
 10
225.05001418744959
 20
-27.11324865405189
 30
0.0
 11
220.05001418744959
 21
-24.22649730810376
 31
0.0
  0
LINE
  5
11E
  8
1
 62
     7
 10
220.05001418744959
 20
-24.22649730810376
 30
0.0
 11
215.05001418744959
 21
-27.11324865405189
 31
0.0
  0
LINE
  5
11F
  8
1
 62
     7
 10
215.05001418744959
 20
-27.11324865405189
 30
0.0
 11
215.05001418744959
 21
-32.886751345948163
 31
0.0
  0
LINE
  5
120
  8
1
 62
     7
 10
215.05001418744959
 20
-32.886751345948163
 30
0.0
 11
220.05001418744959
 21
-35.773502691896283
 31
0.0
  0
LINE
  5
121
  8
1
 62
     7
 10
220.05001418744959
 20
-35.773502691896283
 30
0.0
 11
225.05001418744959
 21
-32.886751345948163
 31
0.0
  0
LINE
  5
122
  8
1
 62
     7
 10
225.05001418744959
 20
-32.886751345948163
 30
0.0
 11
225.05001418744959
 21
-27.11324865405189
 31
0.0
  0
LINE
  5
123
  8
1
 62
     7
 10
172.41371558452281
 20
85.308489464792444
 30
0.0
 11
173.91371558452281
 21
82.710413253439128
 31
0.0
  0
LINE
  5
124
  8
1
 62
     7
 10
170.68166477695391
 20
84.308489464792416
 30
0.0
 11
172.1816647769538
 21
81.710413253439114
 31
0.0
  0
LINE
  5
125
  8
1
 62
     7
 10
170.50845969619701
 20
84.208489464792422
 30
0.0
 11
172.00845969619701
 21
81.61041325343912
 31
0.0
  0
LINE
  5
126
  8
1
 62
     7
 10
170.33525461544011
 20
84.108489464792427
 30
0.0
 11
171.83525461544011
 21
81.51041325343914
 31
0.0
  0
LINE
  5
127
  8
1
 62
     7
 10
170.16204953468309
 20
84.008489464792433
 30
0.0
 11
171.66204953468309
 21
81.41041325343916
 31
0.0
  0
LINE
  5
128
  8
1
 62
     7
 10
169.98884445392619
 20
83.908489464792424
 30
0.0
 11
171.4888444539263
 21
81.310413253439137
 31
0.0
  0
LINE
  5
129
  8
1
 62
     7
 10
171.7208952614952
 20
84.908489464792439
 30
0.0
 11
173.22089526149509
 21
82.310413253439123
 31
0.0
  0
LINE
  5
12A
  8
1
 62
     7
 10
173.39410034225199
 20
82.41041325343916
 30
0.0
 11
171.89410034225199
 21
85.008489464792419
 31
0.0
  0
LINE
  5
12B
  8
1
 62
     7
 10
172.067305423009
 20
85.108489464792413
 30
0.0
 11
173.56730542300889
 21
82.51041325343914
 31
0.0
  0
LINE
  5
12C
  8
1
 62
     7
 10
173.7405105037659
 20
82.61041325343912
 30
0.0
 11
172.24051050376579
 21
85.208489464792422
 31
0.0
  0
LINE
  5
12D
  8
1
 62
     7
 10
170.9692292116556
 20
81.010413253439125
 30
0.0
 11
174.43333082679331
 21
83.010413253439154
 31
0.0
  0
LINE
  5
12E
  8
1
 62
     7
 10
223.55001418744959
 20
11.47824028324897
 30
0.0
 11
223.55001418744959
 21
14.99999999999998
 31
0.0
  0
LINE
  5
12F
  8
1
 62
     7
 10
223.55001418744959
 20
14.99999999999998
 30
0.0
 11
216.55001418744959
 21
14.99999999999998
 31
0.0
  0
LINE
  5
130
  8
1
 62
     7
 10
216.55001418744959
 20
14.99999999999998
 30
0.0
 11
216.55001418744959
 21
11.47824028324897
 31
0.0
  0
LINE
  5
131
  8
1
 62
     7
 10
222.55001418744959
 20
18.83480820183734
 30
0.0
 11
222.55001418744959
 21
19.499999999999979
 31
0.0
  0
LINE
  5
132
  8
1
 62
     7
 10
222.55001418744959
 20
19.499999999999979
 30
0.0
 11
222.05001418744959
 21
19.999999999999979
 31
0.0
  0
LINE
  5
133
  8
1
 62
     7
 10
222.05001418744959
 20
19.999999999999979
 30
0.0
 11
218.05001418744959
 21
19.999999999999979
 31
0.0
  0
LINE
  5
134
  8
1
 62
     7
 10
218.05001418744959
 20
19.999999999999979
 30
0.0
 11
217.5500141874497
 21
19.499999999999979
 31
0.0
  0
LINE
  5
135
  8
1
 62
     7
 10
217.5500141874497
 20
19.499999999999979
 30
0.0
 11
217.5500141874497
 21
18.83480820183734
 31
0.0
  0
LINE
  5
136
  8
1
 62
     7
 10
217.5500141874497
 20
19.499999999999979
 30
0.0
 11
222.55001418744959
 21
19.499999999999979
 31
0.0
  0
LINE
  5
137
  8
1
  6
DASHED
 62
     7
 10
217.5500141874497
 20
18.83480820183734
 30
0.0
 11
217.5500141874497
 21
15.49999999999998
 31
0.0
  0
LINE
  5
138
  8
1
  6
DASHED
 62
     7
 10
217.5500141874497
 20
15.49999999999998
 30
0.0
 11
218.05001418744959
 21
14.99999999999998
 31
0.0
  0
LINE
  5
139
  8
1
  6
DASHED
 62
     7
 10
222.05001418744959
 20
14.99999999999998
 30
0.0
 11
222.55001418744959
 21
15.49999999999998
 31
0.0
  0
LINE
  5
13A
  8
1
  6
DASHED
 62
     7
 10
222.55001418744959
 20
15.49999999999998
 30
0.0
 11
222.55001418744959
 21
18.83480820183734
 31
0.0
  0
LINE
  5
13B
  8
1
  6
DASHED
 62
     3
 10
222.05001418744959
 20
18.894443627691171
 30
0.0
 11
222.05001418744959
 21
14.99999999999998
 31
0.0
  0
LINE
  5
13C
  8
1
  6
DASHED
 62
     3
 10
218.05001418744959
 20
18.894443627691171
 30
0.0
 11
218.05001418744959
 21
14.99999999999998
 31
0.0
  0
LINE
  5
13D
  8
1
  6
DASHED
 62
     7
 10
217.5500141874497
 20
15.49999999999998
 30
0.0
 11
222.55001418744959
 21
15.49999999999998
 31
0.0
  0
LINE
  5
13E
  8
1
 62
     3
 10
222.05001418744959
 20
18.894443627691171
 30
0.0
 11
222.05001418744959
 21
19.999999999999979
 31
0.0
  0
LINE
  5
13F
  8
1
 62
     3
 10
218.05001418744959
 20
18.894443627691171
 30
0.0
 11
218.05001418744959
 21
19.999999999999979
 31
0.0
  0
LINE
  5
140
  8
1
  6
DASHED
 62
     3
 10
222.55001418744959
 20
15.49999999999998
 30
0.0
 11
222.55001418744959
 21
14.99999999999998
 31
0.0
  0
LINE
  5
141
  8
1
  6
DASHED
 62
     3
 10
217.5500141874497
 20
15.49999999999998
 30
0.0
 11
217.5500141874497
 21
14.99999999999998
 31
0.0
  0
LINE
  5
142
  8
1
  6
DASHED
 62
     7
 10
232.05001418744959
 20
1.9999999999999789
 30
0.0
 11
232.55001418744959
 21
2.4999999999999791
 31
0.0
  0
LINE
  5
143
  8
1
  6
DASHED
 62
     7
 10
232.55001418744959
 20
2.4999999999999791
 30
0.0
 11
236.55001418744959
 21
2.4999999999999791
 31
0.0
  0
LINE
  5
144
  8
1
  6
DASHED
 62
     7
 10
236.55001418744959
 20
2.4999999999999791
 30
0.0
 11
237.05001418744959
 21
1.9999999999999789
 31
0.0
  0
LINE
  5
145
  8
1
  6
DASHED
 62
     7
 10
237.05001418744959
 20
1.9999999999999789
 30
0.0
 11
237.05001418744959
 21
-2.00000000000002
 31
0.0
  0
LINE
  5
146
  8
1
  6
DASHED
 62
     7
 10
237.05001418744959
 20
-2.00000000000002
 30
0.0
 11
236.55001418744959
 21
-2.50000000000002
 31
0.0
  0
LINE
  5
147
  8
1
  6
DASHED
 62
     7
 10
236.55001418744959
 20
-2.50000000000002
 30
0.0
 11
232.55001418744959
 21
-2.50000000000002
 31
0.0
  0
LINE
  5
148
  8
1
  6
DASHED
 62
     7
 10
232.55001418744959
 20
-2.50000000000002
 30
0.0
 11
232.05001418744959
 21
-2.00000000000002
 31
0.0
  0
LINE
  5
149
  8
1
  6
DASHED
 62
     7
 10
232.05001418744959
 20
-2.00000000000002
 30
0.0
 11
232.05001418744959
 21
1.9999999999999789
 31
0.0
  0
LINE
  5
14A
  8
1
  6
DASHED
 62
     7
 10
232.55001418744959
 20
2.4999999999999791
 30
0.0
 11
232.55001418744959
 21
-2.50000000000002
 31
0.0
  0
LINE
  5
14B
  8
1
  6
DASHED
 62
     7
 10
236.55001418744959
 20
2.4999999999999791
 30
0.0
 11
236.55001418744959
 21
-2.50000000000002
 31
0.0
  0
LINE
  5
14C
  8
1
  6
DASHED
 62
     7
 10
237.05001418744959
 20
1.9999999999999789
 30
0.0
 11
238.94445781514091
 21
1.9999999999999789
 31
0.0
  0
LINE
  5
14D
  8
1
  6
DASHED
 62
     7
 10
237.05001418744959
 20
-2.00000000000002
 30
0.0
 11
238.94445781514091
 21
-2.00000000000002
 31
0.0
  0
LINE
  5
14E
  8
1
  6
DASHED
 62
     7
 10
232.05001418744959
 20
-2.00000000000002
 30
0.0
 11
231.88217375364891
 21
-2.00000000000002
 31
0.0
  0
LINE
  5
14F
  8
1
  6
DASHED
 62
     7
 10
232.05001418744959
 20
1.9999999999999789
 30
0.0
 11
231.88217375364891
 21
1.9999999999999789
 31
0.0
  0
LINE
  5
150
  8
1
  6
DASHED
 62
     3
 10
231.78670878175521
 20
2.4999999999999791
 30
0.0
 11
232.55001418744959
 21
2.4999999999999791
 31
0.0
  0
LINE
  5
151
  8
1
  6
DASHED
 62
     3
 10
231.78670878175521
 20
-2.50000000000002
 30
0.0
 11
232.55001418744959
 21
-2.50000000000002
 31
0.0
  0
LINE
  5
152
  8
1
  6
DASHED
 62
     3
 10
232.05001418744959
 20
-2.00000000000002
 30
0.0
 11
237.05001418744959
 21
-2.00000000000002
 31
0.0
  0
LINE
  5
153
  8
1
  6
DASHED
 62
     3
 10
232.05001418744959
 20
1.9999999999999789
 30
0.0
 11
237.05001418744959
 21
1.9999999999999789
 31
0.0
  0
LINE
  5
154
  8
1
  6
DASHED
 62
     3
 10
236.55001418744959
 20
2.4999999999999791
 30
0.0
 11
238.88482238928711
 21
2.4999999999999791
 31
0.0
  0
LINE
  5
155
  8
1
  6
DASHED
 62
     3
 10
236.55001418744959
 20
-2.50000000000002
 30
0.0
 11
238.88482238928711
 21
-2.50000000000002
 31
0.0
  0
LINE
  5
156
  8
1
 62
     7
 10
28.200000000000021
 20
58.000000000000021
 30
0.0
 11
42.5
 21
58.000000000000021
 31
0.0
  0
LINE
  5
157
  8
1
 62
     7
 10
42.5
 20
58.000000000000021
 30
0.0
 11
42.5
 21
71.000000000000028
 31
0.0
  0
LINE
  5
158
  8
1
 62
     7
 10
43.0
 20
71.500000000000028
 30
0.0
 11
49.5
 21
71.500000000000028
 31
0.0
  0
LINE
  5
159
  8
1
 62
     7
 10
50.0
 20
58.000000000000021
 30
0.0
 11
50.0
 21
71.000000000000028
 31
0.0
  0
LINE
  5
15A
  8
1
 62
     7
 10
50.0
 20
58.000000000000021
 30
0.0
 11
70.999999999999972
 21
58.000000000000021
 31
0.0
  0
LINE
  5
15B
  8
1
 62
     7
 10
71.999999999999972
 20
57.000000000000021
 30
0.0
 11
71.999999999999972
 21
-57.000000000000007
 31
0.0
  0
LINE
  5
15C
  8
1
 62
     7
 10
50.0
 20
-58.0
 30
0.0
 11
70.999999999999972
 21
-58.0
 31
0.0
  0
LINE
  5
15D
  8
1
 62
     7
 10
50.0
 20
-58.0
 30
0.0
 11
50.0
 21
-71.000000000000014
 31
0.0
  0
LINE
  5
15E
  8
1
 62
     7
 10
49.5
 20
-71.500000000000014
 30
0.0
 11
43.0
 21
-71.500000000000014
 31
0.0
  0
LINE
  5
15F
  8
1
 62
     7
 10
42.5
 20
-58.0
 30
0.0
 11
42.5
 21
-71.000000000000014
 31
0.0
  0
LINE
  5
160
  8
1
 62
     7
 10
42.5
 20
-58.0
 30
0.0
 11
28.200000000000021
 21
-58.0
 31
0.0
  0
LINE
  5
161
  8
1
 62
     7
 10
28.200000000000021
 20
-58.0
 30
0.0
 11
28.200000000000021
 21
-35.100000000000001
 31
0.0
  0
LINE
  5
162
  8
1
 62
     7
 10
28.200000000000021
 20
21.999999999999979
 30
0.0
 11
71.999999999999972
 21
21.999999999999979
 31
0.0
  0
LINE
  5
163
  8
1
 62
     7
 10
28.200000000000021
 20
-22.000000000000011
 30
0.0
 11
71.999999999999972
 21
-22.000000000000011
 31
0.0
  0
LINE
  5
164
  8
1
 62
     7
 10
28.200000000000021
 20
58.000000000000021
 30
0.0
 11
28.200000000000021
 21
19.999999999999979
 31
0.0
  0
LINE
  5
165
  8
1
 62
     7
 10
28.200000000000021
 20
-24.900000000000009
 30
0.0
 11
28.200000000000021
 21
-19.0
 31
0.0
  0
LINE
  5
166
  8
1
 62
     7
 10
64.19999999999996
 20
-24.900000000000009
 30
0.0
 11
28.200000000000021
 21
-24.900000000000009
 31
0.0
  0
LINE
  5
167
  8
1
 62
     7
 10
64.19999999999996
 20
-35.100000000000001
 30
0.0
 11
28.200000000000021
 21
-35.100000000000001
 31
0.0
  0
LINE
  5
168
  8
1
 62
     7
 10
64.19999999999996
 20
-24.900000000000009
 30
0.0
 11
64.19999999999996
 21
-27.600000000000009
 31
0.0
  0
LINE
  5
169
  8
1
 62
     7
 10
56.0
 20
-35.0
 30
0.0
 11
58.0
 21
-35.0
 31
0.0
  0
LINE
  5
16A
  8
1
 62
     7
 10
58.0
 20
-35.0
 30
0.0
 11
58.0
 21
-25.0
 31
0.0
  0
LINE
  5
16B
  8
1
 62
     7
 10
58.0
 20
-25.0
 30
0.0
 11
56.0
 21
-25.0
 31
0.0
  0
LINE
  5
16C
  8
1
 62
     7
 10
76.999999999999972
 20
-25.6875
 30
0.0
 11
76.999999999999972
 21
-34.3125
 31
0.0
  0
LINE
  5
16D
  8
1
 62
     7
 10
76.509252271188799
 20
-24.25
 30
0.0
 11
71.999999999999972
 21
-24.25
 31
0.0
  0
LINE
  5
16E
  8
1
 62
     7
 10
76.509252271188799
 20
-27.125
 30
0.0
 11
71.999999999999972
 21
-27.125
 31
0.0
  0
LINE
  5
16F
  8
1
 62
     7
 10
76.509252271188799
 20
-32.875
 30
0.0
 11
71.999999999999972
 21
-32.875
 31
0.0
  0
LINE
  5
170
  8
1
 62
     7
 10
76.509252271188799
 20
-35.75
 30
0.0
 11
71.999999999999972
 21
-35.75
 31
0.0
  0
LINE
  5
171
  8
1
 62
     7
 10
76.999999999999972
 20
-27.0
 30
0.0
 11
77.399999999999977
 21
-27.0
 31
0.0
  0
LINE
  5
172
  8
1
 62
     7
 10
77.399999999999977
 20
-27.0
 30
0.0
 11
77.999999999999972
 21
-27.600000000000009
 31
0.0
  0
LINE
  5
173
  8
1
 62
     7
 10
77.999999999999972
 20
-27.600000000000009
 30
0.0
 11
77.999999999999972
 21
-32.400000000000013
 31
0.0
  0
LINE
  5
174
  8
1
 62
     7
 10
77.999999999999972
 20
-32.400000000000013
 30
0.0
 11
77.399999999999977
 21
-33.0
 31
0.0
  0
LINE
  5
175
  8
1
 62
     7
 10
77.399999999999977
 20
-33.0
 30
0.0
 11
76.999999999999972
 21
-33.0
 31
0.0
  0
LINE
  5
176
  8
1
 62
     7
 10
77.399999999999977
 20
-33.0
 30
0.0
 11
77.399999999999977
 21
-27.0
 31
0.0
  0
LINE
  5
177
  8
1
 62
     7
 10
71.999999999999972
 20
-27.0
 30
0.0
 11
58.599999999999902
 21
-27.0
 31
0.0
  0
LINE
  5
178
  8
1
 62
     7
 10
58.599999999999902
 20
-27.0
 30
0.0
 11
58.0
 21
-27.600000000000009
 31
0.0
  0
LINE
  5
179
  8
1
 62
     7
 10
58.0
 20
-32.400000000000013
 30
0.0
 11
58.599999999999902
 21
-33.0
 31
0.0
  0
LINE
  5
17A
  8
1
 62
     7
 10
58.599999999999902
 20
-33.0
 30
0.0
 11
71.999999999999972
 21
-33.0
 31
0.0
  0
LINE
  5
17B
  8
1
 62
     3
 10
58.0
 20
-27.600000000000009
 30
0.0
 11
71.999999999999972
 21
-27.600000000000009
 31
0.0
  0
LINE
  5
17C
  8
1
 62
     3
 10
58.0
 20
-32.400000000000013
 30
0.0
 11
71.999999999999972
 21
-32.400000000000013
 31
0.0
  0
LINE
  5
17D
  8
1
 62
     3
 10
76.999999999999972
 20
-32.400000000000013
 30
0.0
 11
77.999999999999972
 21
-32.400000000000013
 31
0.0
  0
LINE
  5
17E
  8
1
 62
     3
 10
76.999999999999972
 20
-27.600000000000009
 30
0.0
 11
77.999999999999972
 21
-27.600000000000009
 31
0.0
  0
LINE
  5
17F
  8
1
 62
     7
 10
58.599999999999902
 20
-27.0
 30
0.0
 11
58.599999999999902
 21
-33.0
 31
0.0
  0
LINE
  5
180
  8
1
 62
     7
 10
64.19999999999996
 20
-32.400000000000013
 30
0.0
 11
64.19999999999996
 21
-35.100000000000001
 31
0.0
  0
LINE
  5
181
  8
1
 62
     7
 10
8.5
 20
-72.5
 30
0.0
 11
0.5
 21
-72.5
 31
0.0
  0
LINE
  5
182
  8
1
 62
     7
 10
9.0
 20
-19.0
 30
0.0
 11
9.0
 21
-72.0
 31
0.0
  0
LINE
  5
183
  8
1
 62
     7
 10
0.5
 20
72.500000000000028
 30
0.0
 11
8.5
 21
72.500000000000028
 31
0.0
  0
LINE
  5
184
  8
1
 62
     7
 10
0.0
 20
72.000000000000014
 30
0.0
 11
0.0
 21
-62.0
 31
0.0
  0
LINE
  5
185
  8
1
 62
     7
 10
27.200000000000021
 20
-72.5
 30
0.0
 11
18.5
 21
-72.5
 31
0.0
  0
LINE
  5
186
  8
1
 62
     7
 10
18.5
 20
72.500000000000028
 30
0.0
 11
27.200000000000021
 21
72.500000000000028
 31
0.0
  0
LINE
  5
187
  8
1
 62
     7
 10
18.0
 20
71.000000000000028
 30
0.0
 11
18.0
 21
72.000000000000014
 31
0.0
  0
LINE
  5
188
  8
1
 62
     7
 10
9.0
 20
57.500000000000021
 30
0.0
 11
18.0
 21
57.500000000000021
 31
0.0
  0
LINE
  5
189
  8
1
 62
     7
 10
9.0
 20
-57.5
 30
0.0
 11
18.0
 21
-57.5
 31
0.0
  0
LINE
  5
18A
  8
1
 62
     7
 10
0.0
 20
37.499999999999993
 30
0.0
 11
12.0
 21
37.499999999999993
 31
0.0
  0
LINE
  5
18B
  8
1
 62
     7
 10
12.0
 20
-37.5
 30
0.0
 11
0.0
 21
-37.5
 31
0.0
  0
LINE
  5
18C
  8
1
 62
     7
 10
12.0
 20
-37.5
 30
0.0
 11
12.0
 21
-57.5
 31
0.0
  0
LINE
  5
18D
  8
1
 62
     7
 10
15.0
 20
-57.5
 30
0.0
 11
15.0
 21
-37.5
 31
0.0
  0
LINE
  5
18E
  8
1
 62
     7
 10
15.0
 20
-37.5
 30
0.0
 11
18.0
 21
-37.5
 31
0.0
  0
LINE
  5
18F
  8
1
 62
     7
 10
12.0
 20
57.500000000000021
 30
0.0
 11
12.0
 21
37.499999999999993
 31
0.0
  0
LINE
  5
190
  8
1
 62
     7
 10
18.0
 20
37.499999999999993
 30
0.0
 11
15.0
 21
37.499999999999993
 31
0.0
  0
LINE
  5
191
  8
1
 62
     7
 10
15.0
 20
37.499999999999993
 30
0.0
 11
15.0
 21
57.500000000000021
 31
0.0
  0
LINE
  5
192
  8
1
 62
     7
 10
15.75
 20
37.499999999999993
 30
0.0
 11
15.75
 21
20.499999999999979
 31
0.0
  0
LINE
  5
193
  8
1
 62
     7
 10
11.25
 20
37.499999999999993
 30
0.0
 11
11.25
 21
20.499999999999979
 31
0.0
  0
LINE
  5
194
  8
1
 62
     7
 10
16.5
 20
23.499999999999989
 30
0.0
 11
9.5
 21
23.499999999999989
 31
0.0
  0
LINE
  5
195
  8
1
 62
     7
 10
17.0
 20
18.999999999999979
 30
0.0
 11
17.0
 21
22.999999999999979
 31
0.0
  0
LINE
  5
196
  8
1
 62
     7
 10
17.0
 20
18.999999999999979
 30
0.0
 11
27.0
 21
18.999999999999979
 31
0.0
  0
LINE
  5
197
  8
1
 62
     7
 10
39.0
 20
18.499999999999979
 30
0.0
 11
39.0
 21
-18.5
 31
0.0
  0
LINE
  5
198
  8
1
 62
     7
 10
11.25
 20
21.249999999999989
 30
0.0
 11
15.75
 21
21.249999999999989
 31
0.0
  0
LINE
  5
199
  8
1
 62
     7
 10
11.25
 20
-21.25
 30
0.0
 11
15.75
 21
-21.25
 31
0.0
  0
LINE
  5
19A
  8
1
 62
     7
 10
9.0
 20
20.499999999999979
 30
0.0
 11
17.0
 21
20.499999999999979
 31
0.0
  0
LINE
  5
19B
  8
1
 62
     7
 10
11.25
 20
24.249999999999979
 30
0.0
 11
15.75
 21
24.249999999999979
 31
0.0
  0
LINE
  5
19C
  8
1
 62
     7
 10
11.25
 20
-24.25
 30
0.0
 11
15.75
 21
-24.25
 31
0.0
  0
LINE
  5
19D
  8
1
 62
     7
 10
15.75
 20
-20.5
 30
0.0
 11
15.75
 21
-37.5
 31
0.0
  0
LINE
  5
19E
  8
1
 62
     7
 10
11.25
 20
-20.5
 30
0.0
 11
11.25
 21
-37.5
 31
0.0
  0
LINE
  5
19F
  8
1
 62
     7
 10
37.5
 20
60.687500000000021
 30
0.0
 11
37.5
 21
69.312500000000028
 31
0.0
  0
LINE
  5
1A0
  8
1
 62
     7
 10
37.990747728811201
 20
59.250000000000021
 30
0.0
 11
42.5
 21
59.250000000000021
 31
0.0
  0
LINE
  5
1A1
  8
1
 62
     7
 10
37.990747728811201
 20
62.125000000000021
 30
0.0
 11
42.5
 21
62.125000000000021
 31
0.0
  0
LINE
  5
1A2
  8
1
 62
     7
 10
37.990747728811201
 20
67.875000000000028
 30
0.0
 11
42.5
 21
67.875000000000028
 31
0.0
  0
LINE
  5
1A3
  8
1
 62
     7
 10
37.990747728811201
 20
70.750000000000014
 30
0.0
 11
42.5
 21
70.750000000000014
 31
0.0
  0
LINE
  5
1A4
  8
1
 62
     7
 10
34.0
 20
69.312500000000028
 30
0.0
 11
34.0
 21
60.687500000000021
 31
0.0
  0
LINE
  5
1A5
  8
1
 62
     7
 10
33.509252271188799
 20
70.750000000000014
 30
0.0
 11
29.0
 21
70.750000000000014
 31
0.0
  0
LINE
  5
1A6
  8
1
 62
     7
 10
33.509252271188799
 20
67.875000000000028
 30
0.0
 11
29.0
 21
67.875000000000028
 31
0.0
  0
LINE
  5
1A7
  8
1
 62
     7
 10
33.509252271188799
 20
62.125000000000021
 30
0.0
 11
29.0
 21
62.125000000000021
 31
0.0
  0
LINE
  5
1A8
  8
1
 62
     7
 10
33.509252271188799
 20
59.250000000000021
 30
0.0
 11
29.0
 21
59.250000000000021
 31
0.0
  0
LINE
  5
1A9
  8
1
 62
     7
 10
9.0
 20
71.000000000000028
 30
0.0
 11
29.0
 21
71.000000000000028
 31
0.0
  0
LINE
  5
1AA
  8
1
 62
     7
 10
9.0
 20
59.000000000000021
 30
0.0
 11
29.0
 21
59.000000000000021
 31
0.0
  0
LINE
  5
1AB
  8
1
 62
     7
 10
29.0
 20
71.000000000000028
 30
0.0
 11
29.0
 21
59.000000000000021
 31
0.0
  0
LINE
  5
1AC
  8
1
 62
     7
 10
27.700000000000021
 20
71.000000000000028
 30
0.0
 11
27.700000000000021
 21
72.000000000000014
 31
0.0
  0
LINE
  5
1AD
  8
1
 62
     7
 10
18.0
 20
59.000000000000021
 30
0.0
 11
18.0
 21
18.999999999999979
 31
0.0
  0
LINE
  5
1AE
  8
1
 62
     7
 10
18.0
 20
58.500000000000021
 30
0.0
 11
27.700000000000021
 21
58.500000000000021
 31
0.0
  0
LINE
  5
1AF
  8
1
 62
     7
 10
34.0
 20
68.000000000000028
 30
0.0
 11
37.5
 21
68.000000000000028
 31
0.0
  0
LINE
  5
1B0
  8
1
 62
     7
 10
34.0
 20
62.000000000000021
 30
0.0
 11
37.5
 21
62.000000000000021
 31
0.0
  0
LINE
  5
1B1
  8
1
 62
     7
 10
55.299999999999997
 20
68.000000000000028
 30
0.0
 11
58.400000000000013
 21
68.000000000000028
 31
0.0
  0
LINE
  5
1B2
  8
1
 62
     7
 10
58.400000000000013
 20
68.000000000000028
 30
0.0
 11
59.0
 21
67.400000000000034
 31
0.0
  0
LINE
  5
1B3
  8
1
 62
     7
 10
59.0
 20
67.400000000000034
 30
0.0
 11
59.0
 21
62.60000000000003
 31
0.0
  0
LINE
  5
1B4
  8
1
 62
     7
 10
59.0
 20
62.60000000000003
 30
0.0
 11
58.400000000000013
 21
62.000000000000021
 31
0.0
  0
LINE
  5
1B5
  8
1
 62
     7
 10
58.400000000000013
 20
62.000000000000021
 30
0.0
 11
55.299999999999997
 21
62.000000000000021
 31
0.0
  0
LINE
  5
1B6
  8
1
 62
     7
 10
58.400000000000013
 20
68.000000000000028
 30
0.0
 11
58.400000000000013
 21
62.000000000000021
 31
0.0
  0
LINE
  5
1B7
  8
1
 62
     3
 10
34.0
 20
67.400000000000034
 30
0.0
 11
37.5
 21
67.400000000000034
 31
0.0
  0
LINE
  5
1B8
  8
1
 62
     3
 10
34.0
 20
62.60000000000003
 30
0.0
 11
37.5
 21
62.60000000000003
 31
0.0
  0
LINE
  5
1B9
  8
1
 62
     3
 10
55.299999999999997
 20
67.400000000000034
 30
0.0
 11
59.0
 21
67.400000000000034
 31
0.0
  0
LINE
  5
1BA
  8
1
 62
     3
 10
55.299999999999997
 20
62.60000000000003
 30
0.0
 11
59.0
 21
62.60000000000003
 31
0.0
  0
LINE
  5
1BB
  8
1
 62
     7
 10
9.0
 20
12.0
 30
0.0
 11
39.0
 21
12.0
 31
0.0
  0
LINE
  5
1BC
  8
1
 62
     7
 10
9.0
 20
14.99999999999998
 30
0.0
 11
39.0
 21
14.99999999999998
 31
0.0
  0
LINE
  5
1BD
  8
1
 62
     7
 10
9.0
 20
-65.0
 30
0.0
 11
10.5
 21
-63.5
 31
0.0
  0
LINE
  5
1BE
  8
1
 62
     7
 10
9.0
 20
-66.5
 30
0.0
 11
10.5
 21
-65.0
 31
0.0
  0
LINE
  5
1BF
  8
1
 62
     7
 10
9.0
 20
-58.900000000000013
 30
0.0
 11
10.5
 21
-58.900000000000013
 31
0.0
  0
LINE
  5
1C0
  8
1
 62
     7
 10
10.5
 20
-58.900000000000013
 30
0.0
 11
10.5
 21
-71.100000000000023
 31
0.0
  0
LINE
  5
1C1
  8
1
 62
     7
 10
10.5
 20
-71.100000000000023
 30
0.0
 11
9.0
 21
-71.100000000000023
 31
0.0
  0
LINE
  5
1C2
  8
1
 62
     7
 10
10.5
 20
-60.0
 30
0.0
 11
16.099999999999991
 21
-60.0
 31
0.0
  0
LINE
  5
1C3
  8
1
 62
     7
 10
16.099999999999991
 20
-60.0
 30
0.0
 11
16.5
 21
-60.692820323027547
 31
0.0
  0
LINE
  5
1C4
  8
1
 62
     7
 10
16.5
 20
-60.692820323027547
 30
0.0
 11
16.5
 21
-69.307179676972453
 31
0.0
  0
LINE
  5
1C5
  8
1
 62
     7
 10
16.5
 20
-69.307179676972453
 30
0.0
 11
16.099999999999991
 21
-70.0
 31
0.0
  0
LINE
  5
1C6
  8
1
 62
     7
 10
16.099999999999991
 20
-70.0
 30
0.0
 11
10.5
 21
-70.0
 31
0.0
  0
LINE
  5
1C7
  8
1
 62
     7
 10
16.099999999999991
 20
-60.0
 30
0.0
 11
16.099999999999991
 21
-70.0
 31
0.0
  0
LINE
  5
1C8
  8
1
 62
     7
 10
-8.9000000000000057
 20
-62.0
 30
0.0
 11
-9.5
 21
-62.600000000000001
 31
0.0
  0
LINE
  5
1C9
  8
1
 62
     7
 10
-9.5
 20
-62.600000000000001
 30
0.0
 11
-9.5
 21
-67.400000000000006
 31
0.0
  0
LINE
  5
1CA
  8
1
 62
     7
 10
-9.5
 20
-67.400000000000006
 30
0.0
 11
-8.9000000000000057
 21
-68.0
 31
0.0
  0
LINE
  5
1CB
  8
1
 62
     7
 10
-8.9000000000000057
 20
-68.0
 30
0.0
 11
9.0
 21
-68.0
 31
0.0
  0
LINE
  5
1CC
  8
1
 62
     7
 10
-8.9000000000000057
 20
-62.0
 30
0.0
 11
-8.9000000000000057
 21
-68.0
 31
0.0
  0
LINE
  5
1CD
  8
1
 62
     3
 10
-9.5
 20
-62.600000000000001
 30
0.0
 11
8.5
 21
-62.600000000000001
 31
0.0
  0
LINE
  5
1CE
  8
1
 62
     3
 10
8.5
 20
-62.600000000000001
 30
0.0
 11
9.0
 21
-62.311324865405197
 31
0.0
  0
LINE
  5
1CF
  8
1
 62
     3
 10
-9.5
 20
-67.400000000000006
 30
0.0
 11
8.5
 21
-67.400000000000006
 31
0.0
  0
LINE
  5
1D0
  8
1
 62
     3
 10
8.5
 20
-67.400000000000006
 30
0.0
 11
9.0
 21
-67.688675134594831
 31
0.0
  0
LINE
  5
1D1
  8
1
 62
     3
 10
8.5
 20
-62.0
 30
0.0
 11
8.5
 21
-68.0
 31
0.0
  0
LINE
  5
1D2
  8
1
 62
     7
 10
9.0
 20
-62.0
 30
0.0
 11
-8.9000000000000057
 21
-62.0
 31
0.0
  0
LINE
  5
1D3
  8
1
 62
     7
 10
0.0
 20
-68.0
 30
0.0
 11
0.0
 21
-72.0
 31
0.0
  0
LINE
  5
1D4
  8
1
 62
     7
 10
0.0
 20
-61.5
 30
0.0
 11
9.0
 21
-61.5
 31
0.0
  0
LINE
  5
1D5
  8
1
 62
     7
 10
0.0
 20
-68.5
 30
0.0
 11
9.0
 21
-68.5
 31
0.0
  0
LINE
  5
1D6
  8
1
  6
DASHDOT
 62
     3
 10
-12.195449945767001
 20
-65.0
 30
0.0
 11
19.35953440710249
 21
-65.0
 31
0.0
  0
LINE
  5
1D7
  8
1
 62
     7
 10
9.0
 20
72.000000000000014
 30
0.0
 11
9.0
 21
-62.600000000000001
 31
0.0
  0
LINE
  5
1D8
  8
1
 62
     7
 10
39.0
 20
18.499999999999979
 30
0.0
 11
38.5
 21
18.999999999999979
 31
0.0
  0
LINE
  5
1D9
  8
1
 62
     7
 10
17.0
 20
22.999999999999979
 30
0.0
 11
16.5
 21
23.499999999999989
 31
0.0
  0
LINE
  5
1DA
  8
1
 62
     7
 10
9.5
 20
23.499999999999989
 30
0.0
 11
9.0
 21
22.999999999999979
 31
0.0
  0
LINE
  5
1DB
  8
1
 62
     7
 10
71.999999999999972
 20
57.000000000000021
 30
0.0
 11
70.999999999999972
 21
58.000000000000021
 31
0.0
  0
LINE
  5
1DC
  8
1
 62
     7
 10
70.999999999999972
 20
-58.0
 30
0.0
 11
71.999999999999972
 21
-57.000000000000007
 31
0.0
  0
LINE
  5
1DD
  8
1
 62
     7
 10
49.5
 20
-71.500000000000014
 30
0.0
 11
50.0
 21
-71.000000000000014
 31
0.0
  0
LINE
  5
1DE
  8
1
 62
     7
 10
42.5
 20
-71.000000000000014
 30
0.0
 11
43.0
 21
-71.500000000000014
 31
0.0
  0
LINE
  5
1DF
  8
1
 62
     7
 10
27.700000000000021
 20
-72.0
 30
0.0
 11
27.200000000000021
 21
-72.5
 31
0.0
  0
LINE
  5
1E0
  8
1
 62
     7
 10
18.0
 20
-72.0
 30
0.0
 11
18.5
 21
-72.5
 31
0.0
  0
LINE
  5
1E1
  8
1
 62
     7
 10
9.0
 20
-72.0
 30
0.0
 11
8.5
 21
-72.5
 31
0.0
  0
LINE
  5
1E2
  8
1
 62
     7
 10
0.0
 20
-72.0
 30
0.0
 11
0.5
 21
-72.5
 31
0.0
  0
LINE
  5
1E3
  8
1
 62
     7
 10
0.0
 20
72.000000000000014
 30
0.0
 11
0.5
 21
72.500000000000028
 31
0.0
  0
LINE
  5
1E4
  8
1
 62
     7
 10
9.0
 20
72.000000000000014
 30
0.0
 11
8.5
 21
72.500000000000028
 31
0.0
  0
LINE
  5
1E5
  8
1
 62
     7
 10
18.0
 20
72.000000000000014
 30
0.0
 11
18.5
 21
72.500000000000028
 31
0.0
  0
LINE
  5
1E6
  8
1
 62
     7
 10
27.700000000000021
 20
72.000000000000014
 30
0.0
 11
27.200000000000021
 21
72.500000000000028
 31
0.0
  0
LINE
  5
1E7
  8
1
 62
     7
 10
43.0
 20
71.500000000000028
 30
0.0
 11
42.5
 21
71.000000000000028
 31
0.0
  0
LINE
  5
1E8
  8
1
 62
     7
 10
50.0
 20
71.000000000000028
 30
0.0
 11
49.5
 21
71.500000000000028
 31
0.0
  0
LINE
  5
1E9
  8
1
 62
     7
 10
42.5
 20
-58.500000000000021
 30
0.0
 11
50.0
 21
-58.500000000000021
 31
0.0
  0
LINE
  5
1EA
  8
1
 62
     7
 10
27.0
 20
19.999999999999979
 30
0.0
 11
31.0
 21
19.999999999999979
 31
0.0
  0
LINE
  5
1EB
  8
1
 62
     7
 10
31.5
 20
19.499999999999979
 30
0.0
 11
31.0
 21
19.999999999999979
 31
0.0
  0
LINE
  5
1EC
  8
1
 62
     7
 10
31.5
 20
19.499999999999979
 30
0.0
 11
31.5
 21
15.49999999999998
 31
0.0
  0
LINE
  5
1ED
  8
1
 62
     7
 10
31.5
 20
15.49999999999998
 30
0.0
 11
31.0
 21
14.99999999999998
 31
0.0
  0
LINE
  5
1EE
  8
1
 62
     7
 10
27.0
 20
14.99999999999998
 30
0.0
 11
26.5
 21
15.49999999999998
 31
0.0
  0
LINE
  5
1EF
  8
1
 62
     7
 10
26.5
 20
15.49999999999998
 30
0.0
 11
26.5
 21
19.499999999999979
 31
0.0
  0
LINE
  5
1F0
  8
1
 62
     7
 10
26.5
 20
19.499999999999979
 30
0.0
 11
27.0
 21
19.999999999999979
 31
0.0
  0
LINE
  5
1F1
  8
1
 62
     7
 10
26.5
 20
19.499999999999979
 30
0.0
 11
31.5
 21
19.499999999999979
 31
0.0
  0
LINE
  5
1F2
  8
1
 62
     7
 10
26.5
 20
15.49999999999998
 30
0.0
 11
31.5
 21
15.49999999999998
 31
0.0
  0
LINE
  5
1F3
  8
1
 62
     3
 10
31.0
 20
19.999999999999979
 30
0.0
 11
31.0
 21
14.99999999999998
 31
0.0
  0
LINE
  5
1F4
  8
1
 62
     3
 10
27.0
 20
14.99999999999998
 30
0.0
 11
27.0
 21
19.999999999999979
 31
0.0
  0
LINE
  5
1F5
  8
1
 62
     3
 10
26.5
 20
15.49999999999998
 30
0.0
 11
26.5
 21
14.99999999999998
 31
0.0
  0
LINE
  5
1F6
  8
1
 62
     3
 10
31.5
 20
15.49999999999998
 30
0.0
 11
31.5
 21
14.99999999999998
 31
0.0
  0
LINE
  5
1F7
  8
1
  6
DASHDOT
 62
     3
 10
29.0
 20
21.24601920282057
 30
0.0
 11
29.0
 21
13.167963175324729
 31
0.0
  0
LINE
  5
1F8
  8
1
 62
     7
 10
56.900000000000013
 20
85.01041325343914
 30
0.0
 11
56.900000000000013
 21
82.010413253439125
 31
0.0
  0
LINE
  5
1F9
  8
1
 62
     7
 10
56.700000000000003
 20
82.010413253439125
 30
0.0
 11
56.700000000000003
 21
85.01041325343914
 31
0.0
  0
LINE
  5
1FA
  8
1
 62
     7
 10
56.5
 20
85.01041325343914
 30
0.0
 11
56.5
 21
82.010413253439125
 31
0.0
  0
LINE
  5
1FB
  8
1
 62
     7
 10
56.29999999999999
 20
82.010413253439125
 30
0.0
 11
56.29999999999999
 21
85.01041325343914
 31
0.0
  0
LINE
  5
1FC
  8
1
 62
     7
 10
56.100000000000009
 20
85.01041325343914
 30
0.0
 11
56.100000000000009
 21
82.010413253439125
 31
0.0
  0
LINE
  5
1FD
  8
1
 62
     7
 10
55.5
 20
82.010413253439125
 30
0.0
 11
57.5
 21
82.010413253439125
 31
0.0
  0
ARC
  5
1FE
  8
1
 62
     7
 10
-98.300738931510224
 20
60.687500000000028
 30
0.0
 40
2.350738931510262
 50
322.30124515331931
 51
37.698754846680671
  0
ARC
  5
1FF
  8
1
 62
     7
 10
-104.6168341328242
 20
65.000000000000028
 30
0.0
 40
8.6668341328243166
 50
340.62652945767752
 51
19.373470542322501
  0
ARC
  5
200
  8
1
 62
     7
 10
-98.300738931510224
 20
69.312500000000028
 30
0.0
 40
2.350738931510262
 50
322.30124515331931
 51
37.698754846680671
  0
ARC
  5
201
  8
1
 62
     7
 10
51.699261068489761
 20
60.687500000000028
 30
0.0
 40
2.3507389315102341
 50
322.30124515331869
 51
37.698754846681197
  0
ARC
  5
202
  8
1
 62
     7
 10
45.383165867175819
 20
65.000000000000028
 30
0.0
 40
8.6668341328241638
 50
340.62652945767718
 51
19.37347054232286
  0
ARC
  5
203
  8
1
 62
     7
 10
51.699261068489761
 20
69.312500000000028
 30
0.0
 40
2.3507389315102341
 50
322.30124515331869
 51
37.698754846681197
  0
ARC
  5
204
  8
1
  6
DASHDOT
 62
     3
 10
220.05001418744959
 20
-0.0000000000000213
 30
0.0
 40
65.000000000000014
 50
262.81045844865292
 51
276.75846716904221
  0
ARC
  5
205
  8
1
  6
DASHDOT
 62
     3
 10
220.05001418744959
 20
-0.0000000000000213
 30
0.0
 40
65.000000000000043
 50
22.862054292434099
 51
36.815194310103358
  0
ARC
  5
206
  8
1
  6
DASHDOT
 62
     3
 10
220.05001418744959
 20
-0.0000000000000213
 30
0.0
 40
65.0
 50
143.34005165897861
 51
156.68549373631441
  0
ARC
  5
207
  8
1
 62
     7
 10
-75.350738931510193
 20
-25.6875
 30
0.0
 40
2.350738931510195
 50
322.30124515331812
 51
37.698754846681929
  0
ARC
  5
208
  8
1
 62
     7
 10
-81.666834132824107
 20
-30.0
 30
0.0
 40
8.6668341328241034
 50
340.6265294576769
 51
19.373470542322998
  0
ARC
  5
209
  8
1
 62
     7
 10
-75.350738931510193
 20
-34.3125
 30
0.0
 40
2.350738931510195
 50
322.30124515331812
 51
37.698754846681929
  0
ARC
  5
20A
  8
1
 62
     7
 10
-110.14926106848969
 20
60.687500000000021
 30
0.0
 40
2.3507389315101852
 50
142.30124515331781
 51
217.69875484668211
  0
ARC
  5
20B
  8
1
 62
     7
 10
-103.83316586717589
 20
65.000000000000028
 30
0.0
 40
8.6668341328239826
 50
160.6265294576767
 51
199.37347054232319
  0
ARC
  5
20C
  8
1
 62
     7
 10
-110.14926106848969
 20
69.312500000000028
 30
0.0
 40
2.3507389315101852
 50
142.30124515331781
 51
217.69875484668211
  0
ARC
  5
20D
  8
1
 62
     7
 10
-118.35073893151019
 20
69.312500000000028
 30
0.0
 40
2.3507389315101852
 50
322.30124515331772
 51
37.698754846682149
  0
ARC
  5
20E
  8
1
 62
     7
 10
-124.66683413282399
 20
65.000000000000028
 30
0.0
 40
8.6668341328240928
 50
340.6265294576769
 51
19.37347054232303
  0
ARC
  5
20F
  8
1
 62
     7
 10
-118.35073893151019
 20
60.687500000000021
 30
0.0
 40
2.3507389315101852
 50
322.30124515331772
 51
37.698754846682149
  0
ARC
  5
210
  8
1
 62
     7
 10
27.700000000000021
 20
-26.149999999999999
 30
0.0
 40
0.9000000000000021
 50
270.0
 51
90.0
  0
ARC
  5
211
  8
1
 62
     7
 10
27.25
 20
-33.850000000000001
 30
0.0
 40
0.900000000000025
 50
300.00000000000063
 51
59.999999999998593
  0
ARC
  5
212
  8
1
 62
     7
 10
56.450000000000003
 20
-26.149999999999999
 30
0.0
 40
0.8999999999999946
 50
120.0000000000003
 51
239.9999999999938
  0
ARC
  5
213
  8
1
 62
     7
 10
56.0
 20
-33.850000000000001
 30
0.0
 40
0.8999999999999843
 50
90.0
 51
270.0
  0
ARC
  5
214
  8
1
 62
     7
 10
29.0
 20
0.0
 30
0.0
 40
2.5
 50
180.0
 51
0.0
  0
ARC
  5
215
  8
1
 62
     3
 10
29.0
 20
0.0
 30
0.0
 40
2.0
 50
180.0
 51
0.0
  0
ARC
  5
216
  8
1
 62
     7
 10
220.05001418744959
 20
-68.500000000000028
 30
0.0
 40
10.0
 50
0.0
 51
180.0
  0
ARC
  5
217
  8
1
 62
     7
 10
279.37275434668368
 20
34.249999999999957
 30
0.0
 40
10.0
 50
119.9999999999999
 51
299.99999999999937
  0
ARC
  5
218
  8
1
 62
     7
 10
160.7272740282157
 20
34.25
 30
0.0
 40
10.0
 50
239.99999999999989
 51
60.0
  0
ARC
  5
219
  8
1
 62
     7
 10
220.05001418744959
 20
-0.0000000000000213
 30
0.0
 40
71.499999999999986
 50
278.03975322749142
 51
21.960246772508469
  0
ARC
  5
21A
  8
1
 62
     7
 10
220.05001418744959
 20
-0.0000000000000213
 30
0.0
 40
71.499999999999943
 50
121.6028882193766
 51
141.96024677250841
  0
ARC
  5
21B
  8
1
 62
     7
 10
220.05001418744959
 20
-0.0000000000000213
 30
0.0
 40
71.500000000000014
 50
158.0397532274915
 51
261.96024677250853
  0
ARC
  5
21C
  8
1
 62
     7
 10
220.05001418744959
 20
-0.0000000000000213
 30
0.0
 40
71.499999999999986
 50
38.039753227491531
 51
118.39711178062321
  0
ARC
  5
21D
  8
1
 62
     7
 10
220.05001418744959
 20
-0.0000000000000213
 30
0.0
 40
72.499999999999915
 50
121.5807737656865
 51
118.4192262343134
  0
ARC
  5
21E
  8
1
 62
     7
 10
220.05001418744959
 20
-0.0000000000000213
 30
0.0
 40
12.000000000000011
 50
106.9577633000041
 51
73.042236699995854
  0
ARC
  5
21F
  8
1
 62
     7
 10
74.649261068489764
 20
-25.6875
 30
0.0
 40
2.3507389315102061
 50
322.30124515331812
 51
37.698754846681709
  0
ARC
  5
220
  8
1
 62
     7
 10
68.333165867175921
 20
-30.0
 30
0.0
 40
8.6668341328240501
 50
340.6265294576769
 51
19.373470542323119
  0
ARC
  5
221
  8
1
 62
     7
 10
74.649261068489764
 20
-34.3125
 30
0.0
 40
2.3507389315102061
 50
322.30124515331812
 51
37.698754846681709
  0
ARC
  5
222
  8
1
 62
     7
 10
39.850738931510207
 20
60.687500000000021
 30
0.0
 40
2.350738931510195
 50
142.30124515331809
 51
217.69875484668179
  0
ARC
  5
223
  8
1
 62
     7
 10
46.166834132824007
 20
65.000000000000028
 30
0.0
 40
8.6668341328239951
 50
160.62652945767681
 51
199.37347054232319
  0
ARC
  5
224
  8
1
 62
     7
 10
39.850738931510207
 20
69.312500000000028
 30
0.0
 40
2.350738931510195
 50
142.30124515331809
 51
217.69875484668179
  0
ARC
  5
225
  8
1
 62
     7
 10
31.64926106848981
 20
69.312500000000028
 30
0.0
 40
2.3507389315101812
 50
322.30124515331772
 51
37.69875484668222
  0
ARC
  5
226
  8
1
 62
     7
 10
25.333165867175889
 20
65.000000000000028
 30
0.0
 40
8.6668341328240963
 50
340.6265294576769
 51
19.37347054232302
  0
ARC
  5
227
  8
1
 62
     7
 10
31.64926106848981
 20
60.687500000000021
 30
0.0
 40
2.3507389315101812
 50
322.30124515331772
 51
37.69875484668222
  0
ARC
  5
228
  8
1
 62
     7
 10
29.0
 20
0.0
 30
0.0
 40
2.5
 50
0.0
 51
180.0
  0
ARC
  5
229
  8
1
 62
     3
 10
29.0
 20
0.0
 30
0.0
 40
2.0
 50
0.0
 51
180.0
  0
CIRCLE
  5
22A
  8
1
 62
     7
 10
30.7566666666666
 20
-26.149999999999999
 30
0.0
 40
0.8999999999999985
  0
CIRCLE
  5
22B
  8
1
 62
     7
 10
29.050000000000011
 20
-33.850000000000001
 30
0.0
 40
0.9000000000001193
  0
CIRCLE
  5
22C
  8
1
 62
     7
 10
34.170000000000002
 20
-26.149999999999999
 30
0.0
 40
0.8999999999999985
  0
CIRCLE
  5
22D
  8
1
 62
     7
 10
32.46333333333331
 20
-33.850000000000001
 30
0.0
 40
0.9000000000000127
  0
CIRCLE
  5
22E
  8
1
 62
     7
 10
37.5833333333333
 20
-26.149999999999999
 30
0.0
 40
0.8999999999999914
  0
CIRCLE
  5
22F
  8
1
 62
     7
 10
35.876666666666608
 20
-33.850000000000001
 30
0.0
 40
0.8999999999999985
  0
CIRCLE
  5
230
  8
1
 62
     7
 10
40.996666666666599
 20
-26.149999999999999
 30
0.0
 40
0.8999999999999914
  0
CIRCLE
  5
231
  8
1
 62
     7
 10
39.289999999999999
 20
-33.850000000000001
 30
0.0
 40
0.9000000000000198
  0
CIRCLE
  5
232
  8
1
 62
     7
 10
44.409999999999989
 20
-26.149999999999999
 30
0.0
 40
0.9000000000000838
  0
CIRCLE
  5
233
  8
1
 62
     7
 10
42.703333333333291
 20
-33.850000000000001
 30
0.0
 40
0.9000000000000056
  0
CIRCLE
  5
234
  8
1
 62
     7
 10
47.823333333333309
 20
-26.149999999999999
 30
0.0
 40
0.9000000000000127
  0
CIRCLE
  5
235
  8
1
 62
     7
 10
46.116666666666603
 20
-33.850000000000001
 30
0.0
 40
0.9000000000000056
  0
CIRCLE
  5
236
  8
1
 62
     7
 10
51.236666666666608
 20
-26.149999999999999
 30
0.0
 40
0.9000000000000056
  0
CIRCLE
  5
237
  8
1
 62
     7
 10
49.530000000000001
 20
-33.850000000000001
 30
0.0
 40
0.900000000000091
  0
CIRCLE
  5
238
  8
1
 62
     7
 10
54.650000000000013
 20
-26.149999999999999
 30
0.0
 40
0.9000000000000198
  0
CIRCLE
  5
239
  8
1
 62
     7
 10
52.9433333333333
 20
-33.850000000000001
 30
0.0
 40
0.8999999999999914
  0
CIRCLE
  5
23A
  8
1
 62
     7
 10
220.05001418744959
 20
-0.0000000000000213
 30
0.0
 40
57.999999999999972
  0
CIRCLE
  5
23B
  8
1
 62
     7
 10
220.05001418744959
 20
-0.0000000000000213
 30
0.0
 40
22.0
  0
CIRCLE
  5
23C
  8
1
 62
     7
 10
220.05001418744959
 20
-0.0000000000000213
 30
0.0
 40
19.0
  0
CIRCLE
  5
23D
  8
1
 62
     7
 10
276.34166543343821
 20
-32.5
 30
0.0
 40
5.0
  0
CIRCLE
  5
23E
  8
1
 62
     7
 10
276.34166543343821
 20
-32.5
 30
0.0
 40
3.0
  0
CIRCLE
  5
23F
  8
1
 62
     3
 10
276.34166543343821
 20
-32.5
 30
0.0
 40
2.4000000000000901
  0
CIRCLE
  5
240
  8
1
 62
     7
 10
163.75836294146109
 20
-32.5
 30
0.0
 40
5.0
  0
CIRCLE
  5
241
  8
1
 62
     7
 10
163.75836294146109
 20
-32.5
 30
0.0
 40
3.0
  0
CIRCLE
  5
242
  8
1
 62
     3
 10
163.75836294146109
 20
-32.5
 30
0.0
 40
2.4000000000000061
  0
CIRCLE
  5
243
  8
1
 62
     7
 10
220.05001418744959
 20
65.000000000000028
 30
0.0
 40
5.0
  0
CIRCLE
  5
244
  8
1
 62
     7
 10
220.05001418744959
 20
65.000000000000028
 30
0.0
 40
3.0
  0
CIRCLE
  5
245
  8
1
 62
     3
 10
220.05001418744959
 20
65.000000000000028
 30
0.0
 40
2.4000000000000061
  0
CIRCLE
  5
246
  8
1
 62
     7
 10
276.34166543343821
 20
32.499999999999979
 30
0.0
 40
5.0
  0
CIRCLE
  5
247
  8
1
 62
     7
 10
163.75836294146109
 20
32.499999999999993
 30
0.0
 40
5.0
  0
CIRCLE
  5
248
  8
1
 62
     7
 10
220.05001418744959
 20
-65.000000000000028
 30
0.0
 40
5.0
  0
CIRCLE
  5
249
  8
1
 62
     7
 10
194.0692520739166
 20
14.99999999999998
 30
0.0
 40
5.0
  0
CIRCLE
  5
24A
  8
1
 62
     7
 10
194.0692520739166
 20
14.99999999999998
 30
0.0
 40
3.0
  0
CIRCLE
  5
24B
  8
1
 62
     3
 10
194.0692520739166
 20
14.99999999999998
 30
0.0
 40
2.4000000000000061
  0
CIRCLE
  5
24C
  8
1
 62
     7
 10
246.03077630098281
 20
14.99999999999998
 30
0.0
 40
5.0
  0
CIRCLE
  5
24D
  8
1
 62
     7
 10
246.03077630098281
 20
14.99999999999998
 30
0.0
 40
3.0
  0
CIRCLE
  5
24E
  8
1
 62
     3
 10
246.03077630098281
 20
14.99999999999998
 30
0.0
 40
2.4000000000000061
  0
CIRCLE
  5
24F
  8
1
 62
     7
 10
220.05001418744959
 20
-30.000000000000011
 30
0.0
 40
5.0
  0
CIRCLE
  5
250
  8
1
 62
     7
 10
220.05001418744959
 20
-30.000000000000011
 30
0.0
 40
3.0
  0
CIRCLE
  5
251
  8
1
 62
     3
 10
220.05001418744959
 20
-30.000000000000011
 30
0.0
 40
2.4000000000000061
  0
CIRCLE
  5
252
  8
1
 62
     7
 10
285.05001418744962
 20
-0.0000000000000213
 30
0.0
 40
3.7500000000001128
  0
CIRCLE
  5
253
  8
1
 62
     7
 10
285.05001418744962
 20
-0.0000000000000213
 30
0.0
 40
2.4000000000000341
  0
CIRCLE
  5
254
  8
1
 62
     3
 10
285.05001418744962
 20
-0.0000000000000213
 30
0.0
 40
3.0
  0
CIRCLE
  5
255
  8
1
 62
     3
 10
155.05001418744959
 20
-0.0000000000000142
 30
0.0
 40
3.0
  0
CIRCLE
  5
256
  8
1
 62
     7
 10
155.05001418744959
 20
-0.0000000000000142
 30
0.0
 40
2.4000000000000061
  0
CIRCLE
  5
257
  8
1
 62
     7
 10
155.05001418744959
 20
-0.0000000000000142
 30
0.0
 40
3.75
  0
ARC
  5
258
  8
1
 62
     7
 10
-95.949999999999974
 20
61.937500000000028
 30
0.0
 40
1.25
 50
270.0
 51
0.0
  0
ARC
  5
259
  8
1
 62
     7
 10
-95.949999999999974
 20
68.062500000000028
 30
0.0
 40
1.25
 50
0.0
 51
90.0
  0
ARC
  5
25A
  8
1
 62
     7
 10
54.049999999999997
 20
61.937500000000028
 30
0.0
 40
1.25
 50
270.0
 51
0.0
  0
ARC
  5
25B
  8
1
 62
     7
 10
54.049999999999997
 20
68.062500000000028
 30
0.0
 40
1.25
 50
0.0
 51
90.0
  0
TEXT
  5
25D
  8
1
 62
     7
 10
-129.58546733499159
 20
131.97371177201441
 30
0.0
 40
6.0
  1
MNB 2.5
 41
0.9
  7
SIMPLEX
  0
ENDSEC
  0
EOF
