  0
SECTION
  2
HEADER
  9
$ACADVER
  1
AC1009
  9
$INSBASE
 10
0.0
 20
0.0
 30
0.0
  9
$EXTMIN
 10
-293.03256681316981
 20
-145.39999999999981
 30
0.0
  9
$EXTMAX
 10
572.13936089206948
 20
251.6535970119111
 30
0.0
  9
$LIMMIN
 10
-293.03256681316981
 20
-145.39999999999981
  9
$LIMMAX
 10
537.76979284483332
 20
251.6535970119111
  9
$ORTHOMODE
 70
     0
  9
$REGENMODE
 70
     1
  9
$FILLMODE
 70
     1
  9
$QTEXTMODE
 70
     0
  9
$MIRRTEXT
 70
     1
  9
$DRAGMODE
 70
     2
  9
$LTSCALE
 40
1.0
  9
$OSMODE
 70
    37
  9
$ATTMODE
 70
     1
  9
$TEXTSIZE
 40
3.5
  9
$TRACEWID
 40
0.5
  9
$TEXTSTYLE
  7
STANDARD
  9
$CLAYER
  8
0
  9
$CELTYPE
  6
BYLAYER
  9
$CECOLOR
 62
   256
  9
$DIMSCALE
 40
1.0
  9
$DIMASZ
 40
0.18
  9
$DIMEXO
 40
0.0625
  9
$DIMDLI
 40
0.38
  9
$DIMRND
 40
0.0
  9
$DIMDLE
 40
0.0
  9
$DIMEXE
 40
0.18
  9
$DIMTP
 40
0.0
  9
$DIMTM
 40
0.0
  9
$DIMTXT
 40
0.18
  9
$DIMCEN
 40
0.09
  9
$DIMTSZ
 40
0.0
  9
$DIMTOL
 70
     0
  9
$DIMLIM
 70
     0
  9
$DIMTIH
 70
     1
  9
$DIMTOH
 70
     1
  9
$DIMSE1
 70
     0
  9
$DIMSE2
 70
     0
  9
$DIMTAD
 70
     0
  9
$DIMZIN
 70
     0
  9
$DIMBLK
  1

  9
$DIMASO
 70
     1
  9
$DIMSHO
 70
     1
  9
$DIMPOST
  1

  9
$DIMAPOST
  1

  9
$DIMALT
 70
     0
  9
$DIMALTD
 70
     2
  9
$DIMALTF
 40
25.399999999999999
  9
$DIMLFAC
 40
1.0
  9
$DIMTOFL
 70
     0
  9
$DIMTVP
 40
0.0
  9
$DIMTIX
 70
     0
  9
$DIMSOXD
 70
     0
  9
$DIMSAH
 70
     0
  9
$DIMBLK1
  1

  9
$DIMBLK2
  1

  9
$DIMSTYLE
  2
STANDARD
  9
$DIMCLRD
 70
     0
  9
$DIMCLRE
 70
     0
  9
$DIMCLRT
 70
     0
  9
$DIMTFAC
 40
1.0
  9
$DIMGAP
 40
0.09
  9
$LUNITS
 70
     2
  9
$LUPREC
 70
     4
  9
$SKETCHINC
 40
0.1
  9
$FILLETRAD
 40
2.0
  9
$AUNITS
 70
     0
  9
$AUPREC
 70
     0
  9
$MENU
  1
ACAD
  9
$ELEVATION
 40
0.0
  9
$PELEVATION
 40
0.0
  9
$THICKNESS
 40
0.0
  9
$LIMCHECK
 70
     0
  9
$BLIPMODE
 70
     0
  9
$CHAMFERA
 40
0.0
  9
$CHAMFERB
 40
0.0
  9
$SKPOLY
 70
     0
  9
$TDCREATE
 40
2452094.988781481
  9
$TDUPDATE
 40
2452094.9892716431
  9
$TDINDWG
 40
0.0005054398
  9
$TDUSRTIMER
 40
0.0005054398
  9
$USRTIMER
 70
     1
  9
$ANGBASE
 50
0.0
  9
$ANGDIR
 70
     0
  9
$PDMODE
 70
     0
  9
$PDSIZE
 40
0.0
  9
$PLINEWID
 40
0.0
  9
$COORDS
 70
     1
  9
$SPLFRAME
 70
     0
  9
$SPLINETYPE
 70
     6
  9
$SPLINESEGS
 70
     8
  9
$ATTDIA
 70
     0
  9
$ATTREQ
 70
     1
  9
$HANDLING
 70
 10241
  9
$HANDSEED
  5
297
  9
$SURFTAB1
 70
     6
  9
$SURFTAB2
 70
     6
  9
$SURFTYPE
 70
     6
  9
$SURFU
 70
     6
  9
$SURFV
 70
     6
  9
$UCSNAME
  2

  9
$UCSORG
 10
0.0
 20
0.0
 30
0.0
  9
$UCSXDIR
 10
1.0
 20
0.0
 30
0.0
  9
$UCSYDIR
 10
0.0
 20
1.0
 30
0.0
  9
$PUCSNAME
  2

  9
$PUCSORG
 10
0.0
 20
0.0
 30
0.0
  9
$PUCSXDIR
 10
1.0
 20
0.0
 30
0.0
  9
$PUCSYDIR
 10
0.0
 20
1.0
 30
0.0
  9
$USERI1
 70
     0
  9
$USERI2
 70
     0
  9
$USERI3
 70
     0
  9
$USERI4
 70
     0
  9
$USERI5
 70
     0
  9
$USERR1
 40
0.0
  9
$USERR2
 40
0.0
  9
$USERR3
 40
0.0
  9
$USERR4
 40
0.0
  9
$USERR5
 40
0.0
  9
$WORLDVIEW
 70
     1
  9
$SHADEDGE
 70
     3
  9
$SHADEDIF
 70
    70
  9
$TILEMODE
 70
     1
  9
$MAXACTVP
 70
    64
  9
$PLIMCHECK
 70
     0
  9
$PEXTMIN
 10
1.0000000000000000E+020
 20
1.0000000000000000E+020
 30
1.0000000000000000E+020
  9
$PEXTMAX
 10
-1.0000000000000000E+020
 20
-1.0000000000000000E+020
 30
-1.0000000000000000E+020
  9
$PLIMMIN
 10
0.0
 20
0.0
  9
$PLIMMAX
 10
12.0
 20
9.0
  9
$UNITMODE
 70
     0
  9
$VISRETAIN
 70
     1
  9
$PLINEGEN
 70
     0
  9
$PSLTSCALE
 70
     1
  0
ENDSEC
  0
SECTION
  2
TABLES
  0
TABLE
  2
VPORT
 70
     2
  0
VPORT
  2
*ACTIVE
 70
     0
 10
0.0
 20
0.0
 11
1.0
 21
1.0
 12
-203.28984867531241
 22
234.07966796584259
 13
0.0
 23
0.0
 14
1.0
 24
1.0
 15
0.0
 25
0.0
 16
0.0
 26
0.0
 36
1.0
 17
0.0
 27
0.0
 37
0.0
 40
8.9999996830082285
 41
2.4144144144144142
 42
50.0
 43
0.0
 44
0.0
 50
0.0
 51
0.0
 71
     0
 72
   100
 73
     1
 74
     1
 75
     0
 76
     0
 77
     0
 78
     0
  0
ENDTAB
  0
TABLE
  2
LTYPE
 70
     9
  0
LTYPE
  2
CONTINUOUS
 70
     0
  3
Solid line
 72
    65
 73
     0
 40
0.0
  0
LTYPE
  2
BORDER
 70
     0
  3
__ __ . __ __ .
 72
    65
 73
     6
 40
38.260634984250139
 49
10.93160999550004
 49
-5.4658049977500189
 49
10.93160999550004
 49
-5.4658049977500189
 49
0.0
 49
-5.4658049977500189
  0
LTYPE
  2
CENTER
 70
     0
  3
____ _ ____ _
 72
    65
 73
     4
 40
43.726439982000159
 49
27.329024988750088
 49
-5.4658049977500189
 49
5.4658049977500189
 49
-5.4658049977500189
  0
LTYPE
  2
DASHDOT
 70
     0
  3
__ . __ . __ .
 72
    65
 73
     4
 40
21.863219991000079
 49
10.93160999550004
 49
-5.4658049977500189
 49
0.0
 49
-5.4658049977500189
  0
LTYPE
  2
DASHED
 70
     0
  3
__ __ __ __ __
 72
    65
 73
     2
 40
16.397414993250059
 49
10.93160999550004
 49
-5.4658049977500189
  0
LTYPE
  2
DIVIDE
 70
     0
  3
__ . . __ . . 
 72
    65
 73
     6
 40
27.329024988750088
 49
10.93160999550004
 49
-5.4658049977500189
 49
0.0
 49
-5.4658049977500189
 49
0.0
 49
-5.4658049977500189
  0
LTYPE
  2
DOT
 70
     0
  3
..............
 72
    65
 73
     4
 40
10.93160999550004
 49
0.0
 49
-5.4658049977500189
 49
0.0
 49
-5.4658049977500189
  0
LTYPE
  2
HIDDEN
 70
     0
  3
_ _ _ _ _ _ _
 72
    65
 73
     2
 40
8.1987074966250297
 49
5.4658049977500189
 49
-2.732902498875009
  0
LTYPE
  2
PHANTOM
 70
     0
  3
_____ _ _ _____ _ _ 
 72
    65
 73
     6
 40
54.658049977500191
 49
27.329024988750088
 49
-5.4658049977500189
 49
5.4658049977500189
 49
-5.4658049977500189
 49
5.4658049977500189
 49
-5.4658049977500189
  0
ENDTAB
  0
TABLE
  2
LAYER
 70
     2
  0
LAYER
  2
0
 70
     0
 62
     7
  6
CONTINUOUS
  0
LAYER
  2
1
 70
     0
 62
     7
  6
CONTINUOUS
  0
ENDTAB
  0
TABLE
  2
STYLE
 70
     4
  0
STYLE
  2
STANDARD
 70
     0
 40
0.0
 41
1.0
 50
0.0
 71
     0
 42
3.5
  3
txt
  4

  0
STYLE
  2
SIMPLEX
 70
     0
 40
0.0
 41
1.0
 50
0.0
 71
     0
 42
3.5
  3
simplex
  4

  0
STYLE
  2
COMPLEX
 70
     0
 40
0.0
 41
1.0
 50
0.0
 71
     0
 42
3.5
  3
complex
  4

  0
STYLE
  2
ITALIC
 70
     0
 40
0.0
 41
1.0
 50
0.0
 71
     0
 42
3.5
  3
italic
  4

  0
ENDTAB
  0
TABLE
  2
VIEW
 70
     0
  0
ENDTAB
  0
TABLE
  2
UCS
 70
     0
  0
ENDTAB
  0
TABLE
  2
APPID
 70
     1
  0
APPID
  2
ACAD
 70
     0
  0
ENDTAB
  0
TABLE
  2
DIMSTYLE
 70
     1
  0
DIMSTYLE
  2
STANDARD
 70
     0
  3

  4

  5

  6

  7

 40
1.0
 41
0.18
 42
0.0625
 43
0.38
 44
0.18
 45
0.0
 46
0.0
 47
0.0
 48
0.0
140
0.18
141
0.09
142
0.0
143
25.399999999999999
144
1.0
145
0.0
146
1.0
147
0.09
 71
     0
 72
     0
 73
     1
 74
     1
 75
     0
 76
     0
 77
     0
 78
     0
170
     0
171
     2
172
     0
173
     0
174
     0
175
     0
176
     0
177
     0
178
     0
  0
ENDTAB
  0
ENDSEC
  0
SECTION
  2
BLOCKS
  0
BLOCK
  8
0
  2
$MODEL_SPACE
 70
     0
 10
0.0
 20
0.0
 30
0.0
  3
$MODEL_SPACE
  1

  0
ENDBLK
  5
20
  8
0
  0
BLOCK
 67
     1
  8
0
  2
$PAPER_SPACE
 70
     0
 10
0.0
 20
0.0
 30
0.0
  3
$PAPER_SPACE
  1

  0
ENDBLK
  5
1C
 67
     1
  8
0
  0
ENDSEC
  0
SECTION
  2
ENTITIES
  0
LINE
  5
33
  8
1
  6
DASHDOT
 62
     3
 10
400.2697928448332
 20
7.7615182071119762
 30
0.0
 11
400.2697928448332
 21
-7.7615182071119762
 31
0.0
  0
LINE
  5
34
  8
1
  6
DASHDOT
 62
     3
 10
408.03131105194529
 20
0.0
 30
0.0
 11
392.50827463772129
 21
0.0
 31
0.0
  0
LINE
  5
35
  8
1
  6
DASHDOT
 62
     3
 10
400.2697928448332
 20
49.869732197752221
 30
0.0
 11
400.2697928448332
 21
23.475587150556279
 31
0.0
  0
LINE
  5
36
  8
1
  6
DASHDOT
 62
     3
 10
450.72007141137527
 20
0.0
 30
0.0
 11
419.59345064385508
 21
0.0
 31
0.0
  0
LINE
  5
37
  8
1
  6
DASHDOT
 62
     3
 10
400.2697928448332
 20
-107.77734859307471
 30
0.0
 11
400.2697928448332
 21
-145.39999999999981
 31
0.0
  0
LINE
  5
38
  8
1
 62
     7
 10
-155.0
 20
-136.0
 30
0.0
 11
-155.0
 21
135.99999999999989
 31
0.0
  0
LINE
  5
39
  8
1
 62
     7
 10
-270.0
 20
-119.0
 30
0.0
 11
-285.80000000000001
 21
-119.0
 31
0.0
  0
LINE
  5
3A
  8
1
 62
     7
 10
-270.0
 20
-119.0
 30
0.0
 11
-270.0
 21
-131.0
 31
0.0
  0
LINE
  5
3B
  8
1
 62
     7
 10
-239.0
 20
135.99999999999989
 30
0.0
 11
-255.0
 21
135.99999999999989
 31
0.0
  0
LINE
  5
3C
  8
1
 62
     7
 10
-220.1999999999999
 20
113.9999999999999
 30
0.0
 11
-218.0
 21
113.9999999999999
 31
0.0
  0
LINE
  5
3D
  8
1
 62
     7
 10
-239.0
 20
136.99999999999989
 30
0.0
 11
-239.0
 21
-137.0
 31
0.0
  0
LINE
  5
3E
  8
1
 62
     7
 10
-255.0
 20
113.9999999999999
 30
0.0
 11
-239.0
 21
113.9999999999999
 31
0.0
  0
LINE
  5
3F
  8
1
 62
     7
 10
-220.1999999999999
 20
-137.0
 30
0.0
 11
-220.1999999999999
 21
136.99999999999989
 31
0.0
  0
LINE
  5
40
  8
1
 62
     3
 10
-145.0
 20
0.0
 30
0.0
 11
-135.0
 21
0.0
 31
0.0
  0
LINE
  5
41
  8
1
 62
     3
 10
-280.0
 20
0.0
 30
0.0
 11
-270.0
 21
0.0
 31
0.0
  0
LINE
  5
42
  8
1
 62
     7
 10
-270.0
 20
-137.0
 30
0.0
 11
-269.49999999999989
 21
-137.5
 31
0.0
  0
LINE
  5
43
  8
1
 62
     7
 10
-255.0
 20
-137.0
 30
0.0
 11
-255.5
 21
-137.5
 31
0.0
  0
LINE
  5
44
  8
1
 62
     7
 10
-239.0
 20
-137.0
 30
0.0
 11
-238.5
 21
-137.5
 31
0.0
  0
LINE
  5
45
  8
1
 62
     7
 10
-220.1999999999999
 20
-137.0
 30
0.0
 11
-220.6999999999999
 21
-137.5
 31
0.0
  0
LINE
  5
46
  8
1
 62
     7
 10
-154.49999999999989
 20
-136.49999999999989
 30
0.0
 11
-155.0
 21
-136.0
 31
0.0
  0
LINE
  5
47
  8
1
 62
     7
 10
-145.5
 20
-136.49999999999989
 30
0.0
 11
-145.0
 21
-136.0
 31
0.0
  0
LINE
  5
48
  8
1
 62
     7
 10
-145.0
 20
135.99999999999989
 30
0.0
 11
-145.5
 21
136.49999999999989
 31
0.0
  0
LINE
  5
49
  8
1
 62
     7
 10
-155.0
 20
135.99999999999989
 30
0.0
 11
-154.49999999999989
 21
136.49999999999989
 31
0.0
  0
LINE
  5
4A
  8
1
 62
     7
 10
-269.49999999999989
 20
137.49999999999989
 30
0.0
 11
-270.0
 21
136.99999999999989
 31
0.0
  0
LINE
  5
4B
  8
1
 62
     7
 10
-255.5
 20
137.49999999999989
 30
0.0
 11
-255.0
 21
136.99999999999989
 31
0.0
  0
LINE
  5
4C
  8
1
 62
     7
 10
-238.5
 20
137.49999999999989
 30
0.0
 11
-239.0
 21
136.99999999999989
 31
0.0
  0
LINE
  5
4D
  8
1
 62
     7
 10
-220.6999999999999
 20
137.49999999999989
 30
0.0
 11
-220.1999999999999
 21
136.99999999999989
 31
0.0
  0
LINE
  5
4E
  8
1
 62
     7
 10
-135.0
 20
-55.5
 30
0.0
 11
-131.80000000000001
 21
-55.5
 31
0.0
  0
LINE
  5
4F
  8
1
 62
     7
 10
-136.1258330249197
 20
-71.450000000000045
 30
0.0
 11
-145.0
 21
-71.450000000000045
 31
0.0
  0
LINE
  5
50
  8
1
 62
     7
 10
-136.1258330249197
 20
-65.975000000000023
 30
0.0
 11
-145.0
 21
-65.975000000000023
 31
0.0
  0
LINE
  5
51
  8
1
 62
     7
 10
-136.1258330249197
 20
-55.024999999999977
 30
0.0
 11
-145.0
 21
-55.024999999999977
 31
0.0
  0
LINE
  5
52
  8
1
 62
     7
 10
-136.1258330249197
 20
-49.549999999999947
 30
0.0
 11
-145.0
 21
-49.549999999999947
 31
0.0
  0
LINE
  5
53
  8
1
 62
     7
 10
-135.0
 20
-52.287500000000009
 30
0.0
 11
-135.0
 21
-68.712499999999977
 31
0.0
  0
LINE
  5
54
  8
1
 62
     3
 10
-131.22264973081039
 20
-56.5
 30
0.0
 11
-135.0
 21
-56.5
 31
0.0
  0
LINE
  5
55
  8
1
 62
     3
 10
-131.22264973081039
 20
-64.5
 30
0.0
 11
-135.0
 21
-64.5
 31
0.0
  0
LINE
  5
56
  8
1
 62
     7
 10
-131.80000000000001
 20
-65.5
 30
0.0
 11
-135.0
 21
-65.5
 31
0.0
  0
LINE
  5
57
  8
1
 62
     7
 10
-131.0
 20
-56.885640646055087
 30
0.0
 11
-131.0
 21
-64.114359353944906
 31
0.0
  0
LINE
  5
58
  8
1
 62
     7
 10
-131.80000000000001
 20
-55.5
 30
0.0
 11
-131.0
 21
-56.885640646055087
 31
0.0
  0
LINE
  5
59
  8
1
 62
     7
 10
-131.80000000000001
 20
-65.5
 30
0.0
 11
-131.80000000000001
 21
-55.5
 31
0.0
  0
LINE
  5
5A
  8
1
 62
     7
 10
-131.0
 20
-64.114359353944906
 30
0.0
 11
-131.80000000000001
 21
-65.5
 31
0.0
  0
LINE
  5
5B
  8
1
 62
     7
 10
-270.0
 20
-131.0
 30
0.0
 11
-270.0
 21
-137.0
 31
0.0
  0
LINE
  5
5C
  8
1
  6
DASHDOT
 62
     3
 10
-233.5676181517363
 20
-125.0
 30
0.0
 11
-293.03256681316981
 21
-125.0
 31
0.0
  0
LINE
  5
5D
  8
1
 62
     3
 10
-287.0
 20
-129.80000000000001
 30
0.0
 11
-270.0
 21
-129.80000000000001
 31
0.0
  0
LINE
  5
5E
  8
1
 62
     3
 10
-287.0
 20
-120.1999999999999
 30
0.0
 11
-270.0
 21
-120.1999999999999
 31
0.0
  0
LINE
  5
5F
  8
1
 62
     7
 10
-285.80000000000001
 20
-119.0
 30
0.0
 11
-285.80000000000001
 21
-131.0
 31
0.0
  0
LINE
  5
60
  8
1
 62
     7
 10
-285.80000000000001
 20
-131.0
 30
0.0
 11
-270.0
 21
-131.0
 31
0.0
  0
LINE
  5
61
  8
1
 62
     7
 10
-287.0
 20
-129.80000000000001
 30
0.0
 11
-285.80000000000001
 21
-131.0
 31
0.0
  0
LINE
  5
62
  8
1
 62
     7
 10
-287.0
 20
-120.1999999999999
 30
0.0
 11
-287.0
 21
-129.80000000000001
 31
0.0
  0
LINE
  5
63
  8
1
 62
     7
 10
-285.80000000000001
 20
-119.0
 30
0.0
 11
-287.0
 21
-120.1999999999999
 31
0.0
  0
LINE
  5
64
  8
1
 62
     7
 10
-240.69999999999999
 20
-116.0
 30
0.0
 11
-240.69999999999999
 21
-134.0
 31
0.0
  0
LINE
  5
65
  8
1
 62
     7
 10
-252.0
 20
-134.0
 30
0.0
 11
-252.0
 21
-116.0
 31
0.0
  0
LINE
  5
66
  8
1
 62
     7
 10
-240.69999999999999
 20
-134.0
 30
0.0
 11
-252.0
 21
-134.0
 31
0.0
  0
LINE
  5
67
  8
1
 62
     7
 10
-240.0
 20
-132.78756443470181
 30
0.0
 11
-240.69999999999999
 21
-134.0
 31
0.0
  0
LINE
  5
68
  8
1
 62
     7
 10
-240.0
 20
-117.21243556529809
 30
0.0
 11
-240.0
 21
-132.78756443470181
 31
0.0
  0
LINE
  5
69
  8
1
 62
     7
 10
-240.69999999999999
 20
-116.0
 30
0.0
 11
-240.0
 21
-117.21243556529809
 31
0.0
  0
LINE
  5
6A
  8
1
 62
     7
 10
-252.0
 20
-116.0
 30
0.0
 11
-240.69999999999999
 21
-116.0
 31
0.0
  0
LINE
  5
6B
  8
1
 62
     7
 10
-252.0
 20
-135.74999999999989
 30
0.0
 11
-255.0
 21
-135.74999999999989
 31
0.0
  0
LINE
  5
6C
  8
1
 62
     7
 10
-252.0
 20
-114.25
 30
0.0
 11
-252.0
 21
-135.74999999999989
 31
0.0
  0
LINE
  5
6D
  8
1
 62
     7
 10
-255.0
 20
-114.25
 30
0.0
 11
-252.0
 21
-114.25
 31
0.0
  0
LINE
  5
6E
  8
1
 62
     7
 10
-255.0
 20
-128.0
 30
0.0
 11
-252.0
 21
-125.0
 31
0.0
  0
LINE
  5
6F
  8
1
 62
     7
 10
-255.0
 20
-125.0
 30
0.0
 11
-252.0
 21
-122.0
 31
0.0
  0
LINE
  5
70
  8
1
 62
     7
 10
-155.0
 20
-135.9499999999999
 30
0.0
 11
-155.0
 21
-114.05
 31
0.0
  0
LINE
  5
71
  8
1
 62
     7
 10
-255.5
 20
-137.5
 30
0.0
 11
-269.49999999999989
 21
-137.5
 31
0.0
  0
LINE
  5
72
  8
1
 62
     7
 10
-220.6999999999999
 20
-137.5
 30
0.0
 11
-238.5
 21
-137.5
 31
0.0
  0
LINE
  5
73
  8
1
 62
     7
 10
-239.0
 20
-112.0
 30
0.0
 11
-255.0
 21
-112.0
 31
0.0
  0
LINE
  5
74
  8
1
 62
     7
 10
-145.5
 20
-136.49999999999989
 30
0.0
 11
-154.49999999999989
 21
-136.49999999999989
 31
0.0
  0
LINE
  5
75
  8
1
 62
     7
 10
-145.0
 20
135.99999999999989
 30
0.0
 11
-145.0
 21
-136.0
 31
0.0
  0
LINE
  5
76
  8
1
 62
     7
 10
-155.0
 20
-110.0
 30
0.0
 11
-219.69999999999999
 21
-110.0
 31
0.0
  0
LINE
  5
77
  8
1
 62
     7
 10
-219.69999999999999
 20
109.9999999999998
 30
0.0
 11
-155.0
 21
109.9999999999998
 31
0.0
  0
LINE
  5
78
  8
1
 62
     7
 10
-154.49999999999989
 20
136.49999999999989
 30
0.0
 11
-145.5
 21
136.49999999999989
 31
0.0
  0
LINE
  5
79
  8
1
 62
     7
 10
-255.0
 20
111.9999999999998
 30
0.0
 11
-239.0
 21
111.9999999999998
 31
0.0
  0
LINE
  5
7A
  8
1
 62
     7
 10
-220.6999999999999
 20
137.49999999999989
 30
0.0
 11
-238.5
 21
137.49999999999989
 31
0.0
  0
LINE
  5
7B
  8
1
 62
     7
 10
-255.5
 20
137.49999999999989
 30
0.0
 11
-269.49999999999989
 21
137.49999999999989
 31
0.0
  0
LINE
  5
7C
  8
1
 62
     7
 10
-270.0
 20
136.99999999999989
 30
0.0
 11
-270.0
 21
-119.0
 31
0.0
  0
LINE
  5
7D
  8
1
 62
     7
 10
-249.80000000000001
 20
111.9999999999998
 30
0.0
 11
-249.80000000000001
 21
-112.0
 31
0.0
  0
LINE
  5
7E
  8
1
 62
     7
 10
-244.1999999999999
 20
111.9999999999998
 30
0.0
 11
-244.1999999999999
 21
-112.0
 31
0.0
  0
LINE
  5
7F
  8
1
 62
     7
 10
-218.0
 20
113.9999999999999
 30
0.0
 11
-218.0
 21
135.99999999999989
 31
0.0
  0
LINE
  5
80
  8
1
 62
     7
 10
-218.0
 20
135.99999999999989
 30
0.0
 11
-220.1999999999999
 21
135.99999999999989
 31
0.0
  0
LINE
  5
81
  8
1
 62
     7
 10
-128.1999999999999
 20
130.99999999999989
 30
0.0
 11
-127.0
 21
129.80000000000001
 31
0.0
  0
LINE
  5
82
  8
1
 62
     7
 10
-127.0
 20
129.80000000000001
 30
0.0
 11
-127.0
 21
120.1999999999999
 31
0.0
  0
LINE
  5
83
  8
1
 62
     7
 10
-127.0
 20
120.1999999999999
 30
0.0
 11
-128.1999999999999
 21
118.9999999999999
 31
0.0
  0
LINE
  5
84
  8
1
 62
     7
 10
-128.1999999999999
 20
118.9999999999999
 30
0.0
 11
-134.49999999999989
 21
118.9999999999999
 31
0.0
  0
LINE
  5
85
  8
1
 62
     7
 10
-128.1999999999999
 20
130.99999999999989
 30
0.0
 11
-128.1999999999999
 21
118.9999999999999
 31
0.0
  0
LINE
  5
86
  8
1
 62
     7
 10
-136.0
 20
133.21250000000001
 30
0.0
 11
-136.0
 21
116.78749999999989
 31
0.0
  0
LINE
  5
87
  8
1
 62
     7
 10
-137.1258330249197
 20
135.9499999999999
 30
0.0
 11
-145.0
 21
135.9499999999999
 31
0.0
  0
LINE
  5
88
  8
1
 62
     7
 10
-137.1258330249197
 20
130.47499999999999
 30
0.0
 11
-145.0
 21
130.47499999999999
 31
0.0
  0
LINE
  5
89
  8
1
 62
     7
 10
-137.1258330249197
 20
119.52500000000001
 30
0.0
 11
-145.0
 21
119.52500000000001
 31
0.0
  0
LINE
  5
8A
  8
1
 62
     7
 10
-137.1258330249197
 20
114.05
 30
0.0
 11
-145.0
 21
114.05
 31
0.0
  0
LINE
  5
8B
  8
1
 62
     7
 10
-165.0
 20
116.78749999999989
 30
0.0
 11
-165.0
 21
133.21250000000001
 31
0.0
  0
LINE
  5
8C
  8
1
 62
     7
 10
-163.8741669750801
 20
114.05
 30
0.0
 11
-155.0
 21
114.05
 31
0.0
  0
LINE
  5
8D
  8
1
 62
     7
 10
-163.8741669750801
 20
119.52500000000001
 30
0.0
 11
-155.0
 21
119.52500000000001
 31
0.0
  0
LINE
  5
8E
  8
1
 62
     7
 10
-163.8741669750801
 20
130.47499999999999
 30
0.0
 11
-155.0
 21
130.47499999999999
 31
0.0
  0
LINE
  5
8F
  8
1
 62
     7
 10
-163.8741669750801
 20
135.9499999999999
 30
0.0
 11
-155.0
 21
135.9499999999999
 31
0.0
  0
LINE
  5
90
  8
1
 62
     7
 10
-209.0
 20
133.21250000000001
 30
0.0
 11
-209.0
 21
116.78749999999989
 31
0.0
  0
LINE
  5
91
  8
1
 62
     7
 10
-210.12583302491981
 20
135.9499999999999
 30
0.0
 11
-218.0
 21
135.9499999999999
 31
0.0
  0
LINE
  5
92
  8
1
 62
     7
 10
-210.12583302491981
 20
130.47499999999999
 30
0.0
 11
-218.0
 21
130.47499999999999
 31
0.0
  0
LINE
  5
93
  8
1
 62
     7
 10
-210.12583302491981
 20
119.52500000000001
 30
0.0
 11
-218.0
 21
119.52500000000001
 31
0.0
  0
LINE
  5
94
  8
1
 62
     7
 10
-210.12583302491981
 20
114.05
 30
0.0
 11
-218.0
 21
114.05
 31
0.0
  0
LINE
  5
95
  8
1
 62
     7
 10
-134.49999999999989
 20
131.71250000000001
 30
0.0
 11
-134.49999999999989
 21
118.28749999999989
 31
0.0
  0
LINE
  5
96
  8
1
 62
     7
 10
-207.5
 20
131.71250000000001
 30
0.0
 11
-207.5
 21
118.28749999999989
 31
0.0
  0
LINE
  5
97
  8
1
 62
     7
 10
-255.0
 20
136.99999999999989
 30
0.0
 11
-255.0
 21
-137.0
 31
0.0
  0
LINE
  5
98
  8
1
 62
     3
 10
-207.5
 20
129.80000000000001
 30
0.0
 11
-165.0
 21
129.80000000000001
 31
0.0
  0
LINE
  5
99
  8
1
 62
     7
 10
-207.5
 20
130.99999999999989
 30
0.0
 11
-165.0
 21
130.99999999999989
 31
0.0
  0
LINE
  5
9A
  8
1
 62
     3
 10
-207.5
 20
120.1999999999999
 30
0.0
 11
-165.0
 21
120.1999999999999
 31
0.0
  0
LINE
  5
9B
  8
1
 62
     7
 10
-165.0
 20
118.9999999999999
 30
0.0
 11
-207.5
 21
118.9999999999999
 31
0.0
  0
LINE
  5
9C
  8
1
 62
     3
 10
-134.49999999999989
 20
120.1999999999999
 30
0.0
 11
-127.0
 21
120.1999999999999
 31
0.0
  0
LINE
  5
9D
  8
1
 62
     7
 10
-134.49999999999989
 20
130.99999999999989
 30
0.0
 11
-128.1999999999999
 21
130.99999999999989
 31
0.0
  0
LINE
  5
9E
  8
1
 62
     3
 10
-134.49999999999989
 20
129.80000000000001
 30
0.0
 11
-127.0
 21
129.80000000000001
 31
0.0
  0
LINE
  5
9F
  8
1
 62
     7
 10
-219.69999999999999
 20
109.9999999999998
 30
0.0
 11
-219.69999999999999
 21
-110.0
 31
0.0
  0
LINE
  5
A0
  8
1
 62
     7
 10
-168.59999999999991
 20
171.73876272583729
 30
0.0
 11
-168.59999999999991
 21
168.73876272583729
 31
0.0
  0
LINE
  5
A1
  8
1
 62
     7
 10
-168.80000000000001
 20
168.73876272583729
 30
0.0
 11
-168.80000000000001
 21
171.73876272583729
 31
0.0
  0
LINE
  5
A2
  8
1
 62
     7
 10
-169.0
 20
171.73876272583729
 30
0.0
 11
-169.0
 21
168.73876272583729
 31
0.0
  0
LINE
  5
A3
  8
1
 62
     7
 10
-169.1999999999999
 20
168.73876272583729
 30
0.0
 11
-169.1999999999999
 21
171.73876272583729
 31
0.0
  0
LINE
  5
A4
  8
1
 62
     7
 10
-169.40000000000001
 20
171.73876272583729
 30
0.0
 11
-169.40000000000001
 21
168.73876272583729
 31
0.0
  0
LINE
  5
A5
  8
1
 62
     7
 10
-170.0
 20
168.73876272583729
 30
0.0
 11
-168.0
 21
168.73876272583729
 31
0.0
  0
LINE
  5
A6
  8
1
 62
     7
 10
-170.0
 20
168.73876272583729
 30
0.0
 11
-170.0
 21
130.99999999999989
 31
0.0
  0
LINE
  5
A7
  8
1
 62
     7
 10
-170.0
 20
118.9999999999999
 30
0.0
 11
-170.0
 21
109.9999999999998
 31
0.0
  0
LINE
  5
A8
  8
1
 62
     7
 10
-168.0
 20
109.9999999999998
 30
0.0
 11
-168.0
 21
118.9999999999999
 31
0.0
  0
LINE
  5
A9
  8
1
 62
     7
 10
-168.0
 20
130.99999999999989
 30
0.0
 11
-168.0
 21
168.73876272583729
 31
0.0
  0
LINE
  5
AA
  8
1
 62
     7
 10
49.799999999999947
 20
-40.000000000000227
 30
0.0
 11
49.799999999999947
 21
-137.0
 31
0.0
  0
LINE
  5
AB
  8
1
 62
     3
 10
125.0
 20
0.0
 30
0.0
 11
135.00000000000031
 21
0.0
 31
0.0
  0
LINE
  5
AC
  8
1
  6
DASHDOT
 62
     3
 10
47.0
 20
6.6114359470222999
 30
0.0
 11
47.0
 21
-6.8086250966927073
 31
0.0
  0
LINE
  5
AD
  8
1
  6
DASHDOT
 62
     3
 10
40.199493161580342
 20
0.0
 30
0.0
 11
54.87209323604327
 21
0.0
 31
0.0
  0
LINE
  5
AE
  8
1
 62
     3
 10
-10.0
 20
0.0
 30
0.0
 11
0.0
 21
0.0
 31
0.0
  0
LINE
  5
AF
  8
1
 62
     7
 10
31.0
 20
-40.000000000000227
 30
0.0
 11
31.0
 21
-137.0
 31
0.0
  0
LINE
  5
B0
  8
1
 62
     7
 10
75.0
 20
-39.000000000000227
 30
0.0
 11
75.0
 21
39.0
 31
0.0
  0
LINE
  5
B1
  8
1
 62
     7
 10
74.0
 20
-40.000000000000227
 30
0.0
 11
75.0
 21
-39.000000000000227
 31
0.0
  0
LINE
  5
B2
  8
1
 62
     7
 10
74.0
 20
-40.000000000000227
 30
0.0
 11
29.0
 21
-40.000000000000227
 31
0.0
  0
LINE
  5
B3
  8
1
 62
     7
 10
29.0
 20
-46.700000000000152
 30
0.0
 11
28.0
 21
-47.700000000000152
 31
0.0
  0
LINE
  5
B4
  8
1
 62
     7
 10
29.0
 20
-40.000000000000227
 30
0.0
 11
29.0
 21
-46.700000000000152
 31
0.0
  0
LINE
  5
B5
  8
1
 62
     7
 10
28.0
 20
-47.700000000000152
 30
0.0
 11
16.0
 21
-47.700000000000152
 31
0.0
  0
LINE
  5
B6
  8
1
 62
     7
 10
15.0
 20
-46.700000000000152
 30
0.0
 11
16.0
 21
-47.700000000000152
 31
0.0
  0
LINE
  5
B7
  8
1
 62
     7
 10
15.0
 20
-44.10000000000025
 30
0.0
 11
29.0
 21
-44.10000000000025
 31
0.0
  0
LINE
  5
B8
  8
1
 62
     7
 10
75.0
 20
-27.500000000000231
 30
0.0
 11
15.0
 21
-27.500000000000231
 31
0.0
  0
LINE
  5
B9
  8
1
 62
     7
 10
301.51661737177812
 20
-67.984827557301287
 30
0.0
 11
301.51661737177812
 21
-57.015172442698479
 31
0.0
  0
LINE
  5
BA
  8
1
 62
     7
 10
292.01661737177812
 20
-73.469655114602801
 30
0.0
 11
301.51661737177812
 21
-67.984827557301287
 31
0.0
  0
LINE
  5
BB
  8
1
 62
     7
 10
282.51661737177812
 20
-67.984827557301287
 30
0.0
 11
292.01661737177812
 21
-73.469655114602801
 31
0.0
  0
LINE
  5
BC
  8
1
 62
     7
 10
282.51661737177812
 20
-57.015172442698479
 30
0.0
 11
282.51661737177812
 21
-67.984827557301287
 31
0.0
  0
LINE
  5
BD
  8
1
 62
     7
 10
292.01661737177812
 20
-51.530344885396957
 30
0.0
 11
282.51661737177812
 21
-57.015172442698479
 31
0.0
  0
LINE
  5
BE
  8
1
 62
     7
 10
301.51661737177812
 20
-57.015172442698479
 30
0.0
 11
292.01661737177812
 21
-51.530344885396957
 31
0.0
  0
LINE
  5
BF
  8
1
 62
     7
 10
518.02296831788829
 20
-67.984827557301514
 30
0.0
 11
518.02296831788829
 21
-57.015172442698699
 31
0.0
  0
LINE
  5
C0
  8
1
 62
     7
 10
508.5229683178884
 20
-73.469655114603029
 30
0.0
 11
518.02296831788829
 21
-67.984827557301514
 31
0.0
  0
LINE
  5
C1
  8
1
 62
     7
 10
499.0229683178884
 20
-67.984827557301514
 30
0.0
 11
508.5229683178884
 21
-73.469655114603029
 31
0.0
  0
LINE
  5
C2
  8
1
 62
     7
 10
499.0229683178884
 20
-57.015172442698699
 30
0.0
 11
499.0229683178884
 21
-67.984827557301514
 31
0.0
  0
LINE
  5
C3
  8
1
 62
     7
 10
508.5229683178884
 20
-51.530344885397199
 30
0.0
 11
499.0229683178884
 21
-57.015172442698699
 31
0.0
  0
LINE
  5
C4
  8
1
 62
     7
 10
518.02296831788829
 20
-57.015172442698699
 30
0.0
 11
508.5229683178884
 21
-51.530344885397199
 31
0.0
  0
LINE
  5
C5
  8
1
 62
     7
 10
409.76979284483332
 20
119.5151724426984
 30
0.0
 11
409.76979284483332
 21
130.4848275573012
 31
0.0
  0
LINE
  5
C6
  8
1
 62
     7
 10
400.2697928448332
 20
114.030344885397
 30
0.0
 11
409.76979284483332
 21
119.5151724426984
 31
0.0
  0
LINE
  5
C7
  8
1
 62
     7
 10
390.76979284483332
 20
119.5151724426984
 30
0.0
 11
400.2697928448332
 21
114.030344885397
 31
0.0
  0
LINE
  5
C8
  8
1
 62
     7
 10
390.76979284483332
 20
130.4848275573012
 30
0.0
 11
390.76979284483332
 21
119.5151724426984
 31
0.0
  0
LINE
  5
C9
  8
1
 62
     7
 10
400.2697928448332
 20
135.96965511460289
 30
0.0
 11
390.76979284483332
 21
130.4848275573012
 31
0.0
  0
LINE
  5
CA
  8
1
 62
     7
 10
409.76979284483332
 20
130.4848275573012
 30
0.0
 11
400.2697928448332
 21
135.96965511460289
 31
0.0
  0
LINE
  5
CB
  8
1
 62
     7
 10
0.0
 20
-137.0
 30
0.0
 11
0.5
 21
-137.5
 31
0.0
  0
LINE
  5
CC
  8
1
 62
     7
 10
15.0
 20
-137.0
 30
0.0
 11
14.5
 21
-137.5
 31
0.0
  0
LINE
  5
CD
  8
1
 62
     7
 10
31.0
 20
-137.0
 30
0.0
 11
31.5
 21
-137.5
 31
0.0
  0
LINE
  5
CE
  8
1
 62
     7
 10
49.799999999999947
 20
-137.0
 30
0.0
 11
49.299999999999962
 21
-137.5
 31
0.0
  0
LINE
  5
CF
  8
1
 62
     7
 10
115.5
 20
-136.49999999999989
 30
0.0
 11
115.0
 21
-136.0
 31
0.0
  0
LINE
  5
D0
  8
1
 62
     7
 10
124.5
 20
-136.49999999999989
 30
0.0
 11
125.0
 21
-136.0
 31
0.0
  0
LINE
  5
D1
  8
1
 62
     7
 10
125.0
 20
135.99999999999989
 30
0.0
 11
124.5
 21
136.49999999999989
 31
0.0
  0
LINE
  5
D2
  8
1
 62
     7
 10
115.0
 20
135.99999999999989
 30
0.0
 11
115.5
 21
136.49999999999989
 31
0.0
  0
LINE
  5
D3
  8
1
 62
     7
 10
0.5
 20
137.49999999999989
 30
0.0
 11
0.0
 21
136.99999999999989
 31
0.0
  0
LINE
  5
D4
  8
1
 62
     7
 10
14.5
 20
137.49999999999989
 30
0.0
 11
15.0
 21
136.99999999999989
 31
0.0
  0
LINE
  5
D5
  8
1
 62
     7
 10
31.5
 20
137.49999999999989
 30
0.0
 11
31.0
 21
136.99999999999989
 31
0.0
  0
LINE
  5
D6
  8
1
 62
     7
 10
49.299999999999962
 20
137.49999999999989
 30
0.0
 11
49.799999999999947
 21
136.99999999999989
 31
0.0
  0
LINE
  5
D7
  8
1
  6
DASHED
 62
     3
 10
435.1697928448333
 20
-4.0
 30
0.0
 11
440.06929032909818
 21
-4.0
 31
0.0
  0
LINE
  5
D8
  8
1
  6
DASHED
 62
     7
 10
435.63167306018511
 20
-3.2000000000000441
 30
0.0
 11
440.14158738684017
 21
-3.2000000000000441
 31
0.0
  0
LINE
  5
D9
  8
1
  6
DASHED
 62
     7
 10
435.63167306018511
 20
3.2000000000000441
 30
0.0
 11
440.14158738684017
 21
3.2000000000000441
 31
0.0
  0
LINE
  5
DA
  8
1
  6
DASHED
 62
     3
 10
435.1697928448333
 20
4.0
 30
0.0
 11
440.06929032909818
 21
4.0
 31
0.0
  0
LINE
  5
DB
  8
1
  6
DASHED
 62
     3
 10
429.2697928448332
 20
4.0
 30
0.0
 11
427.47732856565932
 21
4.0
 31
0.0
  0
LINE
  5
DC
  8
1
  6
DASHED
 62
     7
 10
428.46979284483331
 20
3.2000000000000441
 30
0.0
 11
427.58297647472131
 21
3.2000000000000441
 31
0.0
  0
LINE
  5
DD
  8
1
  6
DASHED
 62
     7
 10
428.46979284483331
 20
-3.2000000000000441
 30
0.0
 11
427.58297647472131
 21
-3.2000000000000441
 31
0.0
  0
LINE
  5
DE
  8
1
  6
DASHED
 62
     3
 10
429.2697928448332
 20
-4.0
 30
0.0
 11
427.47732856565932
 21
-4.0
 31
0.0
  0
LINE
  5
DF
  8
1
  6
DASHED
 62
     7
 10
403.0964516498542
 20
39.899999999999977
 30
0.0
 11
397.44313403981232
 21
39.899999999999977
 31
0.0
  0
LINE
  5
E0
  8
1
 62
     7
 10
397.44313403981232
 20
39.899999999999977
 30
0.0
 11
396.26979284483332
 21
39.899999999999977
 31
0.0
  0
LINE
  5
E1
  8
1
 62
     7
 10
396.26979284483332
 20
39.799497484264741
 30
0.0
 11
396.26979284483332
 21
39.899999999999977
 31
0.0
  0
LINE
  5
E2
  8
1
  6
DASHED
 62
     3
 10
397.06979284483322
 20
39.871794542006789
 30
0.0
 11
397.06979284483322
 21
33.200000000000053
 31
0.0
  0
LINE
  5
E3
  8
1
  6
DASHED
 62
     7
 10
404.2697928448332
 20
39.799497484264741
 30
0.0
 11
404.2697928448332
 21
34.0
 31
0.0
  0
LINE
  5
E4
  8
1
  6
DASHED
 62
     3
 10
403.46979284483331
 20
39.871794542006789
 30
0.0
 11
403.46979284483331
 21
33.200000000000053
 31
0.0
  0
LINE
  5
E5
  8
1
  6
DASHED
 62
     3
 10
396.26979284483332
 20
34.0
 30
0.0
 11
396.26979284483332
 21
32.5
 31
0.0
  0
LINE
  5
E6
  8
1
  6
DASHED
 62
     7
 10
397.06979284483322
 20
33.200000000000053
 30
0.0
 11
397.06979284483322
 21
32.5
 31
0.0
  0
LINE
  5
E7
  8
1
  6
DASHED
 62
     7
 10
403.46979284483331
 20
33.200000000000053
 30
0.0
 11
403.46979284483331
 21
32.5
 31
0.0
  0
LINE
  5
E8
  8
1
  6
DASHED
 62
     3
 10
404.2697928448332
 20
34.0
 30
0.0
 11
404.2697928448332
 21
32.5
 31
0.0
  0
LINE
  5
E9
  8
1
 62
     3
 10
397.06979284483322
 20
40.361880215351682
 30
0.0
 11
397.06979284483322
 21
39.871794542006789
 31
0.0
  0
LINE
  5
EA
  8
1
 62
     3
 10
403.46979284483331
 20
40.361880215351682
 30
0.0
 11
403.46979284483331
 21
39.871794542006789
 31
0.0
  0
LINE
  5
EB
  8
1
  6
DASHED
 62
     7
 10
397.76979284483332
 20
32.5
 30
0.0
 11
396.26979284483332
 21
34.0
 31
0.0
  0
LINE
  5
EC
  8
1
  6
DASHED
 62
     7
 10
404.2697928448332
 20
34.0
 30
0.0
 11
402.76979284483332
 21
32.5
 31
0.0
  0
LINE
  5
ED
  8
1
  6
DASHED
 62
     7
 10
396.26979284483332
 20
34.0
 30
0.0
 11
396.26979284483332
 21
39.799497484264741
 31
0.0
  0
LINE
  5
EE
  8
1
  6
DASHED
 62
     7
 10
404.2697928448332
 20
34.0
 30
0.0
 11
396.26979284483332
 21
34.0
 31
0.0
  0
LINE
  5
EF
  8
1
 62
     7
 10
404.2697928448332
 20
39.899999999999977
 30
0.0
 11
404.2697928448332
 21
39.799497484264741
 31
0.0
  0
LINE
  5
F0
  8
1
 62
     7
 10
397.3090233293741
 20
40.499999999999993
 30
0.0
 11
403.2305623602922
 21
40.499999999999993
 31
0.0
  0
LINE
  5
F1
  8
1
 62
     7
 10
396.26979284483332
 20
39.899999999999977
 30
0.0
 11
397.3090233293741
 21
40.499999999999993
 31
0.0
  0
LINE
  5
F2
  8
1
 62
     7
 10
404.2697928448332
 20
39.899999999999977
 30
0.0
 11
403.0964516498542
 21
39.899999999999977
 31
0.0
  0
LINE
  5
F3
  8
1
 62
     7
 10
403.2305623602922
 20
40.499999999999993
 30
0.0
 11
404.2697928448332
 21
39.899999999999977
 31
0.0
  0
LINE
  5
F4
  8
1
  6
DASHED
 62
     3
 10
435.63167306018511
 20
3.2000000000000441
 30
0.0
 11
428.46979284483331
 21
3.2000000000000441
 31
0.0
  0
LINE
  5
F5
  8
1
  6
DASHED
 62
     3
 10
435.63167306018511
 20
-3.2000000000000441
 30
0.0
 11
428.46979284483331
 21
-3.2000000000000441
 31
0.0
  0
LINE
  5
F6
  8
1
  6
DASHED
 62
     7
 10
427.76979284483332
 20
2.5
 30
0.0
 11
429.2697928448332
 21
4.0
 31
0.0
  0
LINE
  5
F7
  8
1
  6
DASHED
 62
     7
 10
427.76979284483332
 20
-2.5
 30
0.0
 11
427.76979284483332
 21
2.5
 31
0.0
  0
LINE
  5
F8
  8
1
  6
DASHED
 62
     7
 10
429.2697928448332
 20
-4.0
 30
0.0
 11
427.76979284483332
 21
-2.5
 31
0.0
  0
LINE
  5
F9
  8
1
  6
DASHED
 62
     7
 10
429.2697928448332
 20
4.0
 30
0.0
 11
435.1697928448333
 21
4.0
 31
0.0
  0
LINE
  5
FA
  8
1
  6
DASHED
 62
     7
 10
429.2697928448332
 20
-4.0
 30
0.0
 11
429.2697928448332
 21
4.0
 31
0.0
  0
LINE
  5
FB
  8
1
  6
DASHED
 62
     7
 10
435.1697928448333
 20
-4.0
 30
0.0
 11
429.2697928448332
 21
-4.0
 31
0.0
  0
LINE
  5
FC
  8
1
  6
DASHED
 62
     7
 10
435.76979284483332
 20
2.9607695154586509
 30
0.0
 11
435.76979284483332
 21
-2.9607695154586509
 31
0.0
  0
LINE
  5
FD
  8
1
  6
DASHED
 62
     7
 10
435.1697928448333
 20
4.0
 30
0.0
 11
435.76979284483332
 21
2.9607695154586509
 31
0.0
  0
LINE
  5
FE
  8
1
  6
DASHED
 62
     7
 10
435.1697928448333
 20
-4.0
 30
0.0
 11
435.1697928448333
 21
4.0
 31
0.0
  0
LINE
  5
FF
  8
1
  6
DASHED
 62
     7
 10
435.76979284483332
 20
-2.9607695154586509
 30
0.0
 11
435.1697928448333
 21
-4.0
 31
0.0
  0
LINE
  5
100
  8
1
 62
     7
 10
392.26979284483332
 20
32.5
 30
0.0
 11
392.26979284483332
 21
26.310644233845782
 31
0.0
  0
LINE
  5
101
  8
1
 62
     7
 10
408.2697928448332
 20
32.5
 30
0.0
 11
392.26979284483332
 21
32.5
 31
0.0
  0
LINE
  5
102
  8
1
 62
     7
 10
408.2697928448332
 20
26.310644233845782
 30
0.0
 11
408.2697928448332
 21
32.5
 31
0.0
  0
LINE
  5
103
  8
1
 62
     7
 10
299.27269679489331
 20
173.7321017754102
 30
0.0
 11
300.77269679489331
 21
171.13402556405691
 31
0.0
  0
LINE
  5
104
  8
1
 62
     7
 10
300.59949171413632
 20
171.03402556405689
 30
0.0
 11
299.09949171413632
 21
173.63210177541001
 31
0.0
  0
LINE
  5
105
  8
1
 62
     7
 10
298.92628663337928
 20
173.5321017754101
 30
0.0
 11
300.42628663337928
 21
170.93402556405681
 31
0.0
  0
LINE
  5
106
  8
1
 62
     7
 10
300.25308155262212
 20
170.83402556405679
 30
0.0
 11
298.75308155262212
 21
173.4321017754099
 31
0.0
  0
LINE
  5
107
  8
1
 62
     7
 10
298.57987647186508
 20
173.33210177541
 30
0.0
 11
300.07987647186519
 21
170.73402556405679
 31
0.0
  0
LINE
  5
108
  8
1
 62
     7
 10
299.5602612295952
 20
170.43402556405681
 30
0.0
 11
301.29231203716432
 21
171.43402556405681
 31
0.0
  0
LINE
  5
109
  8
1
 62
     7
 10
299.5602612295952
 20
170.43402556405681
 30
0.0
 11
330.29506843782133
 21
117.19977791857291
 31
0.0
  0
LINE
  5
10A
  8
1
 62
     7
 10
301.0047476024622
 20
174.73210177541
 30
0.0
 11
302.5047476024622
 21
172.13402556405671
 31
0.0
  0
LINE
  5
10B
  8
1
 62
     7
 10
302.33154252170527
 20
172.0340255640568
 30
0.0
 11
300.83154252170539
 21
174.63210177541001
 31
0.0
  0
LINE
  5
10C
  8
1
 62
     7
 10
300.65833744094817
 20
174.53210177541001
 30
0.0
 11
302.15833744094829
 21
171.93402556405681
 31
0.0
  0
LINE
  5
10D
  8
1
 62
     7
 10
301.98513236019119
 20
171.83402556405679
 30
0.0
 11
300.4851323601913
 21
174.4321017754099
 31
0.0
  0
LINE
  5
10E
  8
1
 62
     7
 10
300.31192727943431
 20
174.33210177541
 30
0.0
 11
301.81192727943431
 21
171.73402556405659
 31
0.0
  0
LINE
  5
10F
  8
1
 62
     7
 10
301.29231203716432
 20
171.43402556405681
 30
0.0
 11
303.02436284473328
 21
172.43402556405681
 31
0.0
  0
LINE
  5
110
  8
1
 62
     7
 10
113.3
 20
-64.5
 30
0.0
 11
113.3
 21
-73.149999999999963
 31
0.0
  0
LINE
  5
111
  8
1
 62
     7
 10
135.00000000000031
 20
-55.5
 30
0.0
 11
138.2000000000003
 21
-55.5
 31
0.0
  0
LINE
  5
112
  8
1
 62
     3
 10
125.0
 20
-56.5
 30
0.0
 11
106.2999999999999
 21
-56.5
 31
0.0
  0
LINE
  5
113
  8
1
 62
     3
 10
125.0
 20
-64.5
 30
0.0
 11
106.2999999999999
 21
-64.5
 31
0.0
  0
LINE
  5
114
  8
1
 62
     7
 10
125.0
 20
-65.5
 30
0.0
 11
107.2999999999999
 21
-65.5
 31
0.0
  0
LINE
  5
115
  8
1
 62
     7
 10
133.87416697508019
 20
-71.450000000000045
 30
0.0
 11
125.0
 21
-71.450000000000045
 31
0.0
  0
LINE
  5
116
  8
1
 62
     7
 10
133.87416697508019
 20
-65.975000000000023
 30
0.0
 11
125.0
 21
-65.975000000000023
 31
0.0
  0
LINE
  5
117
  8
1
 62
     7
 10
133.87416697508019
 20
-55.024999999999977
 30
0.0
 11
125.0
 21
-55.024999999999977
 31
0.0
  0
LINE
  5
118
  8
1
 62
     7
 10
133.87416697508019
 20
-49.549999999999947
 30
0.0
 11
125.0
 21
-49.549999999999947
 31
0.0
  0
LINE
  5
119
  8
1
 62
     7
 10
135.00000000000031
 20
-52.287500000000009
 30
0.0
 11
135.00000000000031
 21
-68.712499999999977
 31
0.0
  0
LINE
  5
11A
  8
1
 62
     3
 10
138.77735026918921
 20
-56.5
 30
0.0
 11
135.00000000000031
 21
-56.5
 31
0.0
  0
LINE
  5
11B
  8
1
 62
     3
 10
138.77735026918921
 20
-64.5
 30
0.0
 11
135.00000000000031
 21
-64.5
 31
0.0
  0
LINE
  5
11C
  8
1
 62
     7
 10
107.2999999999999
 20
-65.5
 30
0.0
 11
107.2999999999999
 21
-55.5
 31
0.0
  0
LINE
  5
11D
  8
1
 62
     7
 10
107.2999999999999
 20
-55.5
 30
0.0
 11
125.0
 21
-55.5
 31
0.0
  0
LINE
  5
11E
  8
1
 62
     7
 10
105.8
 20
-57.0
 30
0.0
 11
107.2999999999999
 21
-55.5
 31
0.0
  0
LINE
  5
11F
  8
1
 62
     7
 10
107.2999999999999
 20
-65.5
 30
0.0
 11
105.8
 21
-64.0
 31
0.0
  0
LINE
  5
120
  8
1
 62
     7
 10
138.2000000000003
 20
-65.5
 30
0.0
 11
135.00000000000031
 21
-65.5
 31
0.0
  0
LINE
  5
121
  8
1
 62
     7
 10
139.00000000000031
 20
-56.885640646055087
 30
0.0
 11
139.00000000000031
 21
-64.114359353944906
 31
0.0
  0
LINE
  5
122
  8
1
 62
     7
 10
138.2000000000003
 20
-55.5
 30
0.0
 11
139.00000000000031
 21
-56.885640646055087
 31
0.0
  0
LINE
  5
123
  8
1
 62
     7
 10
138.2000000000003
 20
-65.5
 30
0.0
 11
138.2000000000003
 21
-55.5
 31
0.0
  0
LINE
  5
124
  8
1
 62
     7
 10
139.00000000000031
 20
-64.114359353944906
 30
0.0
 11
138.2000000000003
 21
-65.5
 31
0.0
  0
LINE
  5
125
  8
1
 62
     7
 10
113.3
 20
-47.850000000000009
 30
0.0
 11
113.3
 21
-56.5
 31
0.0
  0
LINE
  5
126
  8
1
 62
     7
 10
113.3
 20
-73.149999999999963
 30
0.0
 11
50.299999999999947
 21
-73.149999999999963
 31
0.0
  0
LINE
  5
127
  8
1
 62
     7
 10
113.3
 20
-47.850000000000009
 30
0.0
 11
50.299999999999947
 21
-47.850000000000009
 31
0.0
  0
LINE
  5
128
  8
1
 62
     7
 10
101.59999999999999
 20
-48.0
 30
0.0
 11
101.59999999999999
 21
-72.999999999999901
 31
0.0
  0
LINE
  5
129
  8
1
 62
     7
 10
105.8
 20
-48.0
 30
0.0
 11
101.59999999999999
 21
-48.0
 31
0.0
  0
LINE
  5
12A
  8
1
 62
     7
 10
105.8
 20
-72.999999999999901
 30
0.0
 11
105.8
 21
-48.0
 31
0.0
  0
LINE
  5
12B
  8
1
 62
     7
 10
101.59999999999999
 20
-72.999999999999901
 30
0.0
 11
105.8
 21
-72.999999999999901
 31
0.0
  0
LINE
  5
12C
  8
1
 62
     7
 10
0.0
 20
-131.0
 30
0.0
 11
0.0
 21
-137.0
 31
0.0
  0
LINE
  5
12D
  8
1
 62
     7
 10
15.0
 20
-119.0
 30
0.0
 11
-15.79999999999994
 21
-119.0
 31
0.0
  0
LINE
  5
12E
  8
1
 62
     7
 10
0.0
 20
-131.49999999999989
 30
0.0
 11
15.0
 21
-131.49999999999989
 31
0.0
  0
LINE
  5
12F
  8
1
 62
     7
 10
0.0
 20
-118.5
 30
0.0
 11
15.0
 21
-118.5
 31
0.0
  0
LINE
  5
130
  8
1
  6
DASHDOT
 62
     3
 10
36.432381848263717
 20
-125.0
 30
0.0
 11
-23.032566813169751
 21
-125.0
 31
0.0
  0
LINE
  5
131
  8
1
 62
     3
 10
13.0
 20
-119.0
 30
0.0
 11
13.0
 21
-131.0
 31
0.0
  0
LINE
  5
132
  8
1
 62
     3
 10
13.0
 20
-129.80000000000001
 30
0.0
 11
15.0
 21
-130.9547005383792
 31
0.0
  0
LINE
  5
133
  8
1
 62
     3
 10
-17.0
 20
-129.80000000000001
 30
0.0
 11
13.0
 21
-129.80000000000001
 31
0.0
  0
LINE
  5
134
  8
1
 62
     3
 10
13.0
 20
-120.1999999999999
 30
0.0
 11
15.0
 21
-119.0452994616207
 31
0.0
  0
LINE
  5
135
  8
1
 62
     3
 10
-17.0
 20
-120.1999999999999
 30
0.0
 11
13.0
 21
-120.1999999999999
 31
0.0
  0
LINE
  5
136
  8
1
 62
     7
 10
-15.79999999999994
 20
-119.0
 30
0.0
 11
-15.79999999999994
 21
-131.0
 31
0.0
  0
LINE
  5
137
  8
1
 62
     7
 10
-15.79999999999994
 20
-131.0
 30
0.0
 11
15.0
 21
-131.0
 31
0.0
  0
LINE
  5
138
  8
1
 62
     7
 10
-17.0
 20
-129.80000000000001
 30
0.0
 11
-15.79999999999994
 21
-131.0
 31
0.0
  0
LINE
  5
139
  8
1
 62
     7
 10
-17.0
 20
-120.1999999999999
 30
0.0
 11
-17.0
 21
-129.80000000000001
 31
0.0
  0
LINE
  5
13A
  8
1
 62
     7
 10
-15.79999999999994
 20
-119.0
 30
0.0
 11
-17.0
 21
-120.1999999999999
 31
0.0
  0
LINE
  5
13B
  8
1
 62
     7
 10
29.29999999999994
 20
-116.0
 30
0.0
 11
29.29999999999994
 21
-134.0
 31
0.0
  0
LINE
  5
13C
  8
1
 62
     7
 10
29.29999999999994
 20
-134.0
 30
0.0
 11
18.0
 21
-134.0
 31
0.0
  0
LINE
  5
13D
  8
1
 62
     7
 10
30.0
 20
-132.78756443470181
 30
0.0
 11
29.29999999999994
 21
-134.0
 31
0.0
  0
LINE
  5
13E
  8
1
 62
     7
 10
30.0
 20
-117.21243556529809
 30
0.0
 11
30.0
 21
-132.78756443470181
 31
0.0
  0
LINE
  5
13F
  8
1
 62
     7
 10
29.29999999999994
 20
-116.0
 30
0.0
 11
30.0
 21
-117.21243556529809
 31
0.0
  0
LINE
  5
140
  8
1
 62
     7
 10
18.0
 20
-116.0
 30
0.0
 11
29.29999999999994
 21
-116.0
 31
0.0
  0
LINE
  5
141
  8
1
 62
     7
 10
18.0
 20
-135.74999999999989
 30
0.0
 11
15.0
 21
-135.74999999999989
 31
0.0
  0
LINE
  5
142
  8
1
 62
     7
 10
18.0
 20
-114.25
 30
0.0
 11
18.0
 21
-135.74999999999989
 31
0.0
  0
LINE
  5
143
  8
1
 62
     7
 10
15.0
 20
-114.25
 30
0.0
 11
18.0
 21
-114.25
 31
0.0
  0
LINE
  5
144
  8
1
 62
     7
 10
15.0
 20
-128.0
 30
0.0
 11
18.0
 21
-125.0
 31
0.0
  0
LINE
  5
145
  8
1
 62
     7
 10
15.0
 20
-125.0
 30
0.0
 11
18.0
 21
-122.0
 31
0.0
  0
LINE
  5
146
  8
1
 62
     7
 10
31.0
 20
-113.0
 30
0.0
 11
49.799999999999947
 21
-113.0
 31
0.0
  0
LINE
  5
147
  8
1
 62
     7
 10
50.299999999999947
 20
-47.850000000000009
 30
0.0
 11
50.299999999999947
 21
-40.000000000000227
 31
0.0
  0
LINE
  5
148
  8
1
 62
     7
 10
50.450000000000053
 20
-54.25
 30
0.0
 11
49.799999999999947
 21
-60.5
 31
0.0
  0
LINE
  5
149
  8
1
 62
     7
 10
99.950000000000045
 20
-66.75
 30
0.0
 11
101.59999999999999
 21
-60.5
 31
0.0
  0
LINE
  5
14A
  8
1
 62
     7
 10
96.649999999999991
 20
-66.75
 30
0.0
 11
99.950000000000045
 21
-54.25
 31
0.0
  0
LINE
  5
14B
  8
1
 62
     7
 10
93.350000000000023
 20
-66.75
 30
0.0
 11
96.649999999999991
 21
-54.25
 31
0.0
  0
LINE
  5
14C
  8
1
 62
     7
 10
90.049999999999969
 20
-66.75
 30
0.0
 11
93.350000000000023
 21
-54.25
 31
0.0
  0
LINE
  5
14D
  8
1
 62
     7
 10
86.75
 20
-66.75
 30
0.0
 11
90.049999999999969
 21
-54.25
 31
0.0
  0
LINE
  5
14E
  8
1
 62
     7
 10
83.450000000000045
 20
-66.75
 30
0.0
 11
86.75
 21
-54.25
 31
0.0
  0
LINE
  5
14F
  8
1
 62
     7
 10
80.149999999999977
 20
-66.75
 30
0.0
 11
83.450000000000045
 21
-54.25
 31
0.0
  0
LINE
  5
150
  8
1
 62
     7
 10
76.850000000000023
 20
-66.75
 30
0.0
 11
80.149999999999977
 21
-54.25
 31
0.0
  0
LINE
  5
151
  8
1
 62
     7
 10
73.549999999999955
 20
-66.75
 30
0.0
 11
76.850000000000023
 21
-54.25
 31
0.0
  0
LINE
  5
152
  8
1
 62
     7
 10
70.25
 20
-66.75
 30
0.0
 11
73.549999999999955
 21
-54.25
 31
0.0
  0
LINE
  5
153
  8
1
 62
     7
 10
66.950000000000045
 20
-66.75
 30
0.0
 11
70.25
 21
-54.25
 31
0.0
  0
LINE
  5
154
  8
1
 62
     7
 10
63.649999999999977
 20
-66.75
 30
0.0
 11
66.950000000000045
 21
-54.25
 31
0.0
  0
LINE
  5
155
  8
1
 62
     7
 10
60.350000000000009
 20
-66.75
 30
0.0
 11
63.649999999999977
 21
-54.25
 31
0.0
  0
LINE
  5
156
  8
1
 62
     7
 10
57.049999999999947
 20
-66.75
 30
0.0
 11
60.350000000000009
 21
-54.25
 31
0.0
  0
LINE
  5
157
  8
1
 62
     7
 10
53.75
 20
-66.75
 30
0.0
 11
57.049999999999947
 21
-54.25
 31
0.0
  0
LINE
  5
158
  8
1
 62
     7
 10
50.450000000000053
 20
-66.75
 30
0.0
 11
53.75
 21
-54.25
 31
0.0
  0
LINE
  5
159
  8
1
 62
     7
 10
50.450000000000053
 20
-66.75
 30
0.0
 11
49.799999999999947
 21
-66.749999999999901
 31
0.0
  0
LINE
  5
15A
  8
1
 62
     7
 10
50.450000000000053
 20
-73.0
 30
0.0
 11
50.450000000000053
 21
-66.75
 31
0.0
  0
LINE
  5
15B
  8
1
 62
     7
 10
49.799999999999947
 20
-72.999999999999901
 30
0.0
 11
50.450000000000053
 21
-73.0
 31
0.0
  0
LINE
  5
15C
  8
1
 62
     7
 10
53.75
 20
-66.75
 30
0.0
 11
53.75
 21
-73.0
 31
0.0
  0
LINE
  5
15D
  8
1
 62
     7
 10
57.049999999999947
 20
-66.75
 30
0.0
 11
53.75
 21
-66.75
 31
0.0
  0
LINE
  5
15E
  8
1
 62
     7
 10
57.049999999999947
 20
-73.0
 30
0.0
 11
57.049999999999947
 21
-66.75
 31
0.0
  0
LINE
  5
15F
  8
1
 62
     7
 10
53.75
 20
-73.0
 30
0.0
 11
57.049999999999947
 21
-73.0
 31
0.0
  0
LINE
  5
160
  8
1
 62
     7
 10
60.350000000000009
 20
-66.75
 30
0.0
 11
60.350000000000009
 21
-73.0
 31
0.0
  0
LINE
  5
161
  8
1
 62
     7
 10
63.649999999999977
 20
-66.75
 30
0.0
 11
60.350000000000009
 21
-66.75
 31
0.0
  0
LINE
  5
162
  8
1
 62
     7
 10
63.649999999999977
 20
-73.0
 30
0.0
 11
63.649999999999977
 21
-66.75
 31
0.0
  0
LINE
  5
163
  8
1
 62
     7
 10
60.350000000000009
 20
-73.0
 30
0.0
 11
63.649999999999977
 21
-73.0
 31
0.0
  0
LINE
  5
164
  8
1
 62
     7
 10
66.950000000000045
 20
-66.75
 30
0.0
 11
66.950000000000045
 21
-73.0
 31
0.0
  0
LINE
  5
165
  8
1
 62
     7
 10
70.25
 20
-66.75
 30
0.0
 11
66.950000000000045
 21
-66.75
 31
0.0
  0
LINE
  5
166
  8
1
 62
     7
 10
70.25
 20
-73.0
 30
0.0
 11
70.25
 21
-66.75
 31
0.0
  0
LINE
  5
167
  8
1
 62
     7
 10
66.950000000000045
 20
-73.0
 30
0.0
 11
70.25
 21
-73.0
 31
0.0
  0
LINE
  5
168
  8
1
 62
     7
 10
76.850000000000023
 20
-73.0
 30
0.0
 11
76.850000000000023
 21
-66.75
 31
0.0
  0
LINE
  5
169
  8
1
 62
     7
 10
73.549999999999955
 20
-73.0
 30
0.0
 11
76.850000000000023
 21
-73.0
 31
0.0
  0
LINE
  5
16A
  8
1
 62
     7
 10
73.549999999999955
 20
-66.75
 30
0.0
 11
73.549999999999955
 21
-73.0
 31
0.0
  0
LINE
  5
16B
  8
1
 62
     7
 10
76.850000000000023
 20
-66.75
 30
0.0
 11
73.549999999999955
 21
-66.75
 31
0.0
  0
LINE
  5
16C
  8
1
 62
     7
 10
80.149999999999977
 20
-66.75
 30
0.0
 11
80.149999999999977
 21
-73.0
 31
0.0
  0
LINE
  5
16D
  8
1
 62
     7
 10
83.450000000000045
 20
-66.75
 30
0.0
 11
80.149999999999977
 21
-66.75
 31
0.0
  0
LINE
  5
16E
  8
1
 62
     7
 10
83.450000000000045
 20
-73.0
 30
0.0
 11
83.450000000000045
 21
-66.75
 31
0.0
  0
LINE
  5
16F
  8
1
 62
     7
 10
80.149999999999977
 20
-73.0
 30
0.0
 11
83.450000000000045
 21
-73.0
 31
0.0
  0
LINE
  5
170
  8
1
 62
     7
 10
86.75
 20
-66.75
 30
0.0
 11
86.75
 21
-73.0
 31
0.0
  0
LINE
  5
171
  8
1
 62
     7
 10
90.049999999999969
 20
-66.75
 30
0.0
 11
86.75
 21
-66.75
 31
0.0
  0
LINE
  5
172
  8
1
 62
     7
 10
90.049999999999969
 20
-73.0
 30
0.0
 11
90.049999999999969
 21
-66.75
 31
0.0
  0
LINE
  5
173
  8
1
 62
     7
 10
86.75
 20
-73.0
 30
0.0
 11
90.049999999999969
 21
-73.0
 31
0.0
  0
LINE
  5
174
  8
1
 62
     7
 10
99.950000000000045
 20
-66.75
 30
0.0
 11
101.59999999999999
 21
-66.749999999999901
 31
0.0
  0
LINE
  5
175
  8
1
 62
     7
 10
99.950000000000045
 20
-73.0
 30
0.0
 11
99.950000000000045
 21
-66.75
 31
0.0
  0
LINE
  5
176
  8
1
 62
     7
 10
101.59999999999999
 20
-72.999999999999901
 30
0.0
 11
99.950000000000045
 21
-73.0
 31
0.0
  0
LINE
  5
177
  8
1
 62
     7
 10
96.649999999999991
 20
-73.0
 30
0.0
 11
96.649999999999991
 21
-66.75
 31
0.0
  0
LINE
  5
178
  8
1
 62
     7
 10
93.350000000000023
 20
-73.0
 30
0.0
 11
96.649999999999991
 21
-73.0
 31
0.0
  0
LINE
  5
179
  8
1
 62
     7
 10
93.350000000000023
 20
-66.75
 30
0.0
 11
93.350000000000023
 21
-73.0
 31
0.0
  0
LINE
  5
17A
  8
1
 62
     7
 10
96.649999999999991
 20
-66.75
 30
0.0
 11
93.350000000000023
 21
-66.75
 31
0.0
  0
LINE
  5
17B
  8
1
 62
     7
 10
96.649999999999991
 20
-47.999999999999893
 30
0.0
 11
96.649999999999991
 21
-54.25
 31
0.0
  0
LINE
  5
17C
  8
1
 62
     7
 10
99.950000000000045
 20
-47.999999999999893
 30
0.0
 11
96.649999999999991
 21
-47.999999999999893
 31
0.0
  0
LINE
  5
17D
  8
1
 62
     7
 10
99.950000000000045
 20
-54.25
 30
0.0
 11
99.950000000000045
 21
-47.999999999999893
 31
0.0
  0
LINE
  5
17E
  8
1
 62
     7
 10
96.649999999999991
 20
-54.25
 30
0.0
 11
99.950000000000045
 21
-54.25
 31
0.0
  0
LINE
  5
17F
  8
1
 62
     7
 10
90.049999999999969
 20
-47.999999999999893
 30
0.0
 11
90.049999999999969
 21
-54.25
 31
0.0
  0
LINE
  5
180
  8
1
 62
     7
 10
93.350000000000023
 20
-47.999999999999893
 30
0.0
 11
90.049999999999969
 21
-47.999999999999893
 31
0.0
  0
LINE
  5
181
  8
1
 62
     7
 10
93.350000000000023
 20
-54.25
 30
0.0
 11
93.350000000000023
 21
-47.999999999999893
 31
0.0
  0
LINE
  5
182
  8
1
 62
     7
 10
90.049999999999969
 20
-54.25
 30
0.0
 11
93.350000000000023
 21
-54.25
 31
0.0
  0
LINE
  5
183
  8
1
 62
     7
 10
83.450000000000045
 20
-47.999999999999893
 30
0.0
 11
83.450000000000045
 21
-54.25
 31
0.0
  0
LINE
  5
184
  8
1
 62
     7
 10
86.75
 20
-47.999999999999893
 30
0.0
 11
83.450000000000045
 21
-47.999999999999893
 31
0.0
  0
LINE
  5
185
  8
1
 62
     7
 10
86.75
 20
-54.25
 30
0.0
 11
86.75
 21
-47.999999999999893
 31
0.0
  0
LINE
  5
186
  8
1
 62
     7
 10
83.450000000000045
 20
-54.25
 30
0.0
 11
86.75
 21
-54.25
 31
0.0
  0
LINE
  5
187
  8
1
 62
     7
 10
76.850000000000023
 20
-47.999999999999893
 30
0.0
 11
76.850000000000023
 21
-54.25
 31
0.0
  0
LINE
  5
188
  8
1
 62
     7
 10
80.149999999999977
 20
-47.999999999999893
 30
0.0
 11
76.850000000000023
 21
-47.999999999999893
 31
0.0
  0
LINE
  5
189
  8
1
 62
     7
 10
80.149999999999977
 20
-54.25
 30
0.0
 11
80.149999999999977
 21
-47.999999999999893
 31
0.0
  0
LINE
  5
18A
  8
1
 62
     7
 10
76.850000000000023
 20
-54.25
 30
0.0
 11
80.149999999999977
 21
-54.25
 31
0.0
  0
LINE
  5
18B
  8
1
 62
     7
 10
70.25
 20
-47.999999999999893
 30
0.0
 11
70.25
 21
-54.25
 31
0.0
  0
LINE
  5
18C
  8
1
 62
     7
 10
73.549999999999955
 20
-47.999999999999893
 30
0.0
 11
70.25
 21
-47.999999999999893
 31
0.0
  0
LINE
  5
18D
  8
1
 62
     7
 10
73.549999999999955
 20
-54.25
 30
0.0
 11
73.549999999999955
 21
-47.999999999999893
 31
0.0
  0
LINE
  5
18E
  8
1
 62
     7
 10
70.25
 20
-54.25
 30
0.0
 11
73.549999999999955
 21
-54.25
 31
0.0
  0
LINE
  5
18F
  8
1
 62
     7
 10
63.649999999999977
 20
-47.999999999999893
 30
0.0
 11
63.649999999999977
 21
-54.25
 31
0.0
  0
LINE
  5
190
  8
1
 62
     7
 10
66.950000000000045
 20
-47.999999999999893
 30
0.0
 11
63.649999999999977
 21
-47.999999999999893
 31
0.0
  0
LINE
  5
191
  8
1
 62
     7
 10
66.950000000000045
 20
-54.25
 30
0.0
 11
66.950000000000045
 21
-47.999999999999893
 31
0.0
  0
LINE
  5
192
  8
1
 62
     7
 10
63.649999999999977
 20
-54.25
 30
0.0
 11
66.950000000000045
 21
-54.25
 31
0.0
  0
LINE
  5
193
  8
1
 62
     7
 10
57.049999999999947
 20
-47.999999999999893
 30
0.0
 11
57.049999999999947
 21
-54.25
 31
0.0
  0
LINE
  5
194
  8
1
 62
     7
 10
60.350000000000009
 20
-47.999999999999893
 30
0.0
 11
57.049999999999947
 21
-47.999999999999893
 31
0.0
  0
LINE
  5
195
  8
1
 62
     7
 10
60.350000000000009
 20
-54.25
 30
0.0
 11
60.350000000000009
 21
-47.999999999999893
 31
0.0
  0
LINE
  5
196
  8
1
 62
     7
 10
57.049999999999947
 20
-54.25
 30
0.0
 11
60.350000000000009
 21
-54.25
 31
0.0
  0
LINE
  5
197
  8
1
 62
     7
 10
50.450000000000053
 20
-47.999999999999893
 30
0.0
 11
50.450000000000053
 21
-54.25
 31
0.0
  0
LINE
  5
198
  8
1
 62
     7
 10
53.75
 20
-47.999999999999893
 30
0.0
 11
50.450000000000053
 21
-47.999999999999893
 31
0.0
  0
LINE
  5
199
  8
1
 62
     7
 10
53.75
 20
-54.25
 30
0.0
 11
53.75
 21
-47.999999999999893
 31
0.0
  0
LINE
  5
19A
  8
1
 62
     7
 10
50.450000000000053
 20
-54.25
 30
0.0
 11
53.75
 21
-54.25
 31
0.0
  0
LINE
  5
19B
  8
1
 62
     7
 10
50.299999999999947
 20
-110.0
 30
0.0
 11
50.299999999999947
 21
-73.149999999999963
 31
0.0
  0
LINE
  5
19C
  8
1
 62
     7
 10
19.399999999999981
 20
-75.0
 30
0.0
 11
19.399999999999981
 21
-44.100000000000009
 31
0.0
  0
LINE
  5
19D
  8
1
 62
     7
 10
26.600000000000009
 20
-75.0
 30
0.0
 11
26.600000000000009
 21
-44.100000000000009
 31
0.0
  0
LINE
  5
19E
  8
1
 62
     7
 10
14.99999999999976
 20
-40.0
 30
0.0
 11
15.0
 21
-137.0
 31
0.0
  0
LINE
  5
19F
  8
1
 62
     7
 10
115.0
 20
-135.9499999999999
 30
0.0
 11
115.0
 21
-114.05
 31
0.0
  0
LINE
  5
1A0
  8
1
 62
     7
 10
31.0
 20
-53.0
 30
0.0
 11
39.0
 21
-45.0
 31
0.0
  0
LINE
  5
1A1
  8
1
 62
     7
 10
39.0
 20
-45.0
 30
0.0
 11
39.0
 21
-40.000000000000227
 31
0.0
  0
LINE
  5
1A2
  8
1
 62
     7
 10
39.0
 20
-45.0
 30
0.0
 11
49.799999999999947
 21
-45.0
 31
0.0
  0
LINE
  5
1A3
  8
1
 62
     7
 10
26.600000000000009
 20
-45.0
 30
0.0
 11
19.399999999999981
 21
-45.0
 31
0.0
  0
LINE
  5
1A4
  8
1
 62
     7
 10
26.600000000000009
 20
-48.600000000000023
 30
0.0
 11
19.399999999999981
 21
-48.600000000000023
 31
0.0
  0
LINE
  5
1A5
  8
1
 62
     7
 10
31.0
 20
-75.0
 30
0.0
 11
25.79999999999994
 21
-75.0
 31
0.0
  0
LINE
  5
1A6
  8
1
 62
     7
 10
25.79999999999994
 20
-75.0
 30
0.0
 11
25.79999999999994
 21
-112.0
 31
0.0
  0
LINE
  5
1A7
  8
1
 62
     7
 10
20.200000000000038
 20
-112.0
 30
0.0
 11
20.200000000000038
 21
-75.0
 31
0.0
  0
LINE
  5
1A8
  8
1
 62
     7
 10
20.200000000000038
 20
-75.0
 30
0.0
 11
0.0
 21
-75.0
 31
0.0
  0
LINE
  5
1A9
  8
1
 62
     7
 10
14.5
 20
-137.5
 30
0.0
 11
0.5
 21
-137.5
 31
0.0
  0
LINE
  5
1AA
  8
1
 62
     7
 10
49.299999999999962
 20
-137.5
 30
0.0
 11
31.5
 21
-137.5
 31
0.0
  0
LINE
  5
1AB
  8
1
 62
     7
 10
31.0
 20
-112.0
 30
0.0
 11
15.0
 21
-112.0
 31
0.0
  0
LINE
  5
1AC
  8
1
 62
     7
 10
124.5
 20
-136.49999999999989
 30
0.0
 11
115.5
 21
-136.49999999999989
 31
0.0
  0
LINE
  5
1AD
  8
1
 62
     7
 10
125.0
 20
-45.0
 30
0.0
 11
50.299999999999947
 21
-45.0
 31
0.0
  0
LINE
  5
1AE
  8
1
 62
     7
 10
125.0
 20
135.99999999999989
 30
0.0
 11
125.0
 21
-136.0
 31
0.0
  0
LINE
  5
1AF
  8
1
 62
     7
 10
115.0
 20
-110.0
 30
0.0
 11
50.299999999999947
 21
-110.0
 31
0.0
  0
LINE
  5
1B0
  8
1
 62
     7
 10
50.299999999999947
 20
109.9999999999998
 30
0.0
 11
115.0
 21
109.9999999999998
 31
0.0
  0
LINE
  5
1B1
  8
1
 62
     7
 10
50.299999999999947
 20
45.0
 30
0.0
 11
125.0
 21
45.0
 31
0.0
  0
LINE
  5
1B2
  8
1
 62
     7
 10
115.5
 20
136.49999999999989
 30
0.0
 11
124.5
 21
136.49999999999989
 31
0.0
  0
LINE
  5
1B3
  8
1
 62
     7
 10
15.0
 20
111.9999999999998
 30
0.0
 11
31.0
 21
111.9999999999998
 31
0.0
  0
LINE
  5
1B4
  8
1
 62
     7
 10
49.299999999999962
 20
137.49999999999989
 30
0.0
 11
31.5
 21
137.49999999999989
 31
0.0
  0
LINE
  5
1B5
  8
1
 62
     7
 10
31.0
 20
135.99999999999989
 30
0.0
 11
31.0
 21
136.99999999999989
 31
0.0
  0
LINE
  5
1B6
  8
1
 62
     7
 10
15.0
 20
113.9999999999999
 30
0.0
 11
15.0
 21
-114.0000000000002
 31
0.0
  0
LINE
  5
1B7
  8
1
 62
     7
 10
14.5
 20
137.49999999999989
 30
0.0
 11
0.5
 21
137.49999999999989
 31
0.0
  0
LINE
  5
1B8
  8
1
 62
     7
 10
0.0
 20
136.99999999999989
 30
0.0
 11
0.0
 21
-119.0
 31
0.0
  0
LINE
  5
1B9
  8
1
 62
     7
 10
0.0
 20
75.0
 30
0.0
 11
20.200000000000038
 21
75.0
 31
0.0
  0
LINE
  5
1BA
  8
1
 62
     7
 10
20.200000000000038
 20
75.0
 30
0.0
 11
20.200000000000038
 21
111.9999999999998
 31
0.0
  0
LINE
  5
1BB
  8
1
 62
     7
 10
25.79999999999994
 20
111.9999999999998
 30
0.0
 11
25.79999999999994
 21
75.0
 31
0.0
  0
LINE
  5
1BC
  8
1
 62
     7
 10
25.79999999999994
 20
75.0
 30
0.0
 11
31.0
 21
75.0
 31
0.0
  0
LINE
  5
1BD
  8
1
 62
     7
 10
19.399999999999981
 20
48.600000000000023
 30
0.0
 11
26.600000000000009
 21
48.600000000000023
 31
0.0
  0
LINE
  5
1BE
  8
1
 62
     7
 10
19.399999999999981
 20
45.0
 30
0.0
 11
26.600000000000009
 21
45.0
 31
0.0
  0
LINE
  5
1BF
  8
1
 62
     7
 10
49.799999999999947
 20
45.0
 30
0.0
 11
39.0
 21
45.0
 31
0.0
  0
LINE
  5
1C0
  8
1
 62
     7
 10
39.0
 20
45.0
 30
0.0
 11
39.0
 21
40.0
 31
0.0
  0
LINE
  5
1C1
  8
1
 62
     7
 10
39.0
 20
45.0
 30
0.0
 11
31.0
 21
53.0
 31
0.0
  0
LINE
  5
1C2
  8
1
 62
     7
 10
13.0
 20
135.99999999999989
 30
0.0
 11
13.0
 21
113.9999999999999
 31
0.0
  0
LINE
  5
1C3
  8
1
 62
     7
 10
13.0
 20
113.9999999999999
 30
0.0
 11
52.0
 21
113.9999999999999
 31
0.0
  0
LINE
  5
1C4
  8
1
 62
     7
 10
52.0
 20
113.9999999999999
 30
0.0
 11
52.0
 21
135.99999999999989
 31
0.0
  0
LINE
  5
1C5
  8
1
 62
     7
 10
52.0
 20
135.99999999999989
 30
0.0
 11
13.0
 21
135.99999999999989
 31
0.0
  0
LINE
  5
1C6
  8
1
 62
     7
 10
31.0
 20
113.4999999999999
 30
0.0
 11
49.799999999999947
 21
113.4999999999999
 31
0.0
  0
LINE
  5
1C7
  8
1
 62
     7
 10
141.80000000000021
 20
130.99999999999989
 30
0.0
 11
143.00000000000031
 21
129.80000000000001
 31
0.0
  0
LINE
  5
1C8
  8
1
 62
     7
 10
143.00000000000031
 20
129.80000000000001
 30
0.0
 11
143.00000000000031
 21
120.1999999999999
 31
0.0
  0
LINE
  5
1C9
  8
1
 62
     7
 10
143.00000000000031
 20
120.1999999999999
 30
0.0
 11
141.80000000000021
 21
118.9999999999999
 31
0.0
  0
LINE
  5
1CA
  8
1
 62
     7
 10
141.80000000000021
 20
118.9999999999999
 30
0.0
 11
135.50000000000031
 21
118.9999999999999
 31
0.0
  0
LINE
  5
1CB
  8
1
 62
     7
 10
141.80000000000021
 20
130.99999999999989
 30
0.0
 11
141.80000000000021
 21
118.9999999999999
 31
0.0
  0
LINE
  5
1CC
  8
1
 62
     7
 10
134.0
 20
133.21250000000001
 30
0.0
 11
134.0
 21
116.78749999999989
 31
0.0
  0
LINE
  5
1CD
  8
1
 62
     7
 10
132.87416697508019
 20
135.9499999999999
 30
0.0
 11
125.0
 21
135.9499999999999
 31
0.0
  0
LINE
  5
1CE
  8
1
 62
     7
 10
132.87416697508019
 20
130.47499999999999
 30
0.0
 11
125.0
 21
130.47499999999999
 31
0.0
  0
LINE
  5
1CF
  8
1
 62
     7
 10
132.87416697508019
 20
119.52500000000001
 30
0.0
 11
125.0
 21
119.52500000000001
 31
0.0
  0
LINE
  5
1D0
  8
1
 62
     7
 10
132.87416697508019
 20
114.05
 30
0.0
 11
125.0
 21
114.05
 31
0.0
  0
LINE
  5
1D1
  8
1
 62
     7
 10
105.0
 20
116.78749999999989
 30
0.0
 11
105.0
 21
133.21250000000001
 31
0.0
  0
LINE
  5
1D2
  8
1
 62
     7
 10
106.1258330249198
 20
114.05
 30
0.0
 11
115.0
 21
114.05
 31
0.0
  0
LINE
  5
1D3
  8
1
 62
     7
 10
106.1258330249198
 20
119.52500000000001
 30
0.0
 11
115.0
 21
119.52500000000001
 31
0.0
  0
LINE
  5
1D4
  8
1
 62
     7
 10
106.1258330249198
 20
130.47499999999999
 30
0.0
 11
115.0
 21
130.47499999999999
 31
0.0
  0
LINE
  5
1D5
  8
1
 62
     7
 10
106.1258330249198
 20
135.9499999999999
 30
0.0
 11
115.0
 21
135.9499999999999
 31
0.0
  0
LINE
  5
1D6
  8
1
 62
     7
 10
61.0
 20
133.21250000000001
 30
0.0
 11
61.0
 21
116.78749999999989
 31
0.0
  0
LINE
  5
1D7
  8
1
 62
     7
 10
59.874166975080243
 20
135.9499999999999
 30
0.0
 11
52.0
 21
135.9499999999999
 31
0.0
  0
LINE
  5
1D8
  8
1
 62
     7
 10
59.874166975080243
 20
130.47499999999999
 30
0.0
 11
52.0
 21
130.47499999999999
 31
0.0
  0
LINE
  5
1D9
  8
1
 62
     7
 10
59.874166975080243
 20
119.52500000000001
 30
0.0
 11
52.0
 21
119.52500000000001
 31
0.0
  0
LINE
  5
1DA
  8
1
 62
     7
 10
59.874166975080243
 20
114.05
 30
0.0
 11
52.0
 21
114.05
 31
0.0
  0
LINE
  5
1DB
  8
1
 62
     7
 10
135.50000000000031
 20
131.71250000000001
 30
0.0
 11
135.50000000000031
 21
118.28749999999989
 31
0.0
  0
LINE
  5
1DC
  8
1
 62
     7
 10
62.5
 20
131.71250000000001
 30
0.0
 11
62.5
 21
118.28749999999989
 31
0.0
  0
LINE
  5
1DD
  8
1
 62
     7
 10
31.0
 20
113.9999999999999
 30
0.0
 11
31.0
 21
40.0
 31
0.0
  0
LINE
  5
1DE
  8
1
 62
     7
 10
15.0
 20
135.99999999999989
 30
0.0
 11
15.0
 21
136.99999999999989
 31
0.0
  0
LINE
  5
1DF
  8
1
 62
     7
 10
49.799999999999947
 20
135.99999999999989
 30
0.0
 11
49.799999999999947
 21
136.99999999999989
 31
0.0
  0
LINE
  5
1E0
  8
1
 62
     7
 10
49.799999999999947
 20
113.9999999999999
 30
0.0
 11
49.799999999999947
 21
45.0
 31
0.0
  0
LINE
  5
1E1
  8
1
 62
     3
 10
62.5
 20
129.80000000000001
 30
0.0
 11
105.0
 21
129.80000000000001
 31
0.0
  0
LINE
  5
1E2
  8
1
 62
     7
 10
62.5
 20
130.99999999999989
 30
0.0
 11
105.0
 21
130.99999999999989
 31
0.0
  0
LINE
  5
1E3
  8
1
 62
     3
 10
62.5
 20
120.1999999999999
 30
0.0
 11
105.0
 21
120.1999999999999
 31
0.0
  0
LINE
  5
1E4
  8
1
 62
     7
 10
105.0
 20
118.9999999999999
 30
0.0
 11
62.5
 21
118.9999999999999
 31
0.0
  0
LINE
  5
1E5
  8
1
 62
     3
 10
135.50000000000031
 20
120.1999999999999
 30
0.0
 11
143.00000000000031
 21
120.1999999999999
 31
0.0
  0
LINE
  5
1E6
  8
1
 62
     7
 10
135.50000000000031
 20
130.99999999999989
 30
0.0
 11
141.80000000000021
 21
130.99999999999989
 31
0.0
  0
LINE
  5
1E7
  8
1
 62
     3
 10
135.50000000000031
 20
129.80000000000001
 30
0.0
 11
143.00000000000031
 21
129.80000000000001
 31
0.0
  0
LINE
  5
1E8
  8
1
 62
     7
 10
28.0
 20
47.699999999999932
 30
0.0
 11
29.0
 21
46.699999999999932
 31
0.0
  0
LINE
  5
1E9
  8
1
 62
     7
 10
29.0
 20
46.699999999999932
 30
0.0
 11
29.0
 21
40.0
 31
0.0
  0
LINE
  5
1EA
  8
1
 62
     7
 10
29.0
 20
40.0
 30
0.0
 11
43.299999999999947
 21
40.0
 31
0.0
  0
LINE
  5
1EB
  8
1
 62
     7
 10
29.0
 20
44.100000000000009
 30
0.0
 11
15.0
 21
44.100000000000009
 31
0.0
  0
LINE
  5
1EC
  8
1
 62
     7
 10
16.0
 20
47.699999999999932
 30
0.0
 11
28.0
 21
47.699999999999932
 31
0.0
  0
LINE
  5
1ED
  8
1
 62
     7
 10
16.0
 20
47.699999999999932
 30
0.0
 11
15.0
 21
46.699999999999932
 31
0.0
  0
LINE
  5
1EE
  8
1
 62
     7
 10
75.0
 20
39.0
 30
0.0
 11
74.0
 21
40.0
 31
0.0
  0
LINE
  5
1EF
  8
1
 62
     7
 10
26.600000000000009
 20
44.100000000000009
 30
0.0
 11
26.600000000000009
 21
75.0
 31
0.0
  0
LINE
  5
1F0
  8
1
 62
     7
 10
19.399999999999981
 20
44.100000000000009
 30
0.0
 11
19.399999999999981
 21
75.0
 31
0.0
  0
LINE
  5
1F1
  8
1
 62
     7
 10
15.0
 20
27.5
 30
0.0
 11
75.0
 21
27.5
 31
0.0
  0
LINE
  5
1F2
  8
1
 62
     7
 10
50.299999999999947
 20
109.9999999999998
 30
0.0
 11
50.299999999999947
 21
40.399999999999977
 31
0.0
  0
LINE
  5
1F3
  8
1
 62
     7
 10
75.0
 20
32.5
 30
0.0
 11
15.0
 21
32.5
 31
0.0
  0
LINE
  5
1F4
  8
1
 62
     7
 10
43.0
 20
39.699999999999932
 30
0.0
 11
43.799999999999947
 21
40.499999999999993
 31
0.0
  0
LINE
  5
1F5
  8
1
 62
     7
 10
43.799999999999947
 20
40.499999999999993
 30
0.0
 11
50.200000000000038
 21
40.499999999999993
 31
0.0
  0
LINE
  5
1F6
  8
1
 62
     7
 10
50.200000000000038
 20
40.499999999999993
 30
0.0
 11
51.0
 21
39.699999999999932
 31
0.0
  0
LINE
  5
1F7
  8
1
 62
     7
 10
51.0
 20
39.699999999999932
 30
0.0
 11
51.0
 21
33.29999999999994
 31
0.0
  0
LINE
  5
1F8
  8
1
 62
     7
 10
51.0
 20
33.29999999999994
 30
0.0
 11
50.200000000000038
 21
32.5
 31
0.0
  0
LINE
  5
1F9
  8
1
 62
     7
 10
43.799999999999947
 20
32.5
 30
0.0
 11
43.0
 21
33.29999999999994
 31
0.0
  0
LINE
  5
1FA
  8
1
 62
     7
 10
43.0
 20
33.29999999999994
 30
0.0
 11
43.0
 21
39.699999999999932
 31
0.0
  0
LINE
  5
1FB
  8
1
 62
     7
 10
43.0
 20
39.699999999999932
 30
0.0
 11
51.0
 21
39.699999999999932
 31
0.0
  0
LINE
  5
1FC
  8
1
 62
     7
 10
51.0
 20
33.29999999999994
 30
0.0
 11
43.0
 21
33.29999999999994
 31
0.0
  0
LINE
  5
1FD
  8
1
 62
     3
 10
50.200000000000038
 20
40.499999999999993
 30
0.0
 11
50.200000000000038
 21
32.5
 31
0.0
  0
LINE
  5
1FE
  8
1
 62
     3
 10
43.799999999999947
 20
40.499999999999993
 30
0.0
 11
43.799999999999947
 21
32.5
 31
0.0
  0
LINE
  5
1FF
  8
1
 62
     3
 10
43.0
 20
33.29999999999994
 30
0.0
 11
43.0
 21
32.5
 31
0.0
  0
LINE
  5
200
  8
1
 62
     3
 10
51.0
 20
33.29999999999994
 30
0.0
 11
51.0
 21
32.5
 31
0.0
  0
LINE
  5
201
  8
1
 62
     3
 10
43.0
 20
39.699999999999932
 30
0.0
 11
43.0
 21
40.0
 31
0.0
  0
LINE
  5
202
  8
1
 62
     3
 10
51.0
 20
39.699999999999932
 30
0.0
 11
51.0
 21
40.0
 31
0.0
  0
LINE
  5
203
  8
1
 62
     7
 10
50.700000000000038
 20
40.0
 30
0.0
 11
74.0
 21
40.0
 31
0.0
  0
LINE
  5
204
  8
1
  6
DASHDOT
 62
     3
 10
47.0
 20
43.831834532374039
 30
0.0
 11
47.0
 21
25.399521408224249
 31
0.0
  0
LINE
  5
205
  8
1
 62
     7
 10
101.40000000000001
 20
171.73876272583729
 30
0.0
 11
101.40000000000001
 21
168.73876272583729
 31
0.0
  0
LINE
  5
206
  8
1
 62
     7
 10
101.2
 20
168.73876272583729
 30
0.0
 11
101.2
 21
171.73876272583729
 31
0.0
  0
LINE
  5
207
  8
1
 62
     7
 10
101.0
 20
171.73876272583729
 30
0.0
 11
101.0
 21
168.73876272583729
 31
0.0
  0
LINE
  5
208
  8
1
 62
     7
 10
100.8
 20
168.73876272583729
 30
0.0
 11
100.8
 21
171.73876272583729
 31
0.0
  0
LINE
  5
209
  8
1
 62
     7
 10
100.59999999999999
 20
171.73876272583729
 30
0.0
 11
100.59999999999999
 21
168.73876272583729
 31
0.0
  0
LINE
  5
20A
  8
1
 62
     7
 10
100.0
 20
168.73876272583729
 30
0.0
 11
102.0
 21
168.73876272583729
 31
0.0
  0
LINE
  5
20B
  8
1
 62
     7
 10
100.0
 20
168.73876272583729
 30
0.0
 11
100.0
 21
130.99999999999989
 31
0.0
  0
LINE
  5
20C
  8
1
 62
     7
 10
100.0
 20
118.9999999999999
 30
0.0
 11
100.0
 21
109.9999999999998
 31
0.0
  0
LINE
  5
20D
  8
1
 62
     7
 10
102.0
 20
109.9999999999998
 30
0.0
 11
102.0
 21
118.9999999999999
 31
0.0
  0
LINE
  5
20E
  8
1
 62
     7
 10
102.0
 20
130.99999999999989
 30
0.0
 11
102.0
 21
168.73876272583729
 31
0.0
  0
LINE
  5
20F
  8
1
 62
     7
 10
356.37525591587428
 20
25.34252271188814
 30
0.0
 11
356.37525591587428
 21
35.157477288111849
 31
0.0
  0
LINE
  5
210
  8
1
 62
     7
 10
347.87525591587428
 20
20.435045423776391
 30
0.0
 11
356.37525591587428
 21
25.34252271188814
 31
0.0
  0
LINE
  5
211
  8
1
 62
     7
 10
339.37525591587428
 20
25.34252271188814
 30
0.0
 11
347.87525591587428
 21
20.435045423776391
 31
0.0
  0
LINE
  5
212
  8
1
 62
     7
 10
339.37525591587428
 20
35.157477288111849
 30
0.0
 11
339.37525591587428
 21
25.34252271188814
 31
0.0
  0
LINE
  5
213
  8
1
 62
     7
 10
347.87525591587428
 20
40.064954576223599
 30
0.0
 11
339.37525591587428
 21
35.157477288111849
 31
0.0
  0
LINE
  5
214
  8
1
 62
     7
 10
356.37525591587428
 20
35.157477288111849
 30
0.0
 11
347.87525591587428
 21
40.064954576223599
 31
0.0
  0
LINE
  5
215
  8
1
 62
     7
 10
461.16432977379242
 20
25.34252271188814
 30
0.0
 11
461.16432977379242
 21
35.157477288111849
 31
0.0
  0
LINE
  5
216
  8
1
 62
     7
 10
452.66432977379242
 20
20.435045423776391
 30
0.0
 11
461.16432977379242
 21
25.34252271188814
 31
0.0
  0
LINE
  5
217
  8
1
 62
     7
 10
444.16432977379242
 20
25.34252271188814
 30
0.0
 11
452.66432977379242
 21
20.435045423776391
 31
0.0
  0
LINE
  5
218
  8
1
 62
     7
 10
444.16432977379242
 20
35.157477288111849
 30
0.0
 11
444.16432977379242
 21
25.34252271188814
 31
0.0
  0
LINE
  5
219
  8
1
 62
     7
 10
452.66432977379242
 20
40.064954576223599
 30
0.0
 11
444.16432977379242
 21
35.157477288111849
 31
0.0
  0
LINE
  5
21A
  8
1
 62
     7
 10
461.16432977379242
 20
35.157477288111849
 30
0.0
 11
452.66432977379242
 21
40.064954576223599
 31
0.0
  0
LINE
  5
21B
  8
1
 62
     7
 10
408.76979284483332
 20
-65.407477288111863
 30
0.0
 11
408.76979284483332
 21
-55.592522711888137
 31
0.0
  0
LINE
  5
21C
  8
1
 62
     7
 10
400.2697928448332
 20
-70.314954576223613
 30
0.0
 11
408.76979284483332
 21
-65.407477288111863
 31
0.0
  0
LINE
  5
21D
  8
1
 62
     7
 10
391.76979284483332
 20
-65.407477288111863
 30
0.0
 11
400.2697928448332
 21
-70.314954576223613
 31
0.0
  0
LINE
  5
21E
  8
1
 62
     7
 10
391.76979284483332
 20
-55.592522711888137
 30
0.0
 11
391.76979284483332
 21
-65.407477288111863
 31
0.0
  0
LINE
  5
21F
  8
1
 62
     7
 10
400.2697928448332
 20
-50.68504542377638
 30
0.0
 11
391.76979284483332
 21
-55.592522711888137
 31
0.0
  0
LINE
  5
220
  8
1
 62
     7
 10
408.76979284483332
 20
-55.592522711888137
 30
0.0
 11
400.2697928448332
 21
-50.68504542377638
 31
0.0
  0
LINE
  5
221
  8
1
 62
     7
 10
405.26979284483332
 20
-127.886751345948
 30
0.0
 11
405.26979284483332
 21
-122.1132486540519
 31
0.0
  0
LINE
  5
222
  8
1
 62
     7
 10
400.2697928448332
 20
-130.77350269189631
 30
0.0
 11
405.26979284483332
 21
-127.886751345948
 31
0.0
  0
LINE
  5
223
  8
1
 62
     7
 10
395.26979284483332
 20
-127.886751345948
 30
0.0
 11
400.2697928448332
 21
-130.77350269189631
 31
0.0
  0
LINE
  5
224
  8
1
 62
     7
 10
395.26979284483332
 20
-122.1132486540519
 30
0.0
 11
395.26979284483332
 21
-127.886751345948
 31
0.0
  0
LINE
  5
225
  8
1
 62
     7
 10
400.2697928448332
 20
-119.2264973081036
 30
0.0
 11
395.26979284483332
 21
-122.1132486540519
 31
0.0
  0
LINE
  5
226
  8
1
 62
     7
 10
405.26979284483332
 20
-122.1132486540519
 30
0.0
 11
400.2697928448332
 21
-119.2264973081036
 31
0.0
  0
LINE
  5
227
  8
1
 62
     7
 10
297.01661737177812
 20
59.613248654051972
 30
0.0
 11
297.01661737177812
 21
65.386751345948255
 31
0.0
  0
LINE
  5
228
  8
1
 62
     7
 10
292.01661737177812
 20
56.726497308103831
 30
0.0
 11
297.01661737177812
 21
59.613248654051972
 31
0.0
  0
LINE
  5
229
  8
1
 62
     7
 10
287.01661737177812
 20
59.613248654051972
 30
0.0
 11
292.01661737177812
 21
56.726497308103831
 31
0.0
  0
LINE
  5
22A
  8
1
 62
     7
 10
287.01661737177812
 20
65.386751345948255
 30
0.0
 11
287.01661737177812
 21
59.613248654051972
 31
0.0
  0
LINE
  5
22B
  8
1
 62
     7
 10
292.01661737177812
 20
68.273502691896397
 30
0.0
 11
287.01661737177812
 21
65.386751345948255
 31
0.0
  0
LINE
  5
22C
  8
1
 62
     7
 10
297.01661737177812
 20
65.386751345948255
 30
0.0
 11
292.01661737177812
 21
68.273502691896397
 31
0.0
  0
LINE
  5
22D
  8
1
 62
     7
 10
513.52296831788829
 20
59.613248654051858
 30
0.0
 11
513.52296831788829
 21
65.386751345948142
 31
0.0
  0
LINE
  5
22E
  8
1
 62
     7
 10
508.5229683178884
 20
56.726497308103717
 30
0.0
 11
513.52296831788829
 21
59.613248654051858
 31
0.0
  0
LINE
  5
22F
  8
1
 62
     7
 10
503.5229683178884
 20
59.613248654051858
 30
0.0
 11
508.5229683178884
 21
56.726497308103717
 31
0.0
  0
LINE
  5
230
  8
1
 62
     7
 10
503.5229683178884
 20
65.386751345948142
 30
0.0
 11
503.5229683178884
 21
59.613248654051858
 31
0.0
  0
LINE
  5
231
  8
1
 62
     7
 10
508.5229683178884
 20
68.273502691896283
 30
0.0
 11
503.5229683178884
 21
65.386751345948142
 31
0.0
  0
LINE
  5
232
  8
1
 62
     7
 10
513.52296831788829
 20
65.386751345948142
 30
0.0
 11
508.5229683178884
 21
68.273502691896283
 31
0.0
  0
LINE
  5
233
  8
1
 62
     7
 10
288.51501587166729
 20
78.378057029234924
 30
0.0
 11
298.01661737177818
 21
72.892304845413378
 31
0.0
  0
LINE
  5
234
  8
1
 62
     7
 10
524.02456981799924
 20
57.593447338408282
 30
0.0
 11
514.52296831788829
 21
52.107695154586743
 31
0.0
  0
LINE
  5
235
  8
1
  6
DASHDOT
 62
     3
 10
305.8730238323293
 20
54.500000000000099
 30
0.0
 11
278.50662107274132
 21
70.300000000000068
 31
0.0
  0
LINE
  5
236
  8
1
  6
DASHDOT
 62
     3
 10
494.66656185733711
 20
54.5
 30
0.0
 11
522.03296461692526
 21
70.299999999999969
 31
0.0
  0
LINE
  5
237
  8
1
 62
     7
 10
286.01661737177812
 20
52.10769515458685
 30
0.0
 11
276.5150158716674
 21
57.593447338408403
 31
0.0
  0
LINE
  5
238
  8
1
 62
     7
 10
502.5229683178884
 20
72.892304845413264
 30
0.0
 11
512.02456981799924
 21
78.37805702923481
 31
0.0
  0
LINE
  5
239
  8
1
 62
     7
 10
388.26979284483332
 20
-135.97150436764301
 30
0.0
 11
388.26979284483332
 21
-125.0
 31
0.0
  0
LINE
  5
23A
  8
1
 62
     7
 10
412.2697928448332
 20
-125.0
 30
0.0
 11
412.2697928448332
 21
-135.97150436764301
 31
0.0
  0
LINE
  5
23B
  8
1
 62
     7
 10
333.75917005296031
 20
119.1997779185731
 30
0.0
 11
303.02436284473328
 21
172.43402556405681
 31
0.0
  0
LINE
  5
23C
  8
1
 62
     7
 10
332.01979284483332
 20
118.21246761657579
 30
0.0
 11
301.29231203716432
 21
171.43402556405681
 31
0.0
  0
LINE
  5
23D
  8
1
 62
     7
 10
125.0
 20
-112.9999999999997
 30
0.0
 11
115.0
 21
-112.9999999999997
 31
0.0
  0
LINE
  5
23E
  8
1
 62
     7
 10
115.0
 20
109.9999999999998
 30
0.0
 11
115.0
 21
135.99999999999989
 31
0.0
  0
LINE
  5
23F
  8
1
 62
     7
 10
115.0
 20
-110.0
 30
0.0
 11
115.0
 21
-136.0
 31
0.0
  0
ARC
  5
240
  8
1
 62
     7
 10
400.2697928448332
 20
0.0
 30
0.0
 40
137.5
 50
120.8334225462186
 51
0.0
  0
ARC
  5
241
  8
1
 62
     7
 10
400.2697928448332
 20
0.0
 30
0.0
 40
137.5
 50
0.0
 51
119.1665774537815
  0
ARC
  5
242
  8
1
 62
     7
 10
-136.0
 20
131.71250000000001
 30
0.0
 40
1.5
 50
0.0
 51
90.0
  0
ARC
  5
243
  8
1
 62
     7
 10
-136.0
 20
118.28749999999989
 30
0.0
 40
1.5
 50
270.0
 51
0.0
  0
ARC
  5
244
  8
1
 62
     7
 10
-209.0
 20
131.71250000000001
 30
0.0
 40
1.5
 50
0.0
 51
90.0
  0
ARC
  5
245
  8
1
 62
     7
 10
-209.0
 20
118.28749999999989
 30
0.0
 40
1.5
 50
270.0
 51
0.0
  0
ARC
  5
246
  8
1
 62
     7
 10
134.0
 20
131.71250000000001
 30
0.0
 40
1.5000000000003131
 50
0.0
 51
90.0
  0
ARC
  5
247
  8
1
 62
     7
 10
134.0
 20
118.28749999999989
 30
0.0
 40
1.5
 50
270.0
 51
0.0
  0
ARC
  5
248
  8
1
 62
     7
 10
61.0
 20
131.71250000000001
 30
0.0
 40
1.5
 50
0.0
 51
90.0
  0
ARC
  5
249
  8
1
 62
     7
 10
61.0
 20
118.28749999999989
 30
0.0
 40
1.5
 50
270.0
 51
0.0
  0
ARC
  5
24A
  8
1
  6
DASHDOT
 62
     3
 10
400.2697928448332
 20
0.0
 30
0.0
 40
125.0
 50
261.52497625537478
 51
278.66803345905652
  0
ARC
  5
24B
  8
1
  6
DASHDOT
 62
     3
 10
400.2697928448332
 20
0.0
 30
0.0
 40
124.9999999999997
 50
22.356259022869612
 51
37.918547858751282
  0
ARC
  5
24C
  8
1
  6
DASHDOT
 62
     3
 10
400.2697928448332
 20
0.0
 30
0.0
 40
124.9999999999997
 50
142.61570563242381
 51
157.44560673494499
  0
ARC
  5
24D
  8
1
 62
     7
 10
-138.8910771207054
 20
-68.712500000000091
 30
0.0
 40
3.8910771207053729
 50
315.28887516807362
 51
44.71112483192757
  0
ARC
  5
24E
  8
1
 62
     7
 10
-148.87555894544261
 20
-60.5
 30
0.0
 40
13.87555894544264
 50
336.76029879429581
 51
23.239701205704161
  0
ARC
  5
24F
  8
1
 62
     7
 10
-138.8910771207056
 20
-52.287499999999902
 30
0.0
 40
3.891077120705654
 50
315.28887516807532
 51
44.71112483192352
  0
ARC
  5
250
  8
1
 62
     7
 10
-139.89107712070549
 20
133.21250000000001
 30
0.0
 40
3.8910771207054728
 50
315.2888751680739
 51
44.711124831925787
  0
ARC
  5
251
  8
1
 62
     7
 10
-149.87555894544229
 20
124.9999999999999
 30
0.0
 40
13.87555894544222
 50
336.76029879429569
 51
23.239701205705082
  0
ARC
  5
252
  8
1
 62
     7
 10
-139.89107712070549
 20
116.78749999999989
 30
0.0
 40
3.891077120705464
 50
315.28887516807401
 51
44.711124831926099
  0
ARC
  5
253
  8
1
 62
     7
 10
-161.1089228792944
 20
116.78749999999989
 30
0.0
 40
3.8910771207054728
 50
135.2888751680739
 51
224.71112483192601
  0
ARC
  5
254
  8
1
 62
     7
 10
-151.12444105455759
 20
124.9999999999999
 30
0.0
 40
13.8755589454423
 50
156.76029879429481
 51
203.23970120570419
  0
ARC
  5
255
  8
1
 62
     7
 10
-161.1089228792944
 20
133.21250000000001
 30
0.0
 40
3.8910771207054529
 50
135.28887516807421
 51
224.71112483192601
  0
ARC
  5
256
  8
1
 62
     7
 10
-212.8910771207054
 20
133.21250000000001
 30
0.0
 40
3.8910771207054728
 50
315.2888751680739
 51
44.711124831925787
  0
ARC
  5
257
  8
1
 62
     7
 10
-222.87555894544229
 20
124.9999999999999
 30
0.0
 40
13.87555894544222
 50
336.76029879429569
 51
23.239701205705082
  0
ARC
  5
258
  8
1
 62
     7
 10
-212.8910771207054
 20
116.78749999999989
 30
0.0
 40
3.891077120705464
 50
315.28887516807401
 51
44.711124831926099
  0
ARC
  5
259
  8
1
 62
     3
 10
47.0
 20
0.0
 30
0.0
 40
3.200000000000053
 50
180.0
 51
0.0
  0
ARC
  5
25A
  8
1
 62
     7
 10
47.0
 20
0.0
 30
0.0
 40
4.0
 50
180.0
 51
0.0
  0
ARC
  5
25B
  8
1
 62
     7
 10
400.2697928448332
 20
0.0
 30
0.0
 40
27.500000000000028
 50
106.9123898034257
 51
73.08761019657419
  0
ARC
  5
25C
  8
1
 62
     7
 10
131.1089228792946
 20
-68.712500000000091
 30
0.0
 40
3.8910771207053729
 50
315.28887516807362
 51
44.71112483192757
  0
ARC
  5
25D
  8
1
 62
     7
 10
121.12444105455729
 20
-60.5
 30
0.0
 40
13.87555894544265
 50
336.76029879429581
 51
23.23970120570414
  0
ARC
  5
25E
  8
1
 62
     7
 10
131.10892287929431
 20
-52.287499999999902
 30
0.0
 40
3.891077120705654
 50
315.28887516807532
 51
44.71112483192352
  0
ARC
  5
25F
  8
1
 62
     7
 10
130.1089228792944
 20
133.21250000000001
 30
0.0
 40
3.8910771207054728
 50
315.2888751680739
 51
44.711124831925787
  0
ARC
  5
260
  8
1
 62
     7
 10
120.12444105455771
 20
124.9999999999999
 30
0.0
 40
13.87555894544222
 50
336.76029879429569
 51
23.239701205705082
  0
ARC
  5
261
  8
1
 62
     7
 10
130.1089228792944
 20
116.78749999999989
 30
0.0
 40
3.891077120705464
 50
315.28887516807401
 51
44.711124831926099
  0
ARC
  5
262
  8
1
 62
     7
 10
108.8910771207055
 20
116.78749999999989
 30
0.0
 40
3.8910771207054928
 50
135.28887516807421
 51
224.7111248319257
  0
ARC
  5
263
  8
1
 62
     7
 10
118.87555894544229
 20
124.9999999999999
 30
0.0
 40
13.875558945442309
 50
156.76029879429481
 51
203.23970120570419
  0
ARC
  5
264
  8
1
 62
     7
 10
108.8910771207055
 20
133.21250000000001
 30
0.0
 40
3.8910771207054728
 50
135.2888751680745
 51
224.71112483192579
  0
ARC
  5
265
  8
1
 62
     7
 10
57.108922879294482
 20
133.21250000000001
 30
0.0
 40
3.8910771207055328
 50
315.28887516807481
 51
44.711124831924927
  0
ARC
  5
266
  8
1
 62
     7
 10
47.124441054557678
 20
124.9999999999999
 30
0.0
 40
13.8755589454423
 50
336.76029879429581
 51
23.239701205704939
  0
ARC
  5
267
  8
1
 62
     7
 10
57.108922879294482
 20
116.78749999999989
 30
0.0
 40
3.891077120705523
 50
315.28887516807498
 51
44.711124831925218
  0
ARC
  5
268
  8
1
 62
     7
 10
47.0
 20
0.0
 30
0.0
 40
4.0
 50
0.0
 51
180.0
  0
ARC
  5
269
  8
1
 62
     3
 10
47.0
 20
0.0
 30
0.0
 40
3.200000000000053
 50
0.0
 51
180.0
  0
ARC
  5
26A
  8
1
 62
     7
 10
292.01661737177812
 20
62.500000000000099
 30
0.0
 40
11.999999999999989
 50
239.99999999999989
 51
60.000000000000021
  0
ARC
  5
26B
  8
1
 62
     7
 10
508.5229683178884
 20
62.5
 30
0.0
 40
12.0
 50
119.9999999999999
 51
300.00000000000011
  0
ARC
  5
26C
  8
1
 62
     7
 10
400.2697928448332
 20
-125.0
 30
0.0
 40
12.0
 50
0.0
 51
180.0
  0
CIRCLE
  5
26D
  8
1
 62
     3
 10
292.01661737177812
 20
-62.499999999999893
 30
0.0
 40
4.8000000000000123
  0
CIRCLE
  5
26E
  8
1
 62
     7
 10
292.01661737177812
 20
-62.499999999999893
 30
0.0
 40
6.0
  0
CIRCLE
  5
26F
  8
1
 62
     7
 10
292.01661737177812
 20
-62.499999999999893
 30
0.0
 40
9.5
  0
CIRCLE
  5
270
  8
1
 62
     3
 10
508.5229683178884
 20
-62.500000000000099
 30
0.0
 40
4.7999999999999554
  0
CIRCLE
  5
271
  8
1
 62
     7
 10
508.5229683178884
 20
-62.500000000000099
 30
0.0
 40
6.0
  0
CIRCLE
  5
272
  8
1
 62
     7
 10
508.5229683178884
 20
-62.500000000000099
 30
0.0
 40
9.5
  0
CIRCLE
  5
273
  8
1
 62
     3
 10
400.2697928448332
 20
124.9999999999999
 30
0.0
 40
4.7999999999999554
  0
CIRCLE
  5
274
  8
1
 62
     7
 10
400.2697928448332
 20
124.9999999999999
 30
0.0
 40
6.0
  0
CIRCLE
  5
275
  8
1
 62
     7
 10
400.2697928448332
 20
124.9999999999999
 30
0.0
 40
9.5
  0
CIRCLE
  5
276
  8
1
 62
     7
 10
275.26979284483332
 20
0.0
 30
0.0
 40
7.0
  0
CIRCLE
  5
277
  8
1
 62
     3
 10
275.26979284483332
 20
0.0
 30
0.0
 40
6.0
  0
CIRCLE
  5
278
  8
1
 62
     7
 10
275.26979284483332
 20
0.0
 30
0.0
 40
4.7999999999999554
  0
CIRCLE
  5
279
  8
1
 62
     7
 10
525.26979284483332
 20
0.0
 30
0.0
 40
4.7999999999999554
  0
CIRCLE
  5
27A
  8
1
 62
     3
 10
525.26979284483332
 20
0.0
 30
0.0
 40
6.0
  0
CIRCLE
  5
27B
  8
1
 62
     7
 10
525.26979284483332
 20
0.0
 30
0.0
 40
7.0
  0
CIRCLE
  5
27C
  8
1
 62
     3
 10
347.87525591587428
 20
30.25
 30
0.0
 40
4.0
  0
CIRCLE
  5
27D
  8
1
 62
     7
 10
347.87525591587428
 20
30.25
 30
0.0
 40
5.0
  0
CIRCLE
  5
27E
  8
1
 62
     7
 10
347.87525591587428
 20
30.25
 30
0.0
 40
8.5
  0
CIRCLE
  5
27F
  8
1
 62
     3
 10
452.66432977379242
 20
30.25
 30
0.0
 40
4.0
  0
CIRCLE
  5
280
  8
1
 62
     7
 10
452.66432977379242
 20
30.25
 30
0.0
 40
5.0
  0
CIRCLE
  5
281
  8
1
 62
     7
 10
452.66432977379242
 20
30.25
 30
0.0
 40
8.5
  0
CIRCLE
  5
282
  8
1
 62
     3
 10
400.2697928448332
 20
-60.5
 30
0.0
 40
4.0
  0
CIRCLE
  5
283
  8
1
 62
     7
 10
400.2697928448332
 20
-60.5
 30
0.0
 40
5.0
  0
CIRCLE
  5
284
  8
1
 62
     7
 10
400.2697928448332
 20
-60.5
 30
0.0
 40
8.5
  0
CIRCLE
  5
285
  8
1
 62
     7
 10
400.2697928448332
 20
-125.0
 30
0.0
 40
9.0
  0
CIRCLE
  5
286
  8
1
 62
     7
 10
292.01661737177812
 20
62.500000000000099
 30
0.0
 40
9.0
  0
CIRCLE
  5
287
  8
1
 62
     7
 10
508.5229683178884
 20
62.5
 30
0.0
 40
9.0
  0
CIRCLE
  5
288
  8
1
 62
     7
 10
292.01661737177812
 20
62.500000000000099
 30
0.0
 40
10.749999999999989
  0
CIRCLE
  5
289
  8
1
 62
     7
 10
400.2697928448332
 20
-125.0
 30
0.0
 40
10.749999999999989
  0
CIRCLE
  5
28A
  8
1
 62
     7
 10
508.5229683178884
 20
62.5
 30
0.0
 40
10.749999999999989
  0
CIRCLE
  5
28B
  8
1
 62
     7
 10
400.2697928448332
 20
0.0
 30
0.0
 40
40.0
  0
CIRCLE
  5
28C
  8
1
 62
     7
 10
400.2697928448332
 20
0.0
 30
0.0
 40
45.0
  0
CIRCLE
  5
28D
  8
1
 62
     7
 10
400.2697928448332
 20
0.0
 30
0.0
 40
136.5
  0
TEXT
  5
28F
  8
1
 62
     7
 10
-250.5956140817176
 20
241.6535970119111
 30
0.0
 40
10.0
  1
MNB 40
 41
0.9
  7
SIMPLEX
  0
ENDSEC
  0
EOF
