  0
SECTION
  2
HEADER
  9
$ACADVER
  1
AC1009
  9
$INSBASE
 10
0.0
 20
0.0
 30
0.0
  9
$EXTMIN
 10
-191.2601420795821
 20
-85.144868871827825
 30
0.0
  9
$EXTMAX
 10
338.69608960223371
 20
162.3437978189678
 30
0.0
  9
$LIMMIN
 10
-191.2601420795821
 20
-85.144868871827825
  9
$LIMMAX
 10
338.69608960223371
 20
162.3437978189678
  9
$ORTHOMODE
 70
     0
  9
$REGENMODE
 70
     1
  9
$FILLMODE
 70
     1
  9
$QTEXTMODE
 70
     0
  9
$MIRRTEXT
 70
     1
  9
$DRAGMODE
 70
     2
  9
$LTSCALE
 40
1.0
  9
$OSMODE
 70
    37
  9
$ATTMODE
 70
     1
  9
$TEXTSIZE
 40
3.5
  9
$TRACEWID
 40
0.5
  9
$TEXTSTYLE
  7
STANDARD
  9
$CLAYER
  8
0
  9
$CELTYPE
  6
BYLAYER
  9
$CECOLOR
 62
   256
  9
$DIMSCALE
 40
1.0
  9
$DIMASZ
 40
0.18
  9
$DIMEXO
 40
0.0625
  9
$DIMDLI
 40
0.38
  9
$DIMRND
 40
0.0
  9
$DIMDLE
 40
0.0
  9
$DIMEXE
 40
0.18
  9
$DIMTP
 40
0.0
  9
$DIMTM
 40
0.0
  9
$DIMTXT
 40
0.18
  9
$DIMCEN
 40
0.09
  9
$DIMTSZ
 40
0.0
  9
$DIMTOL
 70
     0
  9
$DIMLIM
 70
     0
  9
$DIMTIH
 70
     1
  9
$DIMTOH
 70
     1
  9
$DIMSE1
 70
     0
  9
$DIMSE2
 70
     0
  9
$DIMTAD
 70
     0
  9
$DIMZIN
 70
     0
  9
$DIMBLK
  1

  9
$DIMASO
 70
     1
  9
$DIMSHO
 70
     1
  9
$DIMPOST
  1

  9
$DIMAPOST
  1

  9
$DIMALT
 70
     0
  9
$DIMALTD
 70
     2
  9
$DIMALTF
 40
25.399999999999999
  9
$DIMLFAC
 40
1.0
  9
$DIMTOFL
 70
     0
  9
$DIMTVP
 40
0.0
  9
$DIMTIX
 70
     0
  9
$DIMSOXD
 70
     0
  9
$DIMSAH
 70
     0
  9
$DIMBLK1
  1

  9
$DIMBLK2
  1

  9
$DIMSTYLE
  2
STANDARD
  9
$DIMCLRD
 70
     0
  9
$DIMCLRE
 70
     0
  9
$DIMCLRT
 70
     0
  9
$DIMTFAC
 40
1.0
  9
$DIMGAP
 40
0.09
  9
$LUNITS
 70
     2
  9
$LUPREC
 70
     4
  9
$SKETCHINC
 40
0.1
  9
$FILLETRAD
 40
2.0
  9
$AUNITS
 70
     0
  9
$AUPREC
 70
     0
  9
$MENU
  1
ACAD
  9
$ELEVATION
 40
0.0
  9
$PELEVATION
 40
0.0
  9
$THICKNESS
 40
0.0
  9
$LIMCHECK
 70
     0
  9
$BLIPMODE
 70
     0
  9
$CHAMFERA
 40
0.0
  9
$CHAMFERB
 40
0.0
  9
$SKPOLY
 70
     0
  9
$TDCREATE
 40
2452094.985983796
  9
$TDUPDATE
 40
2452094.9865437499
  9
$TDINDWG
 40
0.0005721065
  9
$TDUSRTIMER
 40
0.0005721065
  9
$USRTIMER
 70
     1
  9
$ANGBASE
 50
0.0
  9
$ANGDIR
 70
     0
  9
$PDMODE
 70
     0
  9
$PDSIZE
 40
0.0
  9
$PLINEWID
 40
0.0
  9
$COORDS
 70
     1
  9
$SPLFRAME
 70
     0
  9
$SPLINETYPE
 70
     6
  9
$SPLINESEGS
 70
     8
  9
$ATTDIA
 70
     0
  9
$ATTREQ
 70
     1
  9
$HANDLING
 70
 10241
  9
$HANDSEED
  5
24F
  9
$SURFTAB1
 70
     6
  9
$SURFTAB2
 70
     6
  9
$SURFTYPE
 70
     6
  9
$SURFU
 70
     6
  9
$SURFV
 70
     6
  9
$UCSNAME
  2

  9
$UCSORG
 10
0.0
 20
0.0
 30
0.0
  9
$UCSXDIR
 10
1.0
 20
0.0
 30
0.0
  9
$UCSYDIR
 10
0.0
 20
1.0
 30
0.0
  9
$PUCSNAME
  2

  9
$PUCSORG
 10
0.0
 20
0.0
 30
0.0
  9
$PUCSXDIR
 10
1.0
 20
0.0
 30
0.0
  9
$PUCSYDIR
 10
0.0
 20
1.0
 30
0.0
  9
$USERI1
 70
     0
  9
$USERI2
 70
     0
  9
$USERI3
 70
     0
  9
$USERI4
 70
     0
  9
$USERI5
 70
     0
  9
$USERR1
 40
0.0
  9
$USERR2
 40
0.0
  9
$USERR3
 40
0.0
  9
$USERR4
 40
0.0
  9
$USERR5
 40
0.0
  9
$WORLDVIEW
 70
     1
  9
$SHADEDGE
 70
     3
  9
$SHADEDIF
 70
    70
  9
$TILEMODE
 70
     1
  9
$MAXACTVP
 70
    64
  9
$PLIMCHECK
 70
     0
  9
$PEXTMIN
 10
1.0000000000000000E+020
 20
1.0000000000000000E+020
 30
1.0000000000000000E+020
  9
$PEXTMAX
 10
-1.0000000000000000E+020
 20
-1.0000000000000000E+020
 30
-1.0000000000000000E+020
  9
$PLIMMIN
 10
0.0
 20
0.0
  9
$PLIMMAX
 10
12.0
 20
9.0
  9
$UNITMODE
 70
     0
  9
$VISRETAIN
 70
     1
  9
$PLINEGEN
 70
     0
  9
$PSLTSCALE
 70
     1
  0
ENDSEC
  0
SECTION
  2
TABLES
  0
TABLE
  2
VPORT
 70
     2
  0
VPORT
  2
*ACTIVE
 70
     0
 10
0.0
 20
0.0
 11
1.0
 21
1.0
 12
-136.91928890228729
 22
147.16088830080389
 13
0.0
 23
0.0
 14
1.0
 24
1.0
 15
0.0
 25
0.0
 16
0.0
 26
0.0
 36
1.0
 17
0.0
 27
0.0
 37
0.0
 40
9.0000005291034348
 41
2.4144144144144142
 42
50.0
 43
0.0
 44
0.0
 50
0.0
 51
0.0
 71
     0
 72
   100
 73
     1
 74
     1
 75
     0
 76
     0
 77
     0
 78
     0
  0
ENDTAB
  0
TABLE
  2
LTYPE
 70
     9
  0
LTYPE
  2
CONTINUOUS
 70
     0
  3
Solid line
 72
    65
 73
     0
 40
0.0
  0
LTYPE
  2
BORDER
 70
     0
  3
__ __ . __ __ .
 72
    65
 73
     6
 40
24.40587909060994
 49
6.9731083116028403
 49
-3.4865541558014201
 49
6.9731083116028403
 49
-3.4865541558014201
 49
0.0
 49
-3.4865541558014201
  0
LTYPE
  2
CENTER
 70
     0
  3
____ _ ____ _
 72
    65
 73
     4
 40
27.892433246411361
 49
17.4327707790071
 49
-3.4865541558014201
 49
3.4865541558014201
 49
-3.4865541558014201
  0
LTYPE
  2
DASHDOT
 70
     0
  3
__ . __ . __ .
 72
    65
 73
     4
 40
13.946216623205681
 49
6.9731083116028403
 49
-3.4865541558014201
 49
0.0
 49
-3.4865541558014201
  0
LTYPE
  2
DASHED
 70
     0
  3
__ __ __ __ __
 72
    65
 73
     2
 40
10.459662467404261
 49
6.9731083116028403
 49
-3.4865541558014201
  0
LTYPE
  2
DIVIDE
 70
     0
  3
__ . . __ . . 
 72
    65
 73
     6
 40
17.4327707790071
 49
6.9731083116028403
 49
-3.4865541558014201
 49
0.0
 49
-3.4865541558014201
 49
0.0
 49
-3.4865541558014201
  0
LTYPE
  2
DOT
 70
     0
  3
..............
 72
    65
 73
     4
 40
6.9731083116028403
 49
0.0
 49
-3.4865541558014201
 49
0.0
 49
-3.4865541558014201
  0
LTYPE
  2
HIDDEN
 70
     0
  3
_ _ _ _ _ _ _
 72
    65
 73
     2
 40
5.2298312337021287
 49
3.4865541558014201
 49
-1.7432770779007101
  0
LTYPE
  2
PHANTOM
 70
     0
  3
_____ _ _ _____ _ _ 
 72
    65
 73
     6
 40
34.865541558014201
 49
17.4327707790071
 49
-3.4865541558014201
 49
3.4865541558014201
 49
-3.4865541558014201
 49
3.4865541558014201
 49
-3.4865541558014201
  0
ENDTAB
  0
TABLE
  2
LAYER
 70
     2
  0
LAYER
  2
0
 70
     0
 62
     7
  6
CONTINUOUS
  0
LAYER
  2
1
 70
     0
 62
     7
  6
CONTINUOUS
  0
ENDTAB
  0
TABLE
  2
STYLE
 70
     4
  0
STYLE
  2
STANDARD
 70
     0
 40
0.0
 41
1.0
 50
0.0
 71
     0
 42
3.5
  3
txt
  4

  0
STYLE
  2
SIMPLEX
 70
     0
 40
0.0
 41
1.0
 50
0.0
 71
     0
 42
3.5
  3
simplex
  4

  0
STYLE
  2
COMPLEX
 70
     0
 40
0.0
 41
1.0
 50
0.0
 71
     0
 42
3.5
  3
complex
  4

  0
STYLE
  2
ITALIC
 70
     0
 40
0.0
 41
1.0
 50
0.0
 71
     0
 42
3.5
  3
italic
  4

  0
ENDTAB
  0
TABLE
  2
VIEW
 70
     0
  0
ENDTAB
  0
TABLE
  2
UCS
 70
     0
  0
ENDTAB
  0
TABLE
  2
APPID
 70
     1
  0
APPID
  2
ACAD
 70
     0
  0
ENDTAB
  0
TABLE
  2
DIMSTYLE
 70
     1
  0
DIMSTYLE
  2
STANDARD
 70
     0
  3

  4

  5

  6

  7

 40
1.0
 41
0.18
 42
0.0625
 43
0.38
 44
0.18
 45
0.0
 46
0.0
 47
0.0
 48
0.0
140
0.18
141
0.09
142
0.0
143
25.399999999999999
144
1.0
145
0.0
146
1.0
147
0.09
 71
     0
 72
     0
 73
     1
 74
     1
 75
     0
 76
     0
 77
     0
 78
     0
170
     0
171
     2
172
     0
173
     0
174
     0
175
     0
176
     0
177
     0
178
     0
  0
ENDTAB
  0
ENDSEC
  0
SECTION
  2
BLOCKS
  0
BLOCK
  8
0
  2
$MODEL_SPACE
 70
     0
 10
0.0
 20
0.0
 30
0.0
  3
$MODEL_SPACE
  1

  0
ENDBLK
  5
20
  8
0
  0
BLOCK
 67
     1
  8
0
  2
$PAPER_SPACE
 70
     0
 10
0.0
 20
0.0
 30
0.0
  3
$PAPER_SPACE
  1

  0
ENDBLK
  5
1C
 67
     1
  8
0
  0
ENDSEC
  0
SECTION
  2
ENTITIES
  0
LINE
  5
33
  8
1
 62
     7
 10
63.800000000000011
 20
79.064999999999998
 30
0.0
 11
63.800000000000011
 21
70.935000000000002
 31
0.0
  0
LINE
  5
34
  8
1
 62
     7
 10
61.518312163512967
 20
67.5
 30
0.0
 11
56.500000000000007
 21
67.5
 31
0.0
  0
LINE
  5
35
  8
1
 62
     7
 10
61.518312163512967
 20
71.25
 30
0.0
 11
56.5
 21
71.25
 31
0.0
  0
LINE
  5
36
  8
1
 62
     7
 10
61.518312163512967
 20
78.75
 30
0.0
 11
56.500000000000007
 21
78.75
 31
0.0
  0
LINE
  5
37
  8
1
 62
     7
 10
62.240000000000009
 20
80.625
 30
0.0
 11
62.240000000000009
 21
69.375
 31
0.0
  0
LINE
  5
38
  8
1
 62
     7
 10
-116.2
 20
79.064999999999998
 30
0.0
 11
-116.2
 21
70.935000000000002
 31
0.0
  0
LINE
  5
39
  8
1
 62
     7
 10
-118.481687836487
 20
67.5
 30
0.0
 11
-123.5
 21
67.5
 31
0.0
  0
LINE
  5
3A
  8
1
 62
     7
 10
-118.481687836487
 20
71.25
 30
0.0
 11
-123.5
 21
71.25
 31
0.0
  0
LINE
  5
3B
  8
1
 62
     7
 10
-118.481687836487
 20
78.75
 30
0.0
 11
-123.5
 21
78.75
 31
0.0
  0
LINE
  5
3C
  8
1
 62
     7
 10
-117.75999999999991
 20
80.625
 30
0.0
 11
-117.75999999999991
 21
69.375
 31
0.0
  0
LINE
  5
3D
  8
1
 62
     7
 10
-118.481687836487
 20
82.5
 30
0.0
 11
-137.27831216351299
 21
82.500000000000071
 31
0.0
  0
LINE
  5
3E
  8
1
  6
DASHDOT
 62
     3
 10
267.48064462863641
 20
-0.0000000000000107
 30
0.0
 11
280.44607722425542
 21
-0.0000000000000107
 31
0.0
  0
LINE
  5
3F
  8
1
  6
DASHDOT
 62
     3
 10
256.19608960223371
 20
25.53889960900614
 30
0.0
 11
256.19608960223371
 21
13.929329245609051
 31
0.0
  0
LINE
  5
40
  8
1
  6
DASHDOT
 62
     3
 10
256.19608960223371
 20
6.1153302660576898
 30
0.0
 11
256.19608960223371
 21
-6.1153302660576987
 31
0.0
  0
LINE
  5
41
  8
1
  6
DASHDOT
 62
     3
 10
262.31141986829141
 20
-0.0000000000000107
 30
0.0
 11
250.0807593361759
 21
-0.0000000000000107
 31
0.0
  0
LINE
  5
42
  8
1
  6
DASHDOT
 62
     3
 10
256.19608960223371
 20
-64.648045283165942
 30
0.0
 11
256.19608960223371
 21
-85.144868871827825
 31
0.0
  0
LINE
  5
43
  8
1
 62
     7
 10
-180.0
 20
-72.0
 30
0.0
 11
-187.89999999999989
 21
-71.999999999999972
 31
0.0
  0
LINE
  5
44
  8
1
 62
     7
 10
-180.0
 20
-72.0
 30
0.0
 11
-180.0
 21
-77.999999999999972
 31
0.0
  0
LINE
  5
45
  8
1
 62
     7
 10
-149.30000000000001
 20
-82.000000000000014
 30
0.0
 11
-149.30000000000001
 21
82.499999999999915
 31
0.0
  0
LINE
  5
46
  8
1
 62
     7
 10
-160.0
 20
-82.000000000000014
 30
0.0
 11
-160.0
 21
82.499999999999915
 31
0.0
  0
LINE
  5
47
  8
1
 62
     7
 10
-166.80000000000001
 20
66.0
 30
0.0
 11
-166.80000000000001
 21
-66.0
 31
0.0
  0
LINE
  5
48
  8
1
 62
     3
 10
-190.0
 20
0.0000000000000107
 30
0.0
 11
-180.0
 21
0.0
 31
0.0
  0
LINE
  5
49
  8
1
 62
     3
 10
-102.0
 20
-0.0000000000000107
 30
0.0
 11
-92.122334576865768
 21
0.0
 31
0.0
  0
LINE
  5
4A
  8
1
  6
DASHDOT
 62
     3
 10
-191.2601420795821
 20
-74.999999999999972
 30
0.0
 11
-158.77196219596439
 21
-74.999999999999972
 31
0.0
  0
LINE
  5
4B
  8
1
 62
     7
 10
-170.0
 20
82.500000000000071
 30
0.0
 11
-170.0
 21
-82.000000000000014
 31
0.0
  0
LINE
  5
4C
  8
1
 62
     3
 10
-116.2
 20
71.800000000000026
 30
0.0
 11
-114.0
 21
71.800000000000026
 31
0.0
  0
LINE
  5
4D
  8
1
 62
     3
 10
-116.2
 20
78.200000000000017
 30
0.0
 11
-114.0
 21
78.200000000000017
 31
0.0
  0
LINE
  5
4E
  8
1
 62
     3
 10
-141.5
 20
71.800000000000026
 30
0.0
 11
-138.0
 21
71.800000000000026
 31
0.0
  0
LINE
  5
4F
  8
1
 62
     3
 10
-141.5
 20
78.200000000000017
 30
0.0
 11
-138.0
 21
78.200000000000017
 31
0.0
  0
LINE
  5
50
  8
1
 62
     7
 10
-114.7999999999999
 20
79.0
 30
0.0
 11
-114.7999999999999
 21
71.0
 31
0.0
  0
LINE
  5
51
  8
1
 62
     7
 10
-114.0
 20
78.200000000000017
 30
0.0
 11
-114.7999999999999
 21
79.0
 31
0.0
  0
LINE
  5
52
  8
1
 62
     7
 10
-114.0
 20
71.800000000000026
 30
0.0
 11
-114.0
 21
78.200000000000017
 31
0.0
  0
LINE
  5
53
  8
1
 62
     7
 10
-114.7999999999999
 20
71.0
 30
0.0
 11
-114.0
 21
71.800000000000026
 31
0.0
  0
LINE
  5
54
  8
1
 62
     7
 10
-116.2
 20
71.0
 30
0.0
 11
-114.7999999999999
 21
71.0
 31
0.0
  0
LINE
  5
55
  8
1
 62
     7
 10
-116.2
 20
79.0
 30
0.0
 11
-114.7999999999999
 21
79.0
 31
0.0
  0
LINE
  5
56
  8
1
 62
     7
 10
-141.5
 20
71.0
 30
0.0
 11
-138.0
 21
71.0
 31
0.0
  0
LINE
  5
57
  8
1
 62
     7
 10
-141.5
 20
79.0
 30
0.0
 11
-138.0
 21
79.0
 31
0.0
  0
LINE
  5
58
  8
1
 62
     7
 10
-137.27831216351299
 20
78.75
 30
0.0
 11
-131.49999999999989
 21
78.75
 31
0.0
  0
LINE
  5
59
  8
1
 62
     7
 10
-137.27831216351299
 20
71.25
 30
0.0
 11
-131.49999999999989
 21
71.25
 31
0.0
  0
LINE
  5
5A
  8
1
 62
     7
 10
-137.27831216351299
 20
67.5
 30
0.0
 11
-131.49999999999989
 21
67.5
 31
0.0
  0
LINE
  5
5B
  8
1
 62
     7
 10
-138.0
 20
69.375
 30
0.0
 11
-138.0
 21
80.625
 31
0.0
  0
LINE
  5
5C
  8
1
 62
     7
 10
-148.0
 20
82.499999999999915
 30
0.0
 11
-148.0
 21
67.5
 31
0.0
  0
LINE
  5
5D
  8
1
 62
     7
 10
-142.22168783648701
 20
67.5
 30
0.0
 11
-149.30000000000001
 21
67.5
 31
0.0
  0
LINE
  5
5E
  8
1
 62
     7
 10
-142.22168783648701
 20
71.25
 30
0.0
 11
-148.0
 21
71.25
 31
0.0
  0
LINE
  5
5F
  8
1
 62
     7
 10
-142.22168783648701
 20
78.75
 30
0.0
 11
-148.0
 21
78.75
 31
0.0
  0
LINE
  5
60
  8
1
 62
     7
 10
-142.22168783648701
 20
82.500000000000071
 30
0.0
 11
-179.49999999999989
 21
82.500000000000071
 31
0.0
  0
LINE
  5
61
  8
1
 62
     7
 10
-141.5
 20
80.625
 30
0.0
 11
-141.5
 21
69.375
 31
0.0
  0
LINE
  5
62
  8
1
 62
     7
 10
-170.0
 20
67.5
 30
0.0
 11
-160.0
 21
67.5
 31
0.0
  0
LINE
  5
63
  8
1
 62
     7
 10
-180.0
 20
-77.999999999999972
 30
0.0
 11
-180.0
 21
-82.000000000000014
 31
0.0
  0
LINE
  5
64
  8
1
 62
     3
 10
-188.49999999999989
 20
-77.399999999999977
 30
0.0
 11
-180.0
 21
-77.399999999999977
 31
0.0
  0
LINE
  5
65
  8
1
 62
     3
 10
-188.49999999999989
 20
-72.599999999999966
 30
0.0
 11
-180.0
 21
-72.599999999999966
 31
0.0
  0
LINE
  5
66
  8
1
 62
     7
 10
-187.89999999999989
 20
-71.999999999999972
 30
0.0
 11
-187.89999999999989
 21
-77.999999999999972
 31
0.0
  0
LINE
  5
67
  8
1
 62
     7
 10
-188.49999999999989
 20
-77.399999999999977
 30
0.0
 11
-187.89999999999989
 21
-77.999999999999972
 31
0.0
  0
LINE
  5
68
  8
1
 62
     7
 10
-188.49999999999989
 20
-72.599999999999966
 30
0.0
 11
-188.49999999999989
 21
-77.399999999999977
 31
0.0
  0
LINE
  5
69
  8
1
 62
     7
 10
-187.89999999999989
 20
-71.999999999999972
 30
0.0
 11
-188.49999999999989
 21
-72.599999999999966
 31
0.0
  0
LINE
  5
6A
  8
1
 62
     7
 10
-162.90000000000001
 20
-69.999999999999972
 30
0.0
 11
-162.90000000000001
 21
-79.999999999999972
 31
0.0
  0
LINE
  5
6B
  8
1
 62
     7
 10
-162.90000000000001
 20
-79.999999999999972
 30
0.0
 11
-168.5
 21
-79.999999999999972
 31
0.0
  0
LINE
  5
6C
  8
1
 62
     7
 10
-162.5
 20
-79.307179676972424
 30
0.0
 11
-162.90000000000001
 21
-79.999999999999972
 31
0.0
  0
LINE
  5
6D
  8
1
 62
     7
 10
-162.5
 20
-70.692820323027505
 30
0.0
 11
-162.5
 21
-79.307179676972424
 31
0.0
  0
LINE
  5
6E
  8
1
 62
     7
 10
-162.90000000000001
 20
-69.999999999999972
 30
0.0
 11
-162.5
 21
-70.692820323027505
 31
0.0
  0
LINE
  5
6F
  8
1
 62
     7
 10
-168.5
 20
-69.999999999999972
 30
0.0
 11
-162.90000000000001
 21
-69.999999999999972
 31
0.0
  0
LINE
  5
70
  8
1
 62
     7
 10
-168.5
 20
-81.099999999999966
 30
0.0
 11
-170.0
 21
-81.099999999999966
 31
0.0
  0
LINE
  5
71
  8
1
 62
     7
 10
-168.5
 20
-68.899999999999963
 30
0.0
 11
-168.5
 21
-81.099999999999966
 31
0.0
  0
LINE
  5
72
  8
1
 62
     7
 10
-170.0
 20
-68.899999999999963
 30
0.0
 11
-168.5
 21
-68.899999999999963
 31
0.0
  0
LINE
  5
73
  8
1
 62
     7
 10
-170.0
 20
-76.499999999999972
 30
0.0
 11
-168.5
 21
-74.999999999999972
 31
0.0
  0
LINE
  5
74
  8
1
 62
     7
 10
-170.0
 20
-74.999999999999972
 30
0.0
 11
-168.5
 21
-73.499999999999972
 31
0.0
  0
LINE
  5
75
  8
1
 62
     3
 10
-96.0
 20
-39.900000000000013
 30
0.0
 11
-97.0
 21
-39.900000000000013
 31
0.0
  0
LINE
  5
76
  8
1
 62
     3
 10
-96.0
 20
-35.100000000000001
 30
0.0
 11
-97.0
 21
-35.100000000000001
 31
0.0
  0
LINE
  5
77
  8
1
 62
     7
 10
-96.599999999999923
 20
-34.5
 30
0.0
 11
-96.599999999999923
 21
-40.499999999999993
 31
0.0
  0
LINE
  5
78
  8
1
 62
     7
 10
-96.599999999999923
 20
-34.5
 30
0.0
 11
-97.0
 21
-34.5
 31
0.0
  0
LINE
  5
79
  8
1
 62
     7
 10
-96.0
 20
-35.100000000000001
 30
0.0
 11
-96.599999999999923
 21
-34.5
 31
0.0
  0
LINE
  5
7A
  8
1
 62
     7
 10
-96.0
 20
-39.900000000000013
 30
0.0
 11
-96.0
 21
-35.100000000000001
 31
0.0
  0
LINE
  5
7B
  8
1
 62
     7
 10
-96.599999999999923
 20
-40.499999999999993
 30
0.0
 11
-96.0
 21
-39.900000000000013
 31
0.0
  0
LINE
  5
7C
  8
1
 62
     7
 10
-97.0
 20
-40.499999999999993
 30
0.0
 11
-96.599999999999923
 21
-40.499999999999993
 31
0.0
  0
LINE
  5
7D
  8
1
 62
     7
 10
-97.490747728811144
 20
-43.250000000000007
 30
0.0
 11
-102.0
 21
-43.250000000000007
 31
0.0
  0
LINE
  5
7E
  8
1
 62
     7
 10
-97.490747728811144
 20
-40.375
 30
0.0
 11
-102.0
 21
-40.375
 31
0.0
  0
LINE
  5
7F
  8
1
 62
     7
 10
-97.490747728811144
 20
-34.625
 30
0.0
 11
-102.0
 21
-34.625
 31
0.0
  0
LINE
  5
80
  8
1
 62
     7
 10
-97.490747728811144
 20
-31.750000000000011
 30
0.0
 11
-102.0
 21
-31.750000000000011
 31
0.0
  0
LINE
  5
81
  8
1
 62
     7
 10
-97.0
 20
-33.1875
 30
0.0
 11
-97.0
 21
-41.812500000000007
 31
0.0
  0
LINE
  5
82
  8
1
 62
     7
 10
-148.80000000000001
 20
66.5
 30
0.0
 11
-148.80000000000001
 21
-66.5
 31
0.0
  0
LINE
  5
83
  8
1
 62
     7
 10
-163.1999999999999
 20
-66.0
 30
0.0
 11
-163.1999999999999
 21
66.0
 31
0.0
  0
LINE
  5
84
  8
1
 62
     7
 10
-170.0
 20
-66.000000000000014
 30
0.0
 11
-160.0
 21
-66.000000000000014
 31
0.0
  0
LINE
  5
85
  8
1
 62
     7
 10
-170.0
 20
66.0
 30
0.0
 11
-160.0
 21
66.0
 31
0.0
  0
LINE
  5
86
  8
1
 62
     7
 10
-149.80000000000001
 20
-82.500000000000014
 30
0.0
 11
-159.49999999999989
 21
-82.500000000000014
 31
0.0
  0
LINE
  5
87
  8
1
 62
     7
 10
-180.0
 20
82.000000000000085
 30
0.0
 11
-180.0
 21
-72.0
 31
0.0
  0
LINE
  5
88
  8
1
 62
     7
 10
-179.49999999999989
 20
-82.500000000000014
 30
0.0
 11
-170.5
 21
-82.500000000000014
 31
0.0
  0
LINE
  5
89
  8
1
 62
     7
 10
-131.49999999999989
 20
-66.5
 30
0.0
 11
-148.80000000000001
 21
-66.5
 31
0.0
  0
LINE
  5
8A
  8
1
 62
     7
 10
-131.49999999999989
 20
-82.000000000000014
 30
0.0
 11
-131.49999999999989
 21
82.499999999999915
 31
0.0
  0
LINE
  5
8B
  8
1
 62
     7
 10
-124.0
 20
-82.500000000000014
 30
0.0
 11
-131.0
 21
-82.500000000000014
 31
0.0
  0
LINE
  5
8C
  8
1
 62
     7
 10
-123.5
 20
-82.000000000000014
 30
0.0
 11
-123.5
 21
82.499999999999915
 31
0.0
  0
LINE
  5
8D
  8
1
 62
     7
 10
-123.5
 20
-66.5
 30
0.0
 11
-103.0
 21
-66.5
 31
0.0
  0
LINE
  5
8E
  8
1
 62
     7
 10
-102.0
 20
65.5
 30
0.0
 11
-102.0
 21
-65.5
 31
0.0
  0
LINE
  5
8F
  8
1
 62
     7
 10
-123.5
 20
66.5
 30
0.0
 11
-103.0
 21
66.5
 31
0.0
  0
LINE
  5
90
  8
1
 62
     7
 10
-148.80000000000001
 20
66.5
 30
0.0
 11
-131.49999999999989
 21
66.5
 31
0.0
  0
LINE
  5
91
  8
1
 62
     7
 10
-103.0
 20
66.5
 30
0.0
 11
-102.0
 21
65.5
 31
0.0
  0
LINE
  5
92
  8
1
 62
     7
 10
-102.0
 20
-65.5
 30
0.0
 11
-103.0
 21
-66.5
 31
0.0
  0
LINE
  5
93
  8
1
 62
     7
 10
-123.5
 20
-82.000000000000014
 30
0.0
 11
-124.0
 21
-82.500000000000014
 31
0.0
  0
LINE
  5
94
  8
1
 62
     7
 10
-131.0
 20
-82.500000000000014
 30
0.0
 11
-131.49999999999989
 21
-82.000000000000014
 31
0.0
  0
LINE
  5
95
  8
1
 62
     7
 10
-149.80000000000001
 20
-82.500000000000014
 30
0.0
 11
-149.30000000000001
 21
-82.000000000000014
 31
0.0
  0
LINE
  5
96
  8
1
 62
     7
 10
-159.49999999999989
 20
-82.500000000000014
 30
0.0
 11
-160.0
 21
-82.000000000000014
 31
0.0
  0
LINE
  5
97
  8
1
 62
     7
 10
-179.49999999999989
 20
-82.500000000000014
 30
0.0
 11
-180.0
 21
-82.000000000000014
 31
0.0
  0
LINE
  5
98
  8
1
 62
     7
 10
-170.5
 20
-82.500000000000014
 30
0.0
 11
-170.0
 21
-82.000000000000014
 31
0.0
  0
LINE
  5
99
  8
1
 62
     7
 10
-180.0
 20
82.000000000000085
 30
0.0
 11
-179.49999999999989
 21
82.500000000000071
 31
0.0
  0
LINE
  5
9A
  8
1
 62
     7
 10
-116.59999999999989
 20
101.35643997025559
 30
0.0
 11
-116.59999999999989
 21
98.356439970255735
 31
0.0
  0
LINE
  5
9B
  8
1
 62
     7
 10
-116.7999999999999
 20
98.356439970255735
 30
0.0
 11
-116.7999999999999
 21
101.35643997025559
 31
0.0
  0
LINE
  5
9C
  8
1
 62
     7
 10
-117.0
 20
101.35643997025559
 30
0.0
 11
-117.0
 21
98.356439970255735
 31
0.0
  0
LINE
  5
9D
  8
1
 62
     7
 10
-117.2
 20
98.356439970255735
 30
0.0
 11
-117.2
 21
101.35643997025559
 31
0.0
  0
LINE
  5
9E
  8
1
 62
     7
 10
-117.40000000000011
 20
101.35643997025559
 30
0.0
 11
-117.40000000000011
 21
98.356439970255735
 31
0.0
  0
LINE
  5
9F
  8
1
 62
     7
 10
-118.0
 20
98.356439970255735
 30
0.0
 11
-116.0
 21
98.356439970255735
 31
0.0
  0
LINE
  5
A0
  8
1
 62
     7
 10
-118.0
 20
98.356439970255735
 30
0.0
 11
-118.0
 21
81.758463442668472
 31
0.0
  0
LINE
  5
A1
  8
1
 62
     7
 10
-116.0
 20
98.356439970255735
 30
0.0
 11
-116.0
 21
79.0
 31
0.0
  0
LINE
  5
A2
  8
1
 62
     7
 10
-118.0
 20
68.241536557331528
 30
0.0
 11
-118.0
 21
66.5
 31
0.0
  0
LINE
  5
A3
  8
1
 62
     7
 10
-116.0
 20
71.0
 30
0.0
 11
-116.0
 21
66.5
 31
0.0
  0
LINE
  5
A4
  8
1
 62
     7
 10
-180.0
 20
-77.999999999999972
 30
0.0
 11
-187.89999999999989
 21
-77.999999999999972
 31
0.0
  0
LINE
  5
A5
  8
1
 62
     7
 10
30.700000000000049
 20
67.5
 30
0.0
 11
30.700000000000049
 21
22.500000000000011
 31
0.0
  0
LINE
  5
A6
  8
1
 62
     3
 10
-10.0
 20
0.0000000000000107
 30
0.0
 11
0.0
 21
0.0
 31
0.0
  0
LINE
  5
A7
  8
1
  6
DASHDOT
 62
     3
 10
29.72981332738539
 20
0.0
 30
0.0
 11
41.138231996303382
 21
0.0
 31
0.0
  0
LINE
  5
A8
  8
1
  6
DASHDOT
 62
     3
 10
35.0
 20
5.3253405983765481
 30
0.0
 11
35.0
 21
-4.8497355117393486
 31
0.0
  0
LINE
  5
A9
  8
1
 62
     3
 10
78.0
 20
-0.0000000000000107
 30
0.0
 11
87.877665423134218
 21
0.0
 31
0.0
  0
LINE
  5
AA
  8
1
 62
     7
 10
20.0
 20
-22.500000000000011
 30
0.0
 11
20.0
 21
-82.000000000000014
 31
0.0
  0
LINE
  5
AB
  8
1
 62
     7
 10
31.322303590630099
 20
-42.33205944675197
 30
0.0
 11
31.947303590630099
 21
-32.83205944675197
 31
0.0
  0
LINE
  5
AC
  8
1
 62
     7
 10
31.34155648884337
 20
-42.047226469218522
 30
0.0
 11
32.903321194725777
 21
-32.547226469218522
 31
0.0
  0
LINE
  5
AD
  8
1
 62
     7
 10
33.808443511156717
 20
-42.452773530781457
 30
0.0
 11
35.370208217039021
 21
-32.952773530781471
 31
0.0
  0
LINE
  5
AE
  8
1
 62
     7
 10
34.465085900608067
 20
-42.047226469218522
 30
0.0
 11
36.02685060649047
 21
-32.547226469218522
 31
0.0
  0
LINE
  5
AF
  8
1
 62
     7
 10
36.931972922921432
 20
-42.452773530781492
 30
0.0
 11
38.493737628803729
 21
-32.952773530781478
 31
0.0
  0
LINE
  5
B0
  8
1
 62
     7
 10
37.588615312372781
 20
-42.047226469218501
 30
0.0
 11
39.150380018255177
 21
-32.547226469218522
 31
0.0
  0
LINE
  5
B1
  8
1
 62
     7
 10
40.055502334686132
 20
-42.452773530781457
 30
0.0
 11
41.617267040568429
 21
-32.952773530781471
 31
0.0
  0
LINE
  5
B2
  8
1
 62
     7
 10
40.712144724137488
 20
-42.047226469218522
 30
0.0
 11
42.273909430019899
 21
-32.547226469218522
 31
0.0
  0
LINE
  5
B3
  8
1
 62
     7
 10
43.179031746450853
 20
-42.452773530781492
 30
0.0
 11
44.740796452333143
 21
-32.952773530781478
 31
0.0
  0
LINE
  5
B4
  8
1
 62
     7
 10
43.835674135902202
 20
-42.047226469218529
 30
0.0
 11
45.397438841784613
 21
-32.547226469218522
 31
0.0
  0
LINE
  5
B5
  8
1
 62
     7
 10
46.302561158215553
 20
-42.452773530781492
 30
0.0
 11
47.86432586409785
 21
-32.952773530781478
 31
0.0
  0
LINE
  5
B6
  8
1
 62
     7
 10
46.959203547666903
 20
-42.047226469218522
 30
0.0
 11
48.520968253549299
 21
-32.547226469218522
 31
0.0
  0
LINE
  5
B7
  8
1
 62
     7
 10
49.426090569980261
 20
-42.452773530781457
 30
0.0
 11
50.98785527586255
 21
-32.952773530781471
 31
0.0
  0
LINE
  5
B8
  8
1
 62
     7
 10
50.08273295943161
 20
-42.047226469218522
 30
0.0
 11
51.644497665314027
 21
-32.547226469218522
 31
0.0
  0
LINE
  5
B9
  8
1
 62
     7
 10
52.549619981744968
 20
-42.452773530781492
 30
0.0
 11
54.11138468762725
 21
-32.952773530781478
 31
0.0
  0
LINE
  5
BA
  8
1
 62
     7
 10
53.206262371196317
 20
-42.047226469218501
 30
0.0
 11
54.76802707707872
 21
-32.547226469218508
 31
0.0
  0
LINE
  5
BB
  8
1
 62
     7
 10
55.673149393509682
 20
-42.452773530781457
 30
0.0
 11
57.234914099391958
 21
-32.952773530781471
 31
0.0
  0
LINE
  5
BC
  8
1
 62
     7
 10
56.329791782961017
 20
-42.047226469218522
 30
0.0
 11
57.891556488843428
 21
-32.547226469218522
 31
0.0
  0
LINE
  5
BD
  8
1
 62
     7
 10
58.796678805274382
 20
-42.452773530781492
 30
0.0
 11
60.358443511156679
 21
-32.952773530781478
 31
0.0
  0
LINE
  5
BE
  8
1
 62
     7
 10
61.0
 20
-43.624999999999993
 30
0.0
 11
61.0
 21
-31.500000000000011
 31
0.0
  0
LINE
  5
BF
  8
1
 62
     7
 10
59.752696409369953
 20
-42.167940553248023
 30
0.0
 11
60.377696409369953
 21
-32.667940553248009
 31
0.0
  0
LINE
  5
C0
  8
1
 62
     7
 10
31.200000000000049
 20
-22.500000000000011
 30
0.0
 11
31.200000000000049
 21
-31.25
 31
0.0
  0
LINE
  5
C1
  8
1
 62
     7
 10
30.700000000000049
 20
-82.000000000000014
 30
0.0
 11
30.700000000000049
 21
-22.500000000000011
 31
0.0
  0
LINE
  5
C2
  8
1
 62
     7
 10
19.0
 20
-26.400000000000009
 30
0.0
 11
10.0
 21
-26.399999999999991
 31
0.0
  0
LINE
  5
C3
  8
1
 62
     7
 10
45.0
 20
-14.000000000000011
 30
0.0
 11
10.0
 21
-14.000000000000011
 31
0.0
  0
LINE
  5
C4
  8
1
 62
     7
 10
45.0
 20
-22.000000000000011
 30
0.0
 11
44.5
 21
-22.500000000000011
 31
0.0
  0
LINE
  5
C5
  8
1
 62
     7
 10
44.5
 20
-22.500000000000011
 30
0.0
 11
19.0
 21
-22.500000000000011
 31
0.0
  0
LINE
  5
C6
  8
1
 62
     7
 10
19.0
 20
-29.199999999999989
 30
0.0
 11
19.0
 21
-22.500000000000011
 31
0.0
  0
LINE
  5
C7
  8
1
 62
     7
 10
19.0
 20
-29.199999999999989
 30
0.0
 11
18.5
 21
-29.699999999999999
 31
0.0
  0
LINE
  5
C8
  8
1
 62
     7
 10
10.5
 20
-29.699999999999999
 30
0.0
 11
10.0
 21
-29.199999999999989
 31
0.0
  0
LINE
  5
C9
  8
1
 62
     7
 10
18.5
 20
-29.699999999999999
 30
0.0
 11
10.5
 21
-29.699999999999999
 31
0.0
  0
LINE
  5
CA
  8
1
 62
     7
 10
27.0
 20
27.0
 30
0.0
 11
30.700000000000049
 21
27.0
 31
0.0
  0
LINE
  5
CB
  8
1
 62
     7
 10
27.0
 20
-26.999999999999989
 30
0.0
 11
30.700000000000049
 21
-26.999999999999989
 31
0.0
  0
LINE
  5
CC
  8
1
 62
     7
 10
27.0
 20
-26.999999999999989
 30
0.0
 11
27.0
 21
-22.500000000000011
 31
0.0
  0
LINE
  5
CD
  8
1
 62
     7
 10
27.0
 20
27.0
 30
0.0
 11
27.0
 21
22.500000000000011
 31
0.0
  0
LINE
  5
CE
  8
1
 62
     7
 10
20.0
 20
34.0
 30
0.0
 11
27.0
 21
27.0
 31
0.0
  0
LINE
  5
CF
  8
1
 62
     7
 10
20.0
 20
-33.999999999999993
 30
0.0
 11
27.0
 21
-26.999999999999989
 31
0.0
  0
LINE
  5
D0
  8
1
 62
     7
 10
20.0
 20
67.0
 30
0.0
 11
30.700000000000049
 21
67.0
 31
0.0
  0
LINE
  5
D1
  8
1
 62
     7
 10
193.7441843184009
 20
36.056624327025993
 30
0.0
 11
193.7441843184009
 21
38.943375672974099
 31
0.0
  0
LINE
  5
D2
  8
1
 62
     7
 10
191.2441843184009
 20
34.613248654051922
 30
0.0
 11
193.7441843184009
 21
36.056624327025993
 31
0.0
  0
LINE
  5
D3
  8
1
 62
     7
 10
188.7441843184009
 20
36.056624327025993
 30
0.0
 11
191.2441843184009
 21
34.613248654051922
 31
0.0
  0
LINE
  5
D4
  8
1
 62
     7
 10
188.7441843184009
 20
38.943375672974099
 30
0.0
 11
188.7441843184009
 21
36.056624327025993
 31
0.0
  0
LINE
  5
D5
  8
1
 62
     7
 10
191.2441843184009
 20
40.386751345948177
 30
0.0
 11
188.7441843184009
 21
38.943375672974099
 31
0.0
  0
LINE
  5
D6
  8
1
 62
     7
 10
193.7441843184009
 20
38.943375672974099
 30
0.0
 11
191.2441843184009
 21
40.386751345948177
 31
0.0
  0
LINE
  5
D7
  8
1
 62
     7
 10
323.64799488606661
 20
36.056624327025901
 30
0.0
 11
323.64799488606661
 21
38.943375672974028
 31
0.0
  0
LINE
  5
D8
  8
1
 62
     7
 10
321.14799488606661
 20
34.613248654051851
 30
0.0
 11
323.64799488606661
 21
36.056624327025901
 31
0.0
  0
LINE
  5
D9
  8
1
 62
     7
 10
318.64799488606661
 20
36.056624327025901
 30
0.0
 11
321.14799488606661
 21
34.613248654051851
 31
0.0
  0
LINE
  5
DA
  8
1
 62
     7
 10
318.64799488606661
 20
38.943375672974028
 30
0.0
 11
318.64799488606661
 21
36.056624327025901
 31
0.0
  0
LINE
  5
DB
  8
1
 62
     7
 10
321.14799488606661
 20
40.386751345948099
 30
0.0
 11
318.64799488606661
 21
38.943375672974028
 31
0.0
  0
LINE
  5
DC
  8
1
 62
     7
 10
323.64799488606661
 20
38.943375672974028
 30
0.0
 11
321.14799488606661
 21
40.386751345948099
 31
0.0
  0
LINE
  5
DD
  8
1
 62
     7
 10
12.399999999999981
 20
26.399999999999999
 30
0.0
 11
12.399999999999981
 21
42.5
 31
0.0
  0
LINE
  5
DE
  8
1
 62
     7
 10
17.600000000000019
 20
-26.399999999999991
 30
0.0
 11
17.600000000000019
 21
-42.499999999999993
 31
0.0
  0
LINE
  5
DF
  8
1
 62
     7
 10
10.0
 20
14.0
 30
0.0
 11
45.0
 21
14.0
 31
0.0
  0
LINE
  5
E0
  8
1
 62
     7
 10
10.0
 20
17.0
 30
0.0
 11
45.0
 21
17.0
 31
0.0
  0
LINE
  5
E1
  8
1
 62
     7
 10
10.0
 20
26.399999999999999
 30
0.0
 11
19.0
 21
26.399999999999999
 31
0.0
  0
LINE
  5
E2
  8
1
 62
     7
 10
45.0
 20
22.000000000000011
 30
0.0
 11
45.0
 21
-22.000000000000011
 31
0.0
  0
LINE
  5
E3
  8
1
 62
     7
 10
19.0
 20
22.5
 30
0.0
 11
19.0
 21
29.199999999999989
 31
0.0
  0
LINE
  5
E4
  8
1
  6
DASHDOT
 62
     3
 10
-11.26014207958224
 20
-74.999999999999972
 30
0.0
 11
21.228037804035459
 21
-74.999999999999972
 31
0.0
  0
LINE
  5
E5
  8
1
 62
     7
 10
20.0
 20
-67.500000000000014
 30
0.0
 11
30.700000000000049
 21
-67.500000000000014
 31
0.0
  0
LINE
  5
E6
  8
1
 62
     7
 10
48.5
 20
-67.500000000000014
 30
0.0
 11
56.5
 21
-67.500000000000014
 31
0.0
  0
LINE
  5
E7
  8
1
 62
     7
 10
10.0
 20
82.500000000000071
 30
0.0
 11
10.0
 21
-71.800000000000026
 31
0.0
  0
LINE
  5
E8
  8
1
 62
     3
 10
63.800000000000011
 20
71.800000000000026
 30
0.0
 11
66.0
 21
71.800000000000026
 31
0.0
  0
LINE
  5
E9
  8
1
 62
     3
 10
63.800000000000011
 20
78.200000000000017
 30
0.0
 11
66.0
 21
78.200000000000017
 31
0.0
  0
LINE
  5
EA
  8
1
 62
     3
 10
38.5
 20
71.800000000000026
 30
0.0
 11
42.0
 21
71.800000000000026
 31
0.0
  0
LINE
  5
EB
  8
1
 62
     3
 10
38.5
 20
78.200000000000017
 30
0.0
 11
42.0
 21
78.200000000000017
 31
0.0
  0
LINE
  5
EC
  8
1
 62
     7
 10
65.200000000000045
 20
79.0
 30
0.0
 11
65.200000000000045
 21
71.0
 31
0.0
  0
LINE
  5
ED
  8
1
 62
     7
 10
66.0
 20
78.200000000000017
 30
0.0
 11
65.200000000000045
 21
79.0
 31
0.0
  0
LINE
  5
EE
  8
1
 62
     7
 10
66.0
 20
71.800000000000026
 30
0.0
 11
66.0
 21
78.200000000000017
 31
0.0
  0
LINE
  5
EF
  8
1
 62
     7
 10
65.200000000000045
 20
71.0
 30
0.0
 11
66.0
 21
71.800000000000026
 31
0.0
  0
LINE
  5
F0
  8
1
 62
     7
 10
63.800000000000011
 20
71.0
 30
0.0
 11
65.200000000000045
 21
71.0
 31
0.0
  0
LINE
  5
F1
  8
1
 62
     7
 10
63.800000000000011
 20
79.0
 30
0.0
 11
65.200000000000045
 21
79.0
 31
0.0
  0
LINE
  5
F2
  8
1
 62
     7
 10
38.5
 20
71.0
 30
0.0
 11
42.0
 21
71.0
 31
0.0
  0
LINE
  5
F3
  8
1
 62
     7
 10
38.5
 20
79.0
 30
0.0
 11
42.0
 21
79.0
 31
0.0
  0
LINE
  5
F4
  8
1
 62
     7
 10
42.721687836487042
 20
82.500000000000071
 30
0.0
 11
61.518312163512967
 21
82.5
 31
0.0
  0
LINE
  5
F5
  8
1
 62
     7
 10
42.721687836487042
 20
78.75
 30
0.0
 11
48.5
 21
78.75
 31
0.0
  0
LINE
  5
F6
  8
1
 62
     7
 10
42.721687836487042
 20
71.25
 30
0.0
 11
48.5
 21
71.25
 31
0.0
  0
LINE
  5
F7
  8
1
 62
     7
 10
42.721687836487042
 20
67.5
 30
0.0
 11
48.5
 21
67.5
 31
0.0
  0
LINE
  5
F8
  8
1
 62
     7
 10
42.0
 20
69.375
 30
0.0
 11
42.0
 21
80.625
 31
0.0
  0
LINE
  5
F9
  8
1
 62
     7
 10
32.0
 20
82.499999999999915
 30
0.0
 11
32.0
 21
67.5
 31
0.0
  0
LINE
  5
FA
  8
1
 62
     7
 10
37.77831216351295
 20
67.5
 30
0.0
 11
32.0
 21
67.5
 31
0.0
  0
LINE
  5
FB
  8
1
 62
     7
 10
37.77831216351295
 20
71.25
 30
0.0
 11
32.0
 21
71.25
 31
0.0
  0
LINE
  5
FC
  8
1
 62
     7
 10
37.77831216351295
 20
78.75
 30
0.0
 11
32.0
 21
78.75
 31
0.0
  0
LINE
  5
FD
  8
1
 62
     7
 10
37.77831216351295
 20
82.500000000000071
 30
0.0
 11
0.5
 21
82.500000000000071
 31
0.0
  0
LINE
  5
FE
  8
1
 62
     7
 10
38.5
 20
80.625
 30
0.0
 11
38.5
 21
69.375
 31
0.0
  0
LINE
  5
FF
  8
1
 62
     7
 10
20.0
 20
67.5
 30
0.0
 11
20.0
 21
22.5
 31
0.0
  0
LINE
  5
100
  8
1
 62
     7
 10
10.0
 20
67.5
 30
0.0
 11
32.0
 21
67.5
 31
0.0
  0
LINE
  5
101
  8
1
 62
     7
 10
0.0
 20
-77.999999999999972
 30
0.0
 11
0.0
 21
-82.000000000000014
 31
0.0
  0
LINE
  5
102
  8
1
 62
     7
 10
10.0
 20
-71.999999999999972
 30
0.0
 11
-7.8999999999999773
 21
-71.999999999999972
 31
0.0
  0
LINE
  5
103
  8
1
 62
     3
 10
9.5
 20
-71.999999999999972
 30
0.0
 11
9.5
 21
-77.999999999999972
 31
0.0
  0
LINE
  5
104
  8
1
 62
     3
 10
9.5
 20
-77.399999999999977
 30
0.0
 11
10.0
 21
-77.68867513459476
 31
0.0
  0
LINE
  5
105
  8
1
 62
     3
 10
-8.5
 20
-77.399999999999977
 30
0.0
 11
9.5
 21
-77.399999999999977
 31
0.0
  0
LINE
  5
106
  8
1
 62
     3
 10
9.5
 20
-72.599999999999966
 30
0.0
 11
10.0
 21
-72.311324865405155
 31
0.0
  0
LINE
  5
107
  8
1
 62
     3
 10
-8.5
 20
-72.599999999999966
 30
0.0
 11
9.5
 21
-72.599999999999966
 31
0.0
  0
LINE
  5
108
  8
1
 62
     7
 10
-7.8999999999999773
 20
-71.999999999999972
 30
0.0
 11
-7.8999999999999773
 21
-77.999999999999972
 31
0.0
  0
LINE
  5
109
  8
1
 62
     7
 10
-8.5
 20
-77.399999999999977
 30
0.0
 11
-7.8999999999999773
 21
-77.999999999999972
 31
0.0
  0
LINE
  5
10A
  8
1
 62
     7
 10
-8.5
 20
-72.599999999999966
 30
0.0
 11
-8.5
 21
-77.399999999999977
 31
0.0
  0
LINE
  5
10B
  8
1
 62
     7
 10
-7.8999999999999773
 20
-71.999999999999972
 30
0.0
 11
-8.5
 21
-72.599999999999966
 31
0.0
  0
LINE
  5
10C
  8
1
 62
     7
 10
17.100000000000009
 20
-69.999999999999972
 30
0.0
 11
17.100000000000009
 21
-79.999999999999972
 31
0.0
  0
LINE
  5
10D
  8
1
 62
     7
 10
17.100000000000009
 20
-79.999999999999972
 30
0.0
 11
11.5
 21
-79.999999999999972
 31
0.0
  0
LINE
  5
10E
  8
1
 62
     7
 10
17.5
 20
-79.307179676972424
 30
0.0
 11
17.100000000000009
 21
-79.999999999999972
 31
0.0
  0
LINE
  5
10F
  8
1
 62
     7
 10
17.5
 20
-70.692820323027505
 30
0.0
 11
17.5
 21
-79.307179676972424
 31
0.0
  0
LINE
  5
110
  8
1
 62
     7
 10
17.100000000000009
 20
-69.999999999999972
 30
0.0
 11
17.5
 21
-70.692820323027505
 31
0.0
  0
LINE
  5
111
  8
1
 62
     7
 10
11.5
 20
-69.999999999999972
 30
0.0
 11
17.100000000000009
 21
-69.999999999999972
 31
0.0
  0
LINE
  5
112
  8
1
 62
     7
 10
11.5
 20
-81.099999999999966
 30
0.0
 11
10.0
 21
-81.099999999999966
 31
0.0
  0
LINE
  5
113
  8
1
 62
     7
 10
11.5
 20
-68.899999999999963
 30
0.0
 11
11.5
 21
-81.099999999999966
 31
0.0
  0
LINE
  5
114
  8
1
 62
     7
 10
10.0
 20
-68.899999999999963
 30
0.0
 11
11.5
 21
-68.899999999999963
 31
0.0
  0
LINE
  5
115
  8
1
 62
     7
 10
10.0
 20
-76.499999999999972
 30
0.0
 11
11.5
 21
-74.999999999999972
 31
0.0
  0
LINE
  5
116
  8
1
 62
     7
 10
10.0
 20
-74.999999999999972
 30
0.0
 11
11.5
 21
-73.499999999999972
 31
0.0
  0
LINE
  5
117
  8
1
 62
     7
 10
70.200000000000045
 20
-31.25
 30
0.0
 11
70.200000000000045
 21
-35.100000000000001
 31
0.0
  0
LINE
  5
118
  8
1
 62
     7
 10
64.800000000000068
 20
-34.5
 30
0.0
 11
64.800000000000068
 21
-40.499999999999993
 31
0.0
  0
LINE
  5
119
  8
1
 62
     3
 10
78.0
 20
-35.100000000000001
 30
0.0
 11
64.200000000000045
 21
-35.100000000000001
 31
0.0
  0
LINE
  5
11A
  8
1
 62
     3
 10
78.0
 20
-39.900000000000013
 30
0.0
 11
64.200000000000045
 21
-39.900000000000013
 31
0.0
  0
LINE
  5
11B
  8
1
 62
     3
 10
84.0
 20
-39.900000000000013
 30
0.0
 11
83.0
 21
-39.900000000000013
 31
0.0
  0
LINE
  5
11C
  8
1
 62
     3
 10
84.0
 20
-35.100000000000001
 30
0.0
 11
83.0
 21
-35.100000000000001
 31
0.0
  0
LINE
  5
11D
  8
1
 62
     7
 10
83.400000000000077
 20
-34.5
 30
0.0
 11
83.400000000000077
 21
-40.499999999999993
 31
0.0
  0
LINE
  5
11E
  8
1
 62
     7
 10
83.400000000000077
 20
-34.5
 30
0.0
 11
83.0
 21
-34.5
 31
0.0
  0
LINE
  5
11F
  8
1
 62
     7
 10
84.0
 20
-35.100000000000001
 30
0.0
 11
83.400000000000077
 21
-34.5
 31
0.0
  0
LINE
  5
120
  8
1
 62
     7
 10
84.0
 20
-39.900000000000013
 30
0.0
 11
84.0
 21
-35.100000000000001
 31
0.0
  0
LINE
  5
121
  8
1
 62
     7
 10
83.400000000000077
 20
-40.499999999999993
 30
0.0
 11
84.0
 21
-39.900000000000013
 31
0.0
  0
LINE
  5
122
  8
1
 62
     7
 10
83.0
 20
-40.499999999999993
 30
0.0
 11
83.400000000000077
 21
-40.499999999999993
 31
0.0
  0
LINE
  5
123
  8
1
 62
     7
 10
64.800000000000068
 20
-40.499999999999993
 30
0.0
 11
78.0
 21
-40.499999999999993
 31
0.0
  0
LINE
  5
124
  8
1
 62
     7
 10
64.800000000000068
 20
-34.5
 30
0.0
 11
64.200000000000045
 21
-35.100000000000001
 31
0.0
  0
LINE
  5
125
  8
1
 62
     7
 10
64.800000000000068
 20
-34.5
 30
0.0
 11
78.0
 21
-34.5
 31
0.0
  0
LINE
  5
126
  8
1
 62
     7
 10
64.800000000000068
 20
-40.499999999999993
 30
0.0
 11
64.200000000000045
 21
-39.900000000000013
 31
0.0
  0
LINE
  5
127
  8
1
 62
     7
 10
82.509252271188885
 20
-43.250000000000007
 30
0.0
 11
78.0
 21
-43.250000000000007
 31
0.0
  0
LINE
  5
128
  8
1
 62
     7
 10
82.509252271188885
 20
-40.375
 30
0.0
 11
78.0
 21
-40.375
 31
0.0
  0
LINE
  5
129
  8
1
 62
     7
 10
82.509252271188885
 20
-34.625
 30
0.0
 11
78.0
 21
-34.625
 31
0.0
  0
LINE
  5
12A
  8
1
 62
     7
 10
82.509252271188885
 20
-31.750000000000011
 30
0.0
 11
78.0
 21
-31.750000000000011
 31
0.0
  0
LINE
  5
12B
  8
1
 62
     7
 10
83.0
 20
-33.1875
 30
0.0
 11
83.0
 21
-41.812500000000007
 31
0.0
  0
LINE
  5
12C
  8
1
 62
     7
 10
61.0
 20
-31.500000000000011
 30
0.0
 11
64.200000000000045
 21
-31.500000000000011
 31
0.0
  0
LINE
  5
12D
  8
1
 62
     7
 10
64.200000000000045
 20
-31.500000000000011
 30
0.0
 11
64.200000000000045
 21
-43.5
 31
0.0
  0
LINE
  5
12E
  8
1
 62
     7
 10
64.200000000000045
 20
-43.5
 30
0.0
 11
61.0
 21
-43.499999999999993
 31
0.0
  0
LINE
  5
12F
  8
1
 62
     7
 10
70.200000000000045
 20
-39.900000000000013
 30
0.0
 11
70.200000000000045
 21
-43.75
 31
0.0
  0
LINE
  5
130
  8
1
 62
     7
 10
31.200000000000049
 20
-31.25
 30
0.0
 11
70.200000000000045
 21
-31.25
 31
0.0
  0
LINE
  5
131
  8
1
 62
     7
 10
31.200000000000049
 20
22.500000000000011
 30
0.0
 11
31.200000000000049
 21
66.5
 31
0.0
  0
LINE
  5
132
  8
1
 62
     7
 10
70.200000000000045
 20
-43.75
 30
0.0
 11
31.200000000000049
 21
-43.749999999999993
 31
0.0
  0
LINE
  5
133
  8
1
 62
     7
 10
12.399999999999981
 20
-30.600000000000001
 30
0.0
 11
17.600000000000019
 21
-30.600000000000001
 31
0.0
  0
LINE
  5
134
  8
1
 62
     7
 10
12.399999999999981
 20
-26.999999999999989
 30
0.0
 11
17.600000000000019
 21
-26.999999999999989
 31
0.0
  0
LINE
  5
135
  8
1
 62
     7
 10
12.399999999999981
 20
27.0
 30
0.0
 11
17.600000000000019
 21
27.0
 31
0.0
  0
LINE
  5
136
  8
1
 62
     7
 10
12.399999999999981
 20
30.600000000000001
 30
0.0
 11
17.600000000000019
 21
30.600000000000001
 31
0.0
  0
LINE
  5
137
  8
1
 62
     7
 10
12.399999999999981
 20
-42.5
 30
0.0
 11
12.399999999999981
 21
-26.399999999999991
 31
0.0
  0
LINE
  5
138
  8
1
 62
     7
 10
17.600000000000019
 20
42.5
 30
0.0
 11
17.600000000000019
 21
26.399999999999999
 31
0.0
  0
LINE
  5
139
  8
1
 62
     7
 10
16.799999999999951
 20
-42.499999999999993
 30
0.0
 11
20.0
 21
-42.5
 31
0.0
  0
LINE
  5
13A
  8
1
 62
     7
 10
16.799999999999951
 20
-66.0
 30
0.0
 11
16.799999999999951
 21
-42.499999999999993
 31
0.0
  0
LINE
  5
13B
  8
1
 62
     7
 10
13.200000000000051
 20
-42.499999999999993
 30
0.0
 11
13.200000000000051
 21
-66.0
 31
0.0
  0
LINE
  5
13C
  8
1
 62
     7
 10
0.0
 20
-42.5
 30
0.0
 11
13.200000000000051
 21
-42.499999999999993
 31
0.0
  0
LINE
  5
13D
  8
1
 62
     7
 10
16.799999999999951
 20
42.5
 30
0.0
 11
20.0
 21
42.5
 31
0.0
  0
LINE
  5
13E
  8
1
 62
     7
 10
16.799999999999951
 20
66.0
 30
0.0
 11
16.799999999999951
 21
42.5
 31
0.0
  0
LINE
  5
13F
  8
1
 62
     7
 10
13.200000000000051
 20
42.5
 30
0.0
 11
13.200000000000051
 21
66.0
 31
0.0
  0
LINE
  5
140
  8
1
 62
     7
 10
0.0
 20
42.5
 30
0.0
 11
13.200000000000051
 21
42.5
 31
0.0
  0
LINE
  5
141
  8
1
 62
     7
 10
10.0
 20
-66.000000000000014
 30
0.0
 11
20.0
 21
-66.000000000000014
 31
0.0
  0
LINE
  5
142
  8
1
 62
     7
 10
10.0
 20
66.0
 30
0.0
 11
20.0
 21
66.0
 31
0.0
  0
LINE
  5
143
  8
1
 62
     7
 10
30.200000000000049
 20
-82.500000000000014
 30
0.0
 11
20.5
 21
-82.500000000000014
 31
0.0
  0
LINE
  5
144
  8
1
 62
     7
 10
0.0
 20
82.000000000000085
 30
0.0
 11
0.0
 21
-72.0
 31
0.0
  0
LINE
  5
145
  8
1
 62
     7
 10
10.0
 20
-22.5
 30
0.0
 11
10.0
 21
-82.000000000000014
 31
0.0
  0
LINE
  5
146
  8
1
 62
     7
 10
0.5
 20
-82.500000000000014
 30
0.0
 11
9.5
 21
-82.500000000000014
 31
0.0
  0
LINE
  5
147
  8
1
 62
     7
 10
31.200000000000049
 20
-27.0
 30
0.0
 11
78.0
 21
-27.0
 31
0.0
  0
LINE
  5
148
  8
1
 62
     7
 10
31.200000000000049
 20
27.0
 30
0.0
 11
78.0
 21
27.0
 31
0.0
  0
LINE
  5
149
  8
1
 62
     7
 10
31.200000000000049
 20
-66.5
 30
0.0
 11
31.200000000000049
 21
-43.749999999999993
 31
0.0
  0
LINE
  5
14A
  8
1
 62
     7
 10
48.5
 20
-66.5
 30
0.0
 11
31.200000000000049
 21
-66.5
 31
0.0
  0
LINE
  5
14B
  8
1
 62
     7
 10
48.5
 20
-66.5
 30
0.0
 11
48.5
 21
-82.000000000000014
 31
0.0
  0
LINE
  5
14C
  8
1
 62
     7
 10
56.0
 20
-82.500000000000014
 30
0.0
 11
49.0
 21
-82.500000000000014
 31
0.0
  0
LINE
  5
14D
  8
1
 62
     7
 10
56.5
 20
-66.5
 30
0.0
 11
56.5
 21
-82.000000000000014
 31
0.0
  0
LINE
  5
14E
  8
1
 62
     7
 10
56.5
 20
-66.5
 30
0.0
 11
77.0
 21
-66.5
 31
0.0
  0
LINE
  5
14F
  8
1
 62
     7
 10
78.0
 20
65.5
 30
0.0
 11
78.0
 21
-65.5
 31
0.0
  0
LINE
  5
150
  8
1
 62
     7
 10
56.5
 20
66.5
 30
0.0
 11
77.0
 21
66.5
 31
0.0
  0
LINE
  5
151
  8
1
 62
     7
 10
56.5
 20
82.499999999999915
 30
0.0
 11
56.5
 21
66.5
 31
0.0
  0
LINE
  5
152
  8
1
 62
     7
 10
48.5
 20
66.5
 30
0.0
 11
48.5
 21
82.499999999999915
 31
0.0
  0
LINE
  5
153
  8
1
 62
     7
 10
31.200000000000049
 20
66.5
 30
0.0
 11
48.5
 21
66.5
 31
0.0
  0
LINE
  5
154
  8
1
  6
DASHED
 62
     3
 10
253.1960896022336
 20
17.59999999999998
 30
0.0
 11
253.1960896022336
 21
16.999999999999989
 31
0.0
  0
LINE
  5
155
  8
1
  6
DASHED
 62
     3
 10
259.19608960223371
 20
17.59999999999998
 30
0.0
 11
259.19608960223371
 21
16.999999999999989
 31
0.0
  0
LINE
  5
156
  8
1
  6
DASHED
 62
     3
 10
253.79608960223371
 20
22.371633825002569
 30
0.0
 11
253.79608960223371
 21
16.999999999999989
 31
0.0
  0
LINE
  5
157
  8
1
  6
DASHED
 62
     3
 10
258.5960896022338
 20
22.371633825002569
 30
0.0
 11
258.5960896022338
 21
16.999999999999989
 31
0.0
  0
LINE
  5
158
  8
1
 62
     7
 10
254.077127592192
 20
22.399999999999991
 30
0.0
 11
253.1960896022336
 21
22.399999999999991
 31
0.0
  0
LINE
  5
159
  8
1
  6
DASHED
 62
     7
 10
258.3150516122754
 20
22.399999999999991
 30
0.0
 11
254.077127592192
 21
22.399999999999991
 31
0.0
  0
LINE
  5
15A
  8
1
 62
     3
 10
253.79608960223371
 20
22.999999999999979
 30
0.0
 11
253.79608960223371
 21
22.371633825002569
 31
0.0
  0
LINE
  5
15B
  8
1
 62
     3
 10
258.5960896022338
 20
22.999999999999979
 30
0.0
 11
258.5960896022338
 21
22.371633825002569
 31
0.0
  0
LINE
  5
15C
  8
1
 62
     7
 10
259.19608960223371
 20
22.399999999999991
 30
0.0
 11
258.3150516122754
 21
22.399999999999991
 31
0.0
  0
LINE
  5
15D
  8
1
 62
     7
 10
259.19608960223371
 20
22.399999999999991
 30
0.0
 11
259.19608960223371
 21
22.299103120977751
 31
0.0
  0
LINE
  5
15E
  8
1
 62
     7
 10
258.5960896022338
 20
22.999999999999979
 30
0.0
 11
259.19608960223371
 21
22.399999999999991
 31
0.0
  0
LINE
  5
15F
  8
1
 62
     7
 10
253.79608960223371
 20
22.999999999999979
 30
0.0
 11
258.5960896022338
 21
22.999999999999979
 31
0.0
  0
LINE
  5
160
  8
1
 62
     7
 10
253.1960896022336
 20
22.399999999999991
 30
0.0
 11
253.79608960223371
 21
22.999999999999979
 31
0.0
  0
LINE
  5
161
  8
1
 62
     7
 10
253.1960896022336
 20
22.299103120977751
 30
0.0
 11
253.1960896022336
 21
22.399999999999991
 31
0.0
  0
LINE
  5
162
  8
1
  6
DASHED
 62
     7
 10
253.1960896022336
 20
17.59999999999998
 30
0.0
 11
259.19608960223371
 21
17.59999999999998
 31
0.0
  0
LINE
  5
163
  8
1
  6
DASHED
 62
     7
 10
259.19608960223371
 20
17.59999999999998
 30
0.0
 11
259.19608960223371
 21
22.299103120977751
 31
0.0
  0
LINE
  5
164
  8
1
  6
DASHED
 62
     7
 10
258.5960896022338
 20
16.999999999999989
 30
0.0
 11
259.19608960223371
 21
17.59999999999998
 31
0.0
  0
LINE
  5
165
  8
1
  6
DASHED
 62
     7
 10
253.1960896022336
 20
17.59999999999998
 30
0.0
 11
253.1960896022336
 21
22.299103120977751
 31
0.0
  0
LINE
  5
166
  8
1
  6
DASHED
 62
     7
 10
253.79608960223371
 20
16.999999999999989
 30
0.0
 11
253.1960896022336
 21
17.59999999999998
 31
0.0
  0
LINE
  5
167
  8
1
  6
DASHED
 62
     7
 10
270.79608960223362
 20
3.0
 30
0.0
 11
270.79608960223362
 21
-3.0000000000000009
 31
0.0
  0
LINE
  5
168
  8
1
  6
DASHED
 62
     7
 10
275.5960896022338
 20
3.0
 30
0.0
 11
275.5960896022338
 21
-3.0000000000000009
 31
0.0
  0
LINE
  5
169
  8
1
  6
DASHED
 62
     3
 10
270.79608960223362
 20
-3.0000000000000009
 30
0.0
 11
269.87088393341099
 21
-3.0000000000000009
 31
0.0
  0
LINE
  5
16A
  8
1
  6
DASHED
 62
     3
 10
270.79608960223362
 20
3.0
 30
0.0
 11
269.87088393341099
 21
3.0
 31
0.0
  0
LINE
  5
16B
  8
1
  6
DASHED
 62
     7
 10
270.19608960223371
 20
-2.4000000000000021
 30
0.0
 11
269.98884132188709
 21
-2.4000000000000021
 31
0.0
  0
LINE
  5
16C
  8
1
  6
DASHED
 62
     7
 10
270.19608960223371
 20
2.399999999999999
 30
0.0
 11
269.98884132188709
 21
2.399999999999999
 31
0.0
  0
LINE
  5
16D
  8
1
  6
DASHED
 62
     7
 10
276.1960896022336
 20
-2.4000000000000021
 30
0.0
 11
278.56772342723627
 21
-2.4000000000000021
 31
0.0
  0
LINE
  5
16E
  8
1
  6
DASHED
 62
     7
 10
276.1960896022336
 20
2.399999999999999
 30
0.0
 11
278.56772342723627
 21
2.399999999999999
 31
0.0
  0
LINE
  5
16F
  8
1
  6
DASHED
 62
     3
 10
275.5960896022338
 20
-3.0000000000000009
 30
0.0
 11
278.49519272321152
 21
-3.0000000000000009
 31
0.0
  0
LINE
  5
170
  8
1
  6
DASHED
 62
     3
 10
275.5960896022338
 20
3.0
 30
0.0
 11
278.49519272321152
 21
3.0
 31
0.0
  0
LINE
  5
171
  8
1
  6
DASHED
 62
     3
 10
270.19608960223371
 20
-2.4000000000000021
 30
0.0
 11
276.1960896022336
 21
-2.4000000000000021
 31
0.0
  0
LINE
  5
172
  8
1
  6
DASHED
 62
     3
 10
270.19608960223371
 20
2.399999999999999
 30
0.0
 11
276.1960896022336
 21
2.399999999999999
 31
0.0
  0
LINE
  5
173
  8
1
  6
DASHED
 62
     7
 10
270.19608960223371
 20
-2.4000000000000021
 30
0.0
 11
270.19608960223371
 21
2.399999999999999
 31
0.0
  0
LINE
  5
174
  8
1
  6
DASHED
 62
     7
 10
270.79608960223362
 20
-3.0000000000000009
 30
0.0
 11
270.19608960223371
 21
-2.4000000000000021
 31
0.0
  0
LINE
  5
175
  8
1
  6
DASHED
 62
     7
 10
275.5960896022338
 20
-3.0000000000000009
 30
0.0
 11
270.79608960223362
 21
-3.0000000000000009
 31
0.0
  0
LINE
  5
176
  8
1
  6
DASHED
 62
     7
 10
276.1960896022336
 20
-2.4000000000000021
 30
0.0
 11
275.5960896022338
 21
-3.0000000000000009
 31
0.0
  0
LINE
  5
177
  8
1
  6
DASHED
 62
     7
 10
276.1960896022336
 20
2.399999999999999
 30
0.0
 11
276.1960896022336
 21
-2.4000000000000021
 31
0.0
  0
LINE
  5
178
  8
1
  6
DASHED
 62
     7
 10
275.5960896022338
 20
3.0
 30
0.0
 11
276.1960896022336
 21
2.399999999999999
 31
0.0
  0
LINE
  5
179
  8
1
  6
DASHED
 62
     7
 10
270.79608960223362
 20
3.0
 30
0.0
 11
275.5960896022338
 21
3.0
 31
0.0
  0
LINE
  5
17A
  8
1
  6
DASHED
 62
     7
 10
270.19608960223371
 20
2.399999999999999
 30
0.0
 11
270.79608960223362
 21
3.0
 31
0.0
  0
LINE
  5
17B
  8
1
 62
     7
 10
252.69608960223371
 20
16.999999999999989
 30
0.0
 11
252.69608960223371
 21
13.55544171172596
 31
0.0
  0
LINE
  5
17C
  8
1
 62
     7
 10
259.69608960223371
 20
16.999999999999989
 30
0.0
 11
252.69608960223371
 21
16.999999999999989
 31
0.0
  0
LINE
  5
17D
  8
1
 62
     7
 10
259.69608960223371
 20
13.55544171172596
 30
0.0
 11
259.69608960223371
 21
16.999999999999989
 31
0.0
  0
LINE
  5
17E
  8
1
 62
     7
 10
228.72013696031729
 20
15.86324865405186
 30
0.0
 11
228.72013696031729
 21
21.63675134594812
 31
0.0
  0
LINE
  5
17F
  8
1
 62
     7
 10
223.72013696031729
 20
12.97649730810374
 30
0.0
 11
228.72013696031729
 21
15.86324865405186
 31
0.0
  0
LINE
  5
180
  8
1
 62
     7
 10
218.72013696031729
 20
15.86324865405186
 30
0.0
 11
223.72013696031729
 21
12.97649730810374
 31
0.0
  0
LINE
  5
181
  8
1
 62
     7
 10
218.72013696031729
 20
21.63675134594812
 30
0.0
 11
218.72013696031729
 21
15.86324865405186
 31
0.0
  0
LINE
  5
182
  8
1
 62
     7
 10
223.72013696031729
 20
24.52350269189624
 30
0.0
 11
218.72013696031729
 21
21.63675134594812
 31
0.0
  0
LINE
  5
183
  8
1
 62
     7
 10
228.72013696031729
 20
21.63675134594812
 30
0.0
 11
223.72013696031729
 21
24.52350269189624
 31
0.0
  0
LINE
  5
184
  8
1
 62
     7
 10
261.19608960223371
 20
-40.386751345948127
 30
0.0
 11
261.19608960223371
 21
-34.61324865405188
 31
0.0
  0
LINE
  5
185
  8
1
 62
     7
 10
256.19608960223371
 20
-43.273502691896248
 30
0.0
 11
261.19608960223371
 21
-40.386751345948127
 31
0.0
  0
LINE
  5
186
  8
1
 62
     7
 10
251.1960896022336
 20
-40.386751345948127
 30
0.0
 11
256.19608960223371
 21
-43.273502691896248
 31
0.0
  0
LINE
  5
187
  8
1
 62
     7
 10
251.1960896022336
 20
-34.61324865405188
 30
0.0
 11
251.1960896022336
 21
-40.386751345948127
 31
0.0
  0
LINE
  5
188
  8
1
 62
     7
 10
256.19608960223371
 20
-31.726497308103749
 30
0.0
 11
251.1960896022336
 21
-34.61324865405188
 31
0.0
  0
LINE
  5
189
  8
1
 62
     7
 10
261.19608960223371
 20
-34.61324865405188
 30
0.0
 11
256.19608960223371
 21
-31.726497308103749
 31
0.0
  0
LINE
  5
18A
  8
1
 62
     7
 10
293.67204224415008
 20
15.86324865405186
 30
0.0
 11
293.67204224415008
 21
21.63675134594812
 31
0.0
  0
LINE
  5
18B
  8
1
 62
     7
 10
288.67204224415019
 20
12.97649730810374
 30
0.0
 11
293.67204224415008
 21
15.86324865405186
 31
0.0
  0
LINE
  5
18C
  8
1
 62
     7
 10
283.67204224415008
 20
15.86324865405186
 30
0.0
 11
288.67204224415019
 21
12.97649730810374
 31
0.0
  0
LINE
  5
18D
  8
1
 62
     7
 10
283.67204224415008
 20
21.63675134594812
 30
0.0
 11
283.67204224415008
 21
15.86324865405186
 31
0.0
  0
LINE
  5
18E
  8
1
 62
     7
 10
288.67204224415019
 20
24.52350269189624
 30
0.0
 11
283.67204224415008
 21
21.63675134594812
 31
0.0
  0
LINE
  5
18F
  8
1
 62
     7
 10
293.67204224415008
 20
21.63675134594812
 30
0.0
 11
288.67204224415019
 21
24.52350269189624
 31
0.0
  0
LINE
  5
190
  8
1
 62
     7
 10
258.69608960223371
 20
-76.443375672974057
 30
0.0
 11
258.69608960223371
 21
-73.556624327025943
 31
0.0
  0
LINE
  5
191
  8
1
 62
     7
 10
256.19608960223371
 20
-77.886751345948142
 30
0.0
 11
258.69608960223371
 21
-76.443375672974057
 31
0.0
  0
LINE
  5
192
  8
1
 62
     7
 10
253.6960896022336
 20
-76.443375672974057
 30
0.0
 11
256.19608960223371
 21
-77.886751345948142
 31
0.0
  0
LINE
  5
193
  8
1
 62
     7
 10
253.6960896022336
 20
-73.556624327025943
 30
0.0
 11
253.6960896022336
 21
-76.443375672974057
 31
0.0
  0
LINE
  5
194
  8
1
 62
     7
 10
256.19608960223371
 20
-72.113248654051858
 30
0.0
 11
253.6960896022336
 21
-73.556624327025943
 31
0.0
  0
LINE
  5
195
  8
1
 62
     7
 10
258.69608960223371
 20
-73.556624327025943
 30
0.0
 11
256.19608960223371
 21
-72.113248654051858
 31
0.0
  0
LINE
  5
196
  8
1
 62
     7
 10
197.74418431840081
 20
-41.252776749732583
 30
0.0
 11
197.74418431840081
 21
-33.747223250267439
 31
0.0
  0
LINE
  5
197
  8
1
 62
     7
 10
191.24418431840081
 20
-45.005553499465137
 30
0.0
 11
197.74418431840081
 21
-41.252776749732583
 31
0.0
  0
LINE
  5
198
  8
1
 62
     7
 10
184.74418431840081
 20
-41.252776749732583
 30
0.0
 11
191.24418431840081
 21
-45.005553499465137
 31
0.0
  0
LINE
  5
199
  8
1
 62
     7
 10
184.74418431840081
 20
-33.747223250267432
 30
0.0
 11
184.74418431840081
 21
-41.252776749732583
 31
0.0
  0
LINE
  5
19A
  8
1
 62
     7
 10
191.24418431840081
 20
-29.99444650053487
 30
0.0
 11
184.74418431840081
 21
-33.747223250267432
 31
0.0
  0
LINE
  5
19B
  8
1
 62
     7
 10
197.74418431840081
 20
-33.747223250267439
 30
0.0
 11
191.24418431840081
 21
-29.99444650053487
 31
0.0
  0
LINE
  5
19C
  8
1
 62
     7
 10
327.64799488606661
 20
-41.252776749732583
 30
0.0
 11
327.64799488606661
 21
-33.747223250267439
 31
0.0
  0
LINE
  5
19D
  8
1
 62
     7
 10
321.14799488606661
 20
-45.005553499465137
 30
0.0
 11
327.64799488606661
 21
-41.252776749732583
 31
0.0
  0
LINE
  5
19E
  8
1
 62
     7
 10
314.64799488606661
 20
-41.252776749732583
 30
0.0
 11
321.14799488606661
 21
-45.005553499465137
 31
0.0
  0
LINE
  5
19F
  8
1
 62
     7
 10
314.64799488606661
 20
-33.747223250267432
 30
0.0
 11
314.64799488606661
 21
-41.252776749732583
 31
0.0
  0
LINE
  5
1A0
  8
1
 62
     7
 10
321.14799488606661
 20
-29.99444650053487
 30
0.0
 11
314.64799488606661
 21
-33.747223250267432
 31
0.0
  0
LINE
  5
1A1
  8
1
 62
     7
 10
327.64799488606661
 20
-33.747223250267439
 30
0.0
 11
321.14799488606661
 21
-29.99444650053487
 31
0.0
  0
LINE
  5
1A2
  8
1
 62
     7
 10
332.11637936475512
 20
32.285594347553612
 30
0.0
 11
328.31305839552761
 21
30.0897459621556
 31
0.0
  0
LINE
  5
1A3
  8
1
  6
DASHDOT
 62
     3
 10
201.20347646192189
 20
31.75000000000005
 30
0.0
 11
181.19828963450141
 21
43.300000000000068
 31
0.0
  0
LINE
  5
1A4
  8
1
  6
DASHDOT
 62
     3
 10
311.18870274254562
 20
31.749999999999979
 30
0.0
 11
331.19388956996607
 21
43.299999999999983
 31
0.0
  0
LINE
  5
1A5
  8
1
 62
     7
 10
184.07912080893971
 20
30.089745962155678
 30
0.0
 11
180.27579983971231
 21
32.285594347553669
 31
0.0
  0
LINE
  5
1A6
  8
1
 62
     7
 10
246.1960896022336
 20
-81.891696770796017
 30
0.0
 11
246.1960896022336
 21
-77.500000000000014
 31
0.0
  0
LINE
  5
1A7
  8
1
 62
     7
 10
266.19608960223371
 20
-77.500000000000014
 30
0.0
 11
266.19608960223371
 21
-81.891696770796017
 31
0.0
  0
LINE
  5
1A8
  8
1
 62
     7
 10
77.0
 20
66.5
 30
0.0
 11
78.0
 21
65.5
 31
0.0
  0
LINE
  5
1A9
  8
1
 62
     7
 10
78.0
 20
-65.5
 30
0.0
 11
77.0
 21
-66.5
 31
0.0
  0
LINE
  5
1AA
  8
1
 62
     7
 10
56.5
 20
-82.000000000000014
 30
0.0
 11
56.0
 21
-82.500000000000014
 31
0.0
  0
LINE
  5
1AB
  8
1
 62
     7
 10
49.0
 20
-82.500000000000014
 30
0.0
 11
48.5
 21
-82.000000000000014
 31
0.0
  0
LINE
  5
1AC
  8
1
 62
     7
 10
30.200000000000049
 20
-82.500000000000014
 30
0.0
 11
30.700000000000049
 21
-82.000000000000014
 31
0.0
  0
LINE
  5
1AD
  8
1
 62
     7
 10
20.5
 20
-82.500000000000014
 30
0.0
 11
20.0
 21
-82.000000000000014
 31
0.0
  0
LINE
  5
1AE
  8
1
 62
     7
 10
0.5
 20
-82.500000000000014
 30
0.0
 11
0.0
 21
-82.000000000000014
 31
0.0
  0
LINE
  5
1AF
  8
1
 62
     7
 10
9.5
 20
-82.500000000000014
 30
0.0
 11
10.0
 21
-82.000000000000014
 31
0.0
  0
LINE
  5
1B0
  8
1
 62
     7
 10
0.0
 20
82.000000000000085
 30
0.0
 11
0.5
 21
82.500000000000071
 31
0.0
  0
LINE
  5
1B1
  8
1
 62
     7
 10
32.0
 20
22.399999999999991
 30
0.0
 11
32.600000000000009
 21
23.0
 31
0.0
  0
LINE
  5
1B2
  8
1
 62
     7
 10
32.600000000000009
 20
23.0
 30
0.0
 11
37.39999999999997
 21
23.0
 31
0.0
  0
LINE
  5
1B3
  8
1
 62
     7
 10
37.39999999999997
 20
23.0
 30
0.0
 11
38.0
 21
22.399999999999991
 31
0.0
  0
LINE
  5
1B4
  8
1
 62
     7
 10
38.0
 20
22.399999999999991
 30
0.0
 11
38.0
 21
17.600000000000001
 31
0.0
  0
LINE
  5
1B5
  8
1
 62
     7
 10
38.0
 20
17.600000000000001
 30
0.0
 11
37.39999999999997
 21
17.0
 31
0.0
  0
LINE
  5
1B6
  8
1
 62
     7
 10
32.600000000000009
 20
17.0
 30
0.0
 11
32.0
 21
17.600000000000001
 31
0.0
  0
LINE
  5
1B7
  8
1
 62
     7
 10
32.0
 20
17.600000000000001
 30
0.0
 11
32.0
 21
22.399999999999991
 31
0.0
  0
LINE
  5
1B8
  8
1
 62
     3
 10
38.0
 20
22.399999999999991
 30
0.0
 11
38.0
 21
22.500000000000011
 31
0.0
  0
LINE
  5
1B9
  8
1
 62
     3
 10
32.0
 20
22.399999999999991
 30
0.0
 11
32.0
 21
22.500000000000011
 31
0.0
  0
LINE
  5
1BA
  8
1
 62
     3
 10
32.0
 20
17.600000000000001
 30
0.0
 11
32.0
 21
17.0
 31
0.0
  0
LINE
  5
1BB
  8
1
 62
     3
 10
38.0
 20
17.600000000000001
 30
0.0
 11
38.0
 21
17.0
 31
0.0
  0
LINE
  5
1BC
  8
1
 62
     3
 10
37.39999999999997
 20
17.0
 30
0.0
 11
37.39999999999997
 21
23.0
 31
0.0
  0
LINE
  5
1BD
  8
1
 62
     3
 10
32.600000000000009
 20
23.0
 30
0.0
 11
32.600000000000009
 21
17.0
 31
0.0
  0
LINE
  5
1BE
  8
1
 62
     7
 10
32.0
 20
22.399999999999991
 30
0.0
 11
38.0
 21
22.399999999999991
 31
0.0
  0
LINE
  5
1BF
  8
1
 62
     7
 10
32.0
 20
17.600000000000001
 30
0.0
 11
38.0
 21
17.600000000000001
 31
0.0
  0
LINE
  5
1C0
  8
1
 62
     7
 10
32.600000000000009
 20
22.500000000000011
 30
0.0
 11
19.0
 21
22.5
 31
0.0
  0
LINE
  5
1C1
  8
1
 62
     7
 10
37.39999999999997
 20
22.500000000000011
 30
0.0
 11
44.5
 21
22.500000000000011
 31
0.0
  0
LINE
  5
1C2
  8
1
  6
DASHDOT
 62
     3
 10
35.0
 20
25.26890652764029
 30
0.0
 11
35.0
 21
15.346248888642149
 31
0.0
  0
LINE
  5
1C3
  8
1
 62
     7
 10
63.400000000000098
 20
101.35643997025559
 30
0.0
 11
63.400000000000098
 21
98.356439970255735
 31
0.0
  0
LINE
  5
1C4
  8
1
 62
     7
 10
63.200000000000038
 20
98.356439970255735
 30
0.0
 11
63.200000000000038
 21
101.35643997025559
 31
0.0
  0
LINE
  5
1C5
  8
1
 62
     7
 10
63.0
 20
101.35643997025559
 30
0.0
 11
63.0
 21
98.356439970255735
 31
0.0
  0
LINE
  5
1C6
  8
1
 62
     7
 10
62.799999999999947
 20
98.356439970255735
 30
0.0
 11
62.799999999999947
 21
101.35643997025559
 31
0.0
  0
LINE
  5
1C7
  8
1
 62
     7
 10
62.599999999999902
 20
101.35643997025559
 30
0.0
 11
62.599999999999902
 21
98.356439970255735
 31
0.0
  0
LINE
  5
1C8
  8
1
 62
     7
 10
62.0
 20
98.356439970255735
 30
0.0
 11
64.0
 21
98.356439970255735
 31
0.0
  0
LINE
  5
1C9
  8
1
 62
     7
 10
62.0
 20
98.356439970255735
 30
0.0
 11
62.0
 21
81.758463442668514
 31
0.0
  0
LINE
  5
1CA
  8
1
 62
     7
 10
64.0
 20
98.356439970255735
 30
0.0
 11
64.0
 21
79.0
 31
0.0
  0
LINE
  5
1CB
  8
1
 62
     7
 10
62.0
 20
68.2415365573315
 30
0.0
 11
62.0
 21
66.5
 31
0.0
  0
LINE
  5
1CC
  8
1
 62
     7
 10
64.0
 20
71.0
 30
0.0
 11
64.0
 21
66.5
 31
0.0
  0
LINE
  5
1CD
  8
1
 62
     7
 10
262.69608960223371
 20
78.752776749732561
 30
0.0
 11
256.19608960223371
 21
82.505553499465165
 31
0.0
  0
LINE
  5
1CE
  8
1
 62
     7
 10
256.19608960223371
 20
82.505553499465165
 30
0.0
 11
249.6960896022336
 21
78.752776749732561
 31
0.0
  0
LINE
  5
1CF
  8
1
 62
     7
 10
249.6960896022336
 20
78.752776749732561
 30
0.0
 11
249.6960896022336
 21
71.247223250267439
 31
0.0
  0
LINE
  5
1D0
  8
1
 62
     7
 10
249.6960896022336
 20
71.247223250267439
 30
0.0
 11
256.19608960223371
 21
67.494446500534849
 31
0.0
  0
LINE
  5
1D1
  8
1
 62
     7
 10
256.19608960223371
 20
67.494446500534849
 30
0.0
 11
262.69608960223371
 21
71.247223250267439
 31
0.0
  0
LINE
  5
1D2
  8
1
 62
     7
 10
262.69608960223371
 20
71.247223250267439
 30
0.0
 11
262.69608960223371
 21
78.752776749732561
 31
0.0
  0
LINE
  5
1D3
  8
1
 62
     7
 10
318.31305839552761
 20
47.410254037844368
 30
0.0
 11
322.11637936475512
 21
49.606102423242369
 31
0.0
  0
LINE
  5
1D4
  8
1
 62
     7
 10
194.07912080893971
 20
47.41025403784446
 30
0.0
 11
190.27579983971219
 21
49.606102423242447
 31
0.0
  0
LINE
  5
1D5
  8
1
 62
     7
 10
200.6224080741726
 20
99.056439970255767
 30
0.0
 11
199.1224080741726
 21
101.6545161816089
 31
0.0
  0
LINE
  5
1D6
  8
1
 62
     7
 10
200.44920299341589
 20
98.956439970255758
 30
0.0
 11
198.94920299341581
 21
101.554516181609
 31
0.0
  0
LINE
  5
1D7
  8
1
 62
     7
 10
198.77599791265891
 20
101.45451618160909
 30
0.0
 11
200.27599791265891
 21
98.856439970255735
 31
0.0
  0
LINE
  5
1D8
  8
1
 62
     7
 10
200.10279283190201
 20
98.756439970255755
 30
0.0
 11
198.60279283190201
 21
101.3545161816091
 31
0.0
  0
LINE
  5
1D9
  8
1
 62
     7
 10
198.42958775114511
 20
101.25451618160901
 30
0.0
 11
199.92958775114511
 21
98.656439970255775
 31
0.0
  0
LINE
  5
1DA
  8
1
 62
     7
 10
198.89035726660379
 20
98.056439970255767
 30
0.0
 11
197.39035726660379
 21
100.6545161816089
 31
0.0
  0
LINE
  5
1DB
  8
1
 62
     7
 10
197.21715218584691
 20
100.5545161816089
 30
0.0
 11
198.71715218584691
 21
97.956439970255758
 31
0.0
  0
LINE
  5
1DC
  8
1
 62
     7
 10
198.5439471050899
 20
97.856439970255735
 30
0.0
 11
197.0439471050899
 21
100.45451618160899
 31
0.0
  0
LINE
  5
1DD
  8
1
 62
     7
 10
196.8707420243332
 20
100.3545161816091
 30
0.0
 11
198.3707420243332
 21
97.756439970255755
 31
0.0
  0
LINE
  5
1DE
  8
1
 62
     7
 10
198.19753694357621
 20
97.656439970255775
 30
0.0
 11
196.69753694357621
 21
100.25451618160901
 31
0.0
  0
LINE
  5
1DF
  8
1
 62
     7
 10
197.67792170130559
 20
97.356439970255735
 30
0.0
 11
201.1420233164433
 21
99.356439970255735
 31
0.0
  0
LINE
  5
1E0
  8
1
 62
     7
 10
-7.8999999999999773
 20
-77.999999999999972
 30
0.0
 11
10.0
 21
-77.999999999999972
 31
0.0
  0
LINE
  5
1E1
  8
1
 62
     7
 10
10.0
 20
29.199999999999989
 30
0.0
 11
10.5
 21
29.699999999999999
 31
0.0
  0
LINE
  5
1E2
  8
1
 62
     7
 10
10.5
 20
29.699999999999999
 30
0.0
 11
18.5
 21
29.699999999999999
 31
0.0
  0
LINE
  5
1E3
  8
1
 62
     7
 10
44.5
 20
22.500000000000011
 30
0.0
 11
45.0
 21
22.000000000000011
 31
0.0
  0
LINE
  5
1E4
  8
1
 62
     7
 10
18.5
 20
29.699999999999999
 30
0.0
 11
19.0
 21
29.199999999999989
 31
0.0
  0
LINE
  5
1E5
  8
1
 62
     7
 10
0.0
 20
-71.499999999999972
 30
0.0
 11
10.0
 21
-71.499999999999972
 31
0.0
  0
LINE
  5
1E6
  8
1
 62
     7
 10
0.0
 20
-78.499999999999972
 30
0.0
 11
10.0
 21
-78.499999999999972
 31
0.0
  0
LINE
  5
1E7
  8
1
 62
     7
 10
224.6931814057663
 20
58.564637582460499
 30
0.0
 11
201.1420233164433
 21
99.356439970255735
 31
0.0
  0
LINE
  5
1E8
  8
1
 62
     7
 10
222.94608960223849
 20
57.590689351667919
 30
0.0
 11
199.40997250887449
 21
98.356439970255735
 31
0.0
  0
LINE
  5
1E9
  8
1
 62
     7
 10
221.22907979062259
 20
56.564637582456932
 30
0.0
 11
197.67792170130559
 21
97.356439970255735
 31
0.0
  0
ARC
  5
1EA
  8
1
 62
     7
 10
59.443459633612783
 20
69.375
 30
0.0
 40
2.796540366387235
 50
317.89655112925391
 51
42.103448870746099
  0
ARC
  5
1EB
  8
1
 62
     7
 10
52.136370289181613
 20
75.0
 30
0.0
 40
10.103629710818399
 50
338.21321070173809
 51
21.786789298261919
  0
ARC
  5
1EC
  8
1
 62
     7
 10
59.443459633612783
 20
80.625
 30
0.0
 40
2.796540366387235
 50
317.89655112925391
 51
42.103448870746099
  0
ARC
  5
1ED
  8
1
 62
     7
 10
-120.5565403663872
 20
69.375
 30
0.0
 40
2.7965403663873079
 50
317.89655112925527
 51
42.103448870744721
  0
ARC
  5
1EE
  8
1
 62
     7
 10
-127.8636297108185
 20
75.0
 30
0.0
 40
10.10362971081862
 50
338.21321070173849
 51
21.786789298261422
  0
ARC
  5
1EF
  8
1
 62
     7
 10
-120.5565403663872
 20
80.625
 30
0.0
 40
2.7965403663873079
 50
317.89655112925527
 51
42.103448870744721
  0
ARC
  5
1F0
  8
1
  6
DASHDOT
 62
     3
 10
256.19608960223371
 20
-0.0000000000000107
 30
0.0
 40
74.999999999999986
 50
263.74632841160962
 51
276.35409035948209
  0
ARC
  5
1F1
  8
1
  6
DASHDOT
 62
     3
 10
256.19608960223371
 20
-0.0000000000000107
 30
0.0
 40
75.0
 50
23.461525329399329
 51
36.51700994948186
  0
ARC
  5
1F2
  8
1
  6
DASHDOT
 62
     3
 10
256.19608960223371
 20
-0.0000000000000107
 30
0.0
 40
74.999999999999972
 50
143.77582043624881
 51
156.58054273644629
  0
ARC
  5
1F3
  8
1
 62
     7
 10
-135.20345963361271
 20
80.625
 30
0.0
 40
2.7965403663873358
 50
137.89655112925419
 51
222.10344887074501
  0
ARC
  5
1F4
  8
1
 62
     7
 10
-127.8963702891815
 20
75.0
 30
0.0
 40
10.10362971081852
 50
158.21321070173829
 51
201.78678929826171
  0
ARC
  5
1F5
  8
1
 62
     7
 10
-135.20345963361271
 20
69.375
 30
0.0
 40
2.7965403663872981
 50
137.89655112925499
 51
222.10344887074501
  0
ARC
  5
1F6
  8
1
 62
     7
 10
-144.29654036638729
 20
69.375
 30
0.0
 40
2.7965403663872981
 50
317.8965511292551
 51
42.103448870744927
  0
ARC
  5
1F7
  8
1
 62
     7
 10
-151.60362971081841
 20
75.0
 30
0.0
 40
10.10362971081844
 50
338.21321070173809
 51
21.78678929826183
  0
ARC
  5
1F8
  8
1
 62
     7
 10
-144.29654036638729
 20
80.625
 30
0.0
 40
2.7965403663872981
 50
317.8965511292551
 51
42.103448870745787
  0
ARC
  5
1F9
  8
1
 62
     7
 10
-99.350738931510136
 20
-41.812500000000007
 30
0.0
 40
2.350738931510195
 50
322.30124515331812
 51
37.698754846681929
  0
ARC
  5
1FA
  8
1
 62
     7
 10
-105.66683413282399
 20
-37.5
 30
0.0
 40
8.6668341328240501
 50
340.6265294576769
 51
19.373470542323119
  0
ARC
  5
1FB
  8
1
 62
     7
 10
-99.350738931510136
 20
-33.1875
 30
0.0
 40
2.350738931510195
 50
322.30124515331812
 51
37.698754846681858
  0
ARC
  5
1FC
  8
1
 62
     3
 10
35.0
 20
0.0000000000000107
 30
0.0
 40
2.3999999999999768
 50
180.00000000000031
 51
359.99999999999977
  0
ARC
  5
1FD
  8
1
 62
     7
 10
35.0
 20
0.0000000000000107
 30
0.0
 40
3.0
 50
180.0000000000002
 51
359.99999999999977
  0
ARC
  5
1FE
  8
1
 62
     7
 10
30.700000000000049
 20
-32.75
 30
0.0
 40
1.25
 50
270.0
 51
90.0
  0
ARC
  5
1FF
  8
1
 62
     7
 10
30.075000000000049
 20
-42.25
 30
0.0
 40
1.250000000000004
 50
299.99999999999977
 51
60.000000000000099
  0
ARC
  5
200
  8
1
 62
     7
 10
61.625
 20
-32.75
 30
0.0
 40
1.2500000000000011
 50
119.9999999999999
 51
240.0
  0
ARC
  5
201
  8
1
 62
     7
 10
61.0
 20
-42.25
 30
0.0
 40
1.25
 50
90.0
 51
270.0
  0
ARC
  5
202
  8
1
 62
     7
 10
44.796540366387262
 20
80.625
 30
0.0
 40
2.7965403663872892
 50
137.8965511292532
 51
222.10344887074581
  0
ARC
  5
203
  8
1
 62
     7
 10
52.103629710818502
 20
75.0
 30
0.0
 40
10.10362971081849
 50
158.21321070173829
 51
201.78678929826171
  0
ARC
  5
204
  8
1
 62
     7
 10
44.796540366387262
 20
69.375
 30
0.0
 40
2.796540366387251
 50
137.89655112925419
 51
222.10344887074581
  0
ARC
  5
205
  8
1
 62
     7
 10
35.703459633612738
 20
69.375
 30
0.0
 40
2.796540366387251
 50
317.89655112925408
 51
42.103448870745801
  0
ARC
  5
206
  8
1
 62
     7
 10
28.396370289181618
 20
75.0
 30
0.0
 40
10.10362971081838
 50
338.21321070173798
 51
21.786789298261969
  0
ARC
  5
207
  8
1
 62
     7
 10
35.703459633612738
 20
80.625
 30
0.0
 40
2.796540366387251
 50
317.89655112925408
 51
42.103448870746682
  0
ARC
  5
208
  8
1
 62
     7
 10
80.649261068489864
 20
-41.812500000000007
 30
0.0
 40
2.350738931510195
 50
322.30124515331812
 51
37.698754846681929
  0
ARC
  5
209
  8
1
 62
     7
 10
74.333165867176049
 20
-37.5
 30
0.0
 40
8.6668341328240235
 50
340.62652945767678
 51
19.373470542323179
  0
ARC
  5
20A
  8
1
 62
     7
 10
80.649261068489864
 20
-33.1875
 30
0.0
 40
2.350738931510195
 50
322.30124515331812
 51
37.698754846681858
  0
ARC
  5
20B
  8
1
 62
     7
 10
256.19608960223371
 20
-0.0000000000000107
 30
0.0
 40
14.000000000000011
 50
104.4775121859299
 51
75.522487814070075
  0
ARC
  5
20C
  8
1
 62
     7
 10
189.07912080893971
 20
38.750000000000057
 30
0.0
 40
9.9999999999999911
 50
239.99999999999989
 51
60.000000000000028
  0
ARC
  5
20D
  8
1
 62
     7
 10
323.31305839552761
 20
38.749999999999993
 30
0.0
 40
9.9999999999999876
 50
119.9999999999999
 51
299.99999999999989
  0
ARC
  5
20E
  8
1
 62
     7
 10
256.19608960223371
 20
-77.500000000000014
 30
0.0
 40
10.0
 50
0.0
 51
180.0
  0
ARC
  5
20F
  8
1
 62
     7
 10
35.0
 20
0.0000000000000107
 30
0.0
 40
3.0
 50
359.99999999999977
 51
180.0000000000002
  0
ARC
  5
210
  8
1
 62
     3
 10
35.0
 20
0.0000000000000107
 30
0.0
 40
2.3999999999999768
 50
359.99999999999977
 51
180.00000000000031
  0
ARC
  5
211
  8
1
 62
     7
 10
256.19608960223371
 20
-0.0000000000000107
 30
0.0
 40
82.500000000000014
 50
121.3891246805554
 51
118.6108753194444
  0
CIRCLE
  5
212
  8
1
 62
     7
 10
34.136764705882342
 20
-32.75
 30
0.0
 40
1.25
  0
CIRCLE
  5
213
  8
1
 62
     7
 10
32.575000000000053
 20
-42.25
 30
0.0
 40
1.2500000000000071
  0
CIRCLE
  5
214
  8
1
 62
     7
 10
37.260294117647049
 20
-32.75
 30
0.0
 40
1.25
  0
CIRCLE
  5
215
  8
1
 62
     7
 10
35.698529411764753
 20
-42.25
 30
0.0
 40
1.25
  0
CIRCLE
  5
216
  8
1
 62
     7
 10
40.383823529411757
 20
-32.75
 30
0.0
 40
1.25
  0
CIRCLE
  5
217
  8
1
 62
     7
 10
38.82205882352946
 20
-42.25
 30
0.0
 40
1.25
  0
CIRCLE
  5
218
  8
1
 62
     7
 10
43.507352941176457
 20
-32.75
 30
0.0
 40
1.25
  0
CIRCLE
  5
219
  8
1
 62
     7
 10
41.94558823529416
 20
-42.25
 30
0.0
 40
1.25
  0
CIRCLE
  5
21A
  8
1
 62
     7
 10
46.630882352941171
 20
-32.75
 30
0.0
 40
1.25
  0
CIRCLE
  5
21B
  8
1
 62
     7
 10
45.06911764705886
 20
-42.25
 30
0.0
 40
1.25
  0
CIRCLE
  5
21C
  8
1
 62
     7
 10
49.754411764705893
 20
-32.75
 30
0.0
 40
1.25
  0
CIRCLE
  5
21D
  8
1
 62
     7
 10
48.192647058823567
 20
-42.25
 30
0.0
 40
1.25
  0
CIRCLE
  5
21E
  8
1
 62
     7
 10
52.877941176470593
 20
-32.75
 30
0.0
 40
1.25
  0
CIRCLE
  5
21F
  8
1
 62
     7
 10
51.316176470588289
 20
-42.25
 30
0.0
 40
1.25
  0
CIRCLE
  5
220
  8
1
 62
     7
 10
56.001470588235293
 20
-32.75
 30
0.0
 40
1.25
  0
CIRCLE
  5
221
  8
1
 62
     7
 10
54.439705882353003
 20
-42.25
 30
0.0
 40
1.25
  0
CIRCLE
  5
222
  8
1
 62
     7
 10
59.125
 20
-32.75
 30
0.0
 40
1.25
  0
CIRCLE
  5
223
  8
1
 62
     7
 10
57.563235294117689
 20
-42.25
 30
0.0
 40
1.25
  0
CIRCLE
  5
224
  8
1
 62
     7
 10
191.2441843184009
 20
37.50000000000005
 30
0.0
 40
5.0000000000001128
  0
CIRCLE
  5
225
  8
1
 62
     7
 10
321.14799488606661
 20
37.499999999999957
 30
0.0
 40
5.0
  0
CIRCLE
  5
226
  8
1
 62
     7
 10
181.1960896022336
 20
-0.0000000000000107
 30
0.0
 40
3.75
  0
CIRCLE
  5
227
  8
1
 62
     7
 10
181.1960896022336
 20
-0.0000000000000107
 30
0.0
 40
2.3999999999999768
  0
CIRCLE
  5
228
  8
1
 62
     3
 10
181.1960896022336
 20
-0.0000000000000107
 30
0.0
 40
3.0
  0
CIRCLE
  5
229
  8
1
 62
     3
 10
331.19608960223371
 20
-0.0000000000000107
 30
0.0
 40
3.0
  0
CIRCLE
  5
22A
  8
1
 62
     7
 10
331.19608960223371
 20
-0.0000000000000107
 30
0.0
 40
2.4000000000000901
  0
CIRCLE
  5
22B
  8
1
 62
     7
 10
331.19608960223371
 20
-0.0000000000000107
 30
0.0
 40
3.75
  0
CIRCLE
  5
22C
  8
1
 62
     3
 10
223.72013696031729
 20
18.749999999999989
 30
0.0
 40
2.4000000000000061
  0
CIRCLE
  5
22D
  8
1
 62
     7
 10
223.72013696031729
 20
18.749999999999989
 30
0.0
 40
3.0
  0
CIRCLE
  5
22E
  8
1
 62
     7
 10
223.72013696031729
 20
18.749999999999989
 30
0.0
 40
5.0
  0
CIRCLE
  5
22F
  8
1
 62
     3
 10
256.19608960223371
 20
-37.5
 30
0.0
 40
2.4000000000000901
  0
CIRCLE
  5
230
  8
1
 62
     7
 10
256.19608960223371
 20
-37.5
 30
0.0
 40
3.0
  0
CIRCLE
  5
231
  8
1
 62
     7
 10
256.19608960223371
 20
-37.5
 30
0.0
 40
5.0
  0
CIRCLE
  5
232
  8
1
 62
     3
 10
288.67204224415019
 20
18.749999999999989
 30
0.0
 40
2.4000000000000341
  0
CIRCLE
  5
233
  8
1
 62
     7
 10
288.67204224415019
 20
18.749999999999989
 30
0.0
 40
3.0
  0
CIRCLE
  5
234
  8
1
 62
     7
 10
288.67204224415019
 20
18.749999999999989
 30
0.0
 40
5.0
  0
CIRCLE
  5
235
  8
1
 62
     7
 10
256.19608960223371
 20
-75.000000000000014
 30
0.0
 40
5.0
  0
CIRCLE
  5
236
  8
1
 62
     3
 10
191.24418431840081
 20
-37.5
 30
0.0
 40
3.1999999999999882
  0
CIRCLE
  5
237
  8
1
 62
     7
 10
191.24418431840081
 20
-37.5
 30
0.0
 40
4.0
  0
CIRCLE
  5
238
  8
1
 62
     7
 10
191.24418431840081
 20
-37.5
 30
0.0
 40
6.5
  0
CIRCLE
  5
239
  8
1
 62
     3
 10
321.14799488606661
 20
-37.5
 30
0.0
 40
3.1999999999999882
  0
CIRCLE
  5
23A
  8
1
 62
     7
 10
321.14799488606661
 20
-37.5
 30
0.0
 40
4.0
  0
CIRCLE
  5
23B
  8
1
 62
     7
 10
321.14799488606661
 20
-37.5
 30
0.0
 40
6.5
  0
CIRCLE
  5
23C
  8
1
 62
     7
 10
256.19608960223371
 20
-0.0000000000000107
 30
0.0
 40
22.5
  0
CIRCLE
  5
23D
  8
1
 62
     7
 10
256.19608960223371
 20
-0.0000000000000107
 30
0.0
 40
27.0
  0
CIRCLE
  5
23E
  8
1
 62
     7
 10
256.19608960223371
 20
-0.0000000000000107
 30
0.0
 40
66.5
  0
CIRCLE
  5
23F
  8
1
 62
     7
 10
256.19608960223371
 20
75.0
 30
0.0
 40
6.5
  0
CIRCLE
  5
240
  8
1
 62
     7
 10
256.19608960223371
 20
75.0
 30
0.0
 40
4.0
  0
CIRCLE
  5
241
  8
1
 62
     3
 10
256.19608960223371
 20
75.0
 30
0.0
 40
3.1999999999999882
  0
ARC
  5
242
  8
1
 62
     7
 10
62.240000000000009
 20
70.935000000000002
 30
0.0
 40
1.5600000000000021
 50
270.0
 51
0.0
  0
ARC
  5
243
  8
1
 62
     7
 10
62.240000000000009
 20
79.064999999999998
 30
0.0
 40
1.5600000000000021
 50
0.0
 51
90.0
  0
ARC
  5
244
  8
1
 62
     7
 10
-117.75999999999991
 20
70.935000000000002
 30
0.0
 40
1.5600000000000021
 50
270.0
 51
0.0
  0
ARC
  5
245
  8
1
 62
     7
 10
-117.75999999999991
 20
79.064999999999998
 30
0.0
 40
1.5600000000000021
 50
0.0
 51
90.0
  0
TEXT
  5
247
  8
1
 62
     7
 10
-161.0078226709727
 20
155.3437978189678
 30
0.0
 40
7.0
  1
MNB 5
 41
0.9
  7
SIMPLEX
  0
ENDSEC
  0
EOF
