  0
SECTION
  2
HEADER
  9
$ACADVER
  1
AC1009
  9
$INSBASE
 10
0.0
 20
0.0
 30
0.0
  9
$EXTMIN
 10
-407.99155787977702
 20
-179.5896145064815
 30
0.0
  9
$EXTMAX
 10
755.66979810737621
 20
345.71219680731332
 30
0.0
  9
$LIMMIN
 10
-407.99155787977702
 20
-179.5896145064815
  9
$LIMMAX
 10
713.17419505342536
 20
345.71219680731332
  9
$ORTHOMODE
 70
     0
  9
$REGENMODE
 70
     1
  9
$FILLMODE
 70
     1
  9
$QTEXTMODE
 70
     0
  9
$MIRRTEXT
 70
     1
  9
$DRAGMODE
 70
     2
  9
$LTSCALE
 40
1.0
  9
$OSMODE
 70
    37
  9
$ATTMODE
 70
     1
  9
$TEXTSIZE
 40
3.5
  9
$TRACEWID
 40
0.5
  9
$TEXTSTYLE
  7
STANDARD
  9
$CLAYER
  8
0
  9
$CELTYPE
  6
BYLAYER
  9
$CECOLOR
 62
   256
  9
$DIMSCALE
 40
1.0
  9
$DIMASZ
 40
0.18
  9
$DIMEXO
 40
0.0625
  9
$DIMDLI
 40
0.38
  9
$DIMRND
 40
0.0
  9
$DIMDLE
 40
0.0
  9
$DIMEXE
 40
0.18
  9
$DIMTP
 40
0.0
  9
$DIMTM
 40
0.0
  9
$DIMTXT
 40
0.18
  9
$DIMCEN
 40
0.09
  9
$DIMTSZ
 40
0.0
  9
$DIMTOL
 70
     0
  9
$DIMLIM
 70
     0
  9
$DIMTIH
 70
     1
  9
$DIMTOH
 70
     1
  9
$DIMSE1
 70
     0
  9
$DIMSE2
 70
     0
  9
$DIMTAD
 70
     0
  9
$DIMZIN
 70
     0
  9
$DIMBLK
  1

  9
$DIMASO
 70
     1
  9
$DIMSHO
 70
     1
  9
$DIMPOST
  1

  9
$DIMAPOST
  1

  9
$DIMALT
 70
     0
  9
$DIMALTD
 70
     2
  9
$DIMALTF
 40
25.399999999999999
  9
$DIMLFAC
 40
1.0
  9
$DIMTOFL
 70
     0
  9
$DIMTVP
 40
0.0
  9
$DIMTIX
 70
     0
  9
$DIMSOXD
 70
     0
  9
$DIMSAH
 70
     0
  9
$DIMBLK1
  1

  9
$DIMBLK2
  1

  9
$DIMSTYLE
  2
STANDARD
  9
$DIMCLRD
 70
     0
  9
$DIMCLRE
 70
     0
  9
$DIMCLRT
 70
     0
  9
$DIMTFAC
 40
1.0
  9
$DIMGAP
 40
0.09
  9
$LUNITS
 70
     2
  9
$LUPREC
 70
     4
  9
$SKETCHINC
 40
0.1
  9
$FILLETRAD
 40
2.0
  9
$AUNITS
 70
     0
  9
$AUPREC
 70
     0
  9
$MENU
  1
ACAD
  9
$ELEVATION
 40
0.0
  9
$PELEVATION
 40
0.0
  9
$THICKNESS
 40
0.0
  9
$LIMCHECK
 70
     0
  9
$BLIPMODE
 70
     0
  9
$CHAMFERA
 40
0.0
  9
$CHAMFERB
 40
0.0
  9
$SKPOLY
 70
     0
  9
$TDCREATE
 40
2452094.9896873841
  9
$TDUPDATE
 40
2452094.9902499989
  9
$TDINDWG
 40
0.0005791667
  9
$TDUSRTIMER
 40
0.0005791667
  9
$USRTIMER
 70
     1
  9
$ANGBASE
 50
0.0
  9
$ANGDIR
 70
     0
  9
$PDMODE
 70
     0
  9
$PDSIZE
 40
0.0
  9
$PLINEWID
 40
0.0
  9
$COORDS
 70
     1
  9
$SPLFRAME
 70
     0
  9
$SPLINETYPE
 70
     6
  9
$SPLINESEGS
 70
     8
  9
$ATTDIA
 70
     0
  9
$ATTREQ
 70
     1
  9
$HANDLING
 70
 10241
  9
$HANDSEED
  5
295
  9
$SURFTAB1
 70
     6
  9
$SURFTAB2
 70
     6
  9
$SURFTYPE
 70
     6
  9
$SURFU
 70
     6
  9
$SURFV
 70
     6
  9
$UCSNAME
  2

  9
$UCSORG
 10
0.0
 20
0.0
 30
0.0
  9
$UCSXDIR
 10
1.0
 20
0.0
 30
0.0
  9
$UCSYDIR
 10
0.0
 20
1.0
 30
0.0
  9
$PUCSNAME
  2

  9
$PUCSORG
 10
0.0
 20
0.0
 30
0.0
  9
$PUCSXDIR
 10
1.0
 20
0.0
 30
0.0
  9
$PUCSYDIR
 10
0.0
 20
1.0
 30
0.0
  9
$USERI1
 70
     0
  9
$USERI2
 70
     0
  9
$USERI3
 70
     0
  9
$USERI4
 70
     0
  9
$USERI5
 70
     0
  9
$USERR1
 40
0.0
  9
$USERR2
 40
0.0
  9
$USERR3
 40
0.0
  9
$USERR4
 40
0.0
  9
$USERR5
 40
0.0
  9
$WORLDVIEW
 70
     1
  9
$SHADEDGE
 70
     3
  9
$SHADEDIF
 70
    70
  9
$TILEMODE
 70
     1
  9
$MAXACTVP
 70
    64
  9
$PLIMCHECK
 70
     0
  9
$PEXTMIN
 10
1.0000000000000000E+020
 20
1.0000000000000000E+020
 30
1.0000000000000000E+020
  9
$PEXTMAX
 10
-1.0000000000000000E+020
 20
-1.0000000000000000E+020
 30
-1.0000000000000000E+020
  9
$PLIMMIN
 10
0.0
 20
0.0
  9
$PLIMMAX
 10
12.0
 20
9.0
  9
$UNITMODE
 70
     0
  9
$VISRETAIN
 70
     1
  9
$PLINEGEN
 70
     0
  9
$PSLTSCALE
 70
     1
  0
ENDSEC
  0
SECTION
  2
TABLES
  0
TABLE
  2
VPORT
 70
     2
  0
VPORT
  2
*ACTIVE
 70
     0
 10
0.0
 20
0.0
 11
1.0
 21
1.0
 12
-281.33919241727261
 22
314.8793011289896
 13
0.0
 23
0.0
 14
1.0
 24
1.0
 15
0.0
 25
0.0
 16
0.0
 26
0.0
 36
1.0
 17
0.0
 27
0.0
 37
0.0
 40
9.0000002611921879
 41
2.4144144144144142
 42
50.0
 43
0.0
 44
0.0
 50
0.0
 51
0.0
 71
     0
 72
   100
 73
     1
 74
     1
 75
     0
 76
     0
 77
     0
 78
     0
  0
ENDTAB
  0
TABLE
  2
LTYPE
 70
     9
  0
LTYPE
  2
CONTINUOUS
 70
     0
  3
Solid line
 72
    65
 73
     0
 40
0.0
  0
LTYPE
  2
BORDER
 70
     0
  3
__ __ . __ __ .
 72
    65
 73
     6
 40
51.632633358765887
 49
14.752180959647401
 49
-7.3760904798237004
 49
14.752180959647401
 49
-7.3760904798237004
 49
0.0
 49
-7.3760904798237004
  0
LTYPE
  2
CENTER
 70
     0
  3
____ _ ____ _
 72
    65
 73
     4
 40
59.008723838589603
 49
36.880452399118489
 49
-7.3760904798237004
 49
7.3760904798237004
 49
-7.3760904798237004
  0
LTYPE
  2
DASHDOT
 70
     0
  3
__ . __ . __ .
 72
    65
 73
     4
 40
29.504361919294801
 49
14.752180959647401
 49
-7.3760904798237004
 49
0.0
 49
-7.3760904798237004
  0
LTYPE
  2
DASHED
 70
     0
  3
__ __ __ __ __
 72
    65
 73
     2
 40
22.128271439471099
 49
14.752180959647401
 49
-7.3760904798237004
  0
LTYPE
  2
DIVIDE
 70
     0
  3
__ . . __ . . 
 72
    65
 73
     6
 40
36.880452399118489
 49
14.752180959647401
 49
-7.3760904798237004
 49
0.0
 49
-7.3760904798237004
 49
0.0
 49
-7.3760904798237004
  0
LTYPE
  2
DOT
 70
     0
  3
..............
 72
    65
 73
     4
 40
14.752180959647401
 49
0.0
 49
-7.3760904798237004
 49
0.0
 49
-7.3760904798237004
  0
LTYPE
  2
HIDDEN
 70
     0
  3
_ _ _ _ _ _ _
 72
    65
 73
     2
 40
11.06413571973555
 49
7.3760904798237004
 49
-3.6880452399118502
  0
LTYPE
  2
PHANTOM
 70
     0
  3
_____ _ _ _____ _ _ 
 72
    65
 73
     6
 40
73.760904798236979
 49
36.880452399118489
 49
-7.3760904798237004
 49
7.3760904798237004
 49
-7.3760904798237004
 49
7.3760904798237004
 49
-7.3760904798237004
  0
ENDTAB
  0
TABLE
  2
LAYER
 70
     2
  0
LAYER
  2
0
 70
     0
 62
     7
  6
CONTINUOUS
  0
LAYER
  2
1
 70
     0
 62
     7
  6
CONTINUOUS
  0
ENDTAB
  0
TABLE
  2
STYLE
 70
     4
  0
STYLE
  2
STANDARD
 70
     0
 40
0.0
 41
1.0
 50
0.0
 71
     0
 42
3.5
  3
txt
  4

  0
STYLE
  2
SIMPLEX
 70
     0
 40
0.0
 41
1.0
 50
0.0
 71
     0
 42
3.5
  3
simplex
  4

  0
STYLE
  2
COMPLEX
 70
     0
 40
0.0
 41
1.0
 50
0.0
 71
     0
 42
3.5
  3
complex
  4

  0
STYLE
  2
ITALIC
 70
     0
 40
0.0
 41
1.0
 50
0.0
 71
     0
 42
3.5
  3
italic
  4

  0
ENDTAB
  0
TABLE
  2
VIEW
 70
     0
  0
ENDTAB
  0
TABLE
  2
UCS
 70
     0
  0
ENDTAB
  0
TABLE
  2
APPID
 70
     1
  0
APPID
  2
ACAD
 70
     0
  0
ENDTAB
  0
TABLE
  2
DIMSTYLE
 70
     1
  0
DIMSTYLE
  2
STANDARD
 70
     0
  3

  4

  5

  6

  7

 40
1.0
 41
0.18
 42
0.0625
 43
0.38
 44
0.18
 45
0.0
 46
0.0
 47
0.0
 48
0.0
140
0.18
141
0.09
142
0.0
143
25.399999999999999
144
1.0
145
0.0
146
1.0
147
0.09
 71
     0
 72
     0
 73
     1
 74
     1
 75
     0
 76
     0
 77
     0
 78
     0
170
     0
171
     2
172
     0
173
     0
174
     0
175
     0
176
     0
177
     0
178
     0
  0
ENDTAB
  0
ENDSEC
  0
SECTION
  2
BLOCKS
  0
BLOCK
  8
0
  2
$MODEL_SPACE
 70
     0
 10
0.0
 20
0.0
 30
0.0
  3
$MODEL_SPACE
  1

  0
ENDBLK
  5
20
  8
0
  0
BLOCK
 67
     1
  8
0
  2
$PAPER_SPACE
 70
     0
 10
0.0
 20
0.0
 30
0.0
  3
$PAPER_SPACE
  1

  0
ENDBLK
  5
1C
 67
     1
  8
0
  0
ENDSEC
  0
SECTION
  2
ENTITIES
  0
LINE
  5
33
  8
1
  6
DASHDOT
 62
     3
 10
543.17419505342536
 20
7.9190078650659643
 30
0.0
 11
543.17419505342536
 21
-7.9190078650661917
 31
0.0
  0
LINE
  5
34
  8
1
  6
DASHDOT
 62
     3
 10
551.09320291849156
 20
-0.0000000000001137
 30
0.0
 11
535.25518718835963
 21
-0.0000000000001137
 31
0.0
  0
LINE
  5
35
  8
1
  6
DASHDOT
 62
     3
 10
603.00931204804147
 20
-0.0000000000001137
 30
0.0
 11
566.83744583878138
 21
-0.0000000000001137
 31
0.0
  0
LINE
  5
36
  8
1
  6
DASHDOT
 62
     3
 10
543.17419505342536
 20
58.403044957216359
 30
0.0
 11
543.17419505342536
 21
30.392369416393421
 31
0.0
  0
LINE
  5
37
  8
1
  6
DASHDOT
 62
     3
 10
543.17419505342536
 20
-131.23703195157549
 30
0.0
 11
543.17419505342536
 21
-179.5896145064815
 31
0.0
  0
LINE
  5
38
  8
1
 62
     7
 10
-375.0
 20
-144.5
 30
0.0
 11
-396.39999999999981
 21
-144.5
 31
0.0
  0
LINE
  5
39
  8
1
 62
     7
 10
-337.0
 20
166.49999999999989
 30
0.0
 11
-357.0
 21
166.49999999999989
 31
0.0
  0
LINE
  5
3A
  8
1
 62
     7
 10
-357.0
 20
138.49999999999989
 30
0.0
 11
-337.0
 21
138.49999999999989
 31
0.0
  0
LINE
  5
3B
  8
1
 62
     7
 10
-314.10000000000002
 20
138.49999999999989
 30
0.0
 11
-312.0
 21
138.49999999999989
 31
0.0
  0
LINE
  5
3C
  8
1
 62
     7
 10
-351.80000000000013
 20
134.0
 30
0.0
 11
-351.80000000000013
 21
-134.0
 31
0.0
  0
LINE
  5
3D
  8
1
 62
     7
 10
-230.0
 20
168.0
 30
0.0
 11
-230.0
 21
-168.0
 31
0.0
  0
LINE
  5
3E
  8
1
 62
     7
 10
-241.5
 20
-168.5
 30
0.0
 11
-230.50000000000011
 21
-168.5
 31
0.0
  0
LINE
  5
3F
  8
1
 62
     7
 10
-242.0
 20
168.0
 30
0.0
 11
-242.0
 21
-168.0
 31
0.0
  0
LINE
  5
40
  8
1
 62
     7
 10
-241.5
 20
168.5
 30
0.0
 11
-230.50000000000011
 21
168.5
 31
0.0
  0
LINE
  5
41
  8
1
 62
     7
 10
-242.0
 20
135.0
 30
0.0
 11
-313.60000000000002
 21
135.0
 31
0.0
  0
LINE
  5
42
  8
1
 62
     7
 10
-313.60000000000002
 20
135.0
 30
0.0
 11
-313.60000000000002
 21
-135.0
 31
0.0
  0
LINE
  5
43
  8
1
 62
     7
 10
-313.60000000000002
 20
-135.0
 30
0.0
 11
-242.0
 21
-135.0
 31
0.0
  0
LINE
  5
44
  8
1
 62
     7
 10
-216.00000000000011
 20
-76.114359353944906
 30
0.0
 11
-216.80000000000001
 21
-77.5
 31
0.0
  0
LINE
  5
45
  8
1
 62
     7
 10
-216.80000000000001
 20
-77.5
 30
0.0
 11
-216.80000000000001
 21
-67.5
 31
0.0
  0
LINE
  5
46
  8
1
 62
     7
 10
-216.80000000000001
 20
-67.5
 30
0.0
 11
-216.00000000000011
 21
-68.885640646055094
 31
0.0
  0
LINE
  5
47
  8
1
 62
     7
 10
-216.00000000000011
 20
-68.885640646055094
 30
0.0
 11
-216.00000000000011
 21
-76.114359353944906
 31
0.0
  0
LINE
  5
48
  8
1
 62
     7
 10
-216.80000000000001
 20
-77.5
 30
0.0
 11
-222.00000000000011
 21
-77.5
 31
0.0
  0
LINE
  5
49
  8
1
 62
     3
 10
-216.22264973081039
 20
-76.5
 30
0.0
 11
-222.00000000000011
 21
-76.5
 31
0.0
  0
LINE
  5
4A
  8
1
 62
     3
 10
-216.22264973081039
 20
-68.5
 30
0.0
 11
-222.00000000000011
 21
-68.5
 31
0.0
  0
LINE
  5
4B
  8
1
 62
     7
 10
-222.00000000000011
 20
-65.149999999999963
 30
0.0
 11
-222.00000000000011
 21
-79.850000000000023
 31
0.0
  0
LINE
  5
4C
  8
1
 62
     7
 10
-222.89489291724379
 20
-62.700000000000038
 30
0.0
 11
-230.0
 21
-62.700000000000038
 31
0.0
  0
LINE
  5
4D
  8
1
 62
     7
 10
-222.89489291724379
 20
-67.600000000000023
 30
0.0
 11
-230.0
 21
-67.600000000000023
 31
0.0
  0
LINE
  5
4E
  8
1
 62
     7
 10
-222.89489291724379
 20
-77.399999999999977
 30
0.0
 11
-230.0
 21
-77.399999999999977
 31
0.0
  0
LINE
  5
4F
  8
1
 62
     7
 10
-222.89489291724379
 20
-82.299999999999955
 30
0.0
 11
-230.0
 21
-82.299999999999955
 31
0.0
  0
LINE
  5
50
  8
1
 62
     7
 10
-222.00000000000011
 20
-67.5
 30
0.0
 11
-216.80000000000001
 21
-67.5
 31
0.0
  0
LINE
  5
51
  8
1
 62
     7
 10
-357.5
 20
-170.0
 30
0.0
 11
-374.5
 21
-170.0
 31
0.0
  0
LINE
  5
52
  8
1
 62
     7
 10
-357.5
 20
170.0
 30
0.0
 11
-374.5
 21
170.0
 31
0.0
  0
LINE
  5
53
  8
1
 62
     7
 10
-375.0
 20
169.5
 30
0.0
 11
-375.0
 21
-169.5
 31
0.0
  0
LINE
  5
54
  8
1
 62
     7
 10
-314.60000000000002
 20
-170.0
 30
0.0
 11
-336.5
 21
-170.0
 31
0.0
  0
LINE
  5
55
  8
1
 62
     7
 10
-336.5
 20
170.0
 30
0.0
 11
-314.60000000000002
 21
170.0
 31
0.0
  0
LINE
  5
56
  8
1
 62
     7
 10
-357.0
 20
134.0
 30
0.0
 11
-337.0
 21
134.0
 31
0.0
  0
LINE
  5
57
  8
1
 62
     7
 10
-357.0
 20
-134.0
 30
0.0
 11
-337.0
 21
-134.0
 31
0.0
  0
LINE
  5
58
  8
1
 62
     7
 10
-342.19999999999982
 20
-134.0
 30
0.0
 11
-342.19999999999982
 21
134.0
 31
0.0
  0
LINE
  5
59
  8
1
 62
     7
 10
-312.0
 20
138.49999999999989
 30
0.0
 11
-312.0
 21
166.49999999999989
 31
0.0
  0
LINE
  5
5A
  8
1
 62
     7
 10
-312.0
 20
166.49999999999989
 30
0.0
 11
-314.10000000000002
 21
166.49999999999989
 31
0.0
  0
LINE
  5
5B
  8
1
 62
     7
 10
-314.10000000000002
 20
169.5
 30
0.0
 11
-314.10000000000002
 21
-169.5
 31
0.0
  0
LINE
  5
5C
  8
1
 62
     7
 10
-337.0
 20
-169.5
 30
0.0
 11
-337.0
 21
169.5
 31
0.0
  0
LINE
  5
5D
  8
1
 62
     7
 10
-357.0
 20
169.5
 30
0.0
 11
-357.0
 21
-169.5
 31
0.0
  0
LINE
  5
5E
  8
1
 62
     7
 10
-209.59999999999999
 20
160.49999999999989
 30
0.0
 11
-208.0
 21
158.89999999999981
 31
0.0
  0
LINE
  5
5F
  8
1
 62
     7
 10
-208.0
 20
158.89999999999981
 30
0.0
 11
-208.0
 21
146.09999999999991
 31
0.0
  0
LINE
  5
60
  8
1
 62
     7
 10
-208.0
 20
146.09999999999991
 30
0.0
 11
-209.59999999999999
 21
144.49999999999989
 31
0.0
  0
LINE
  5
61
  8
1
 62
     7
 10
-209.59999999999999
 20
144.49999999999989
 30
0.0
 11
-217.00253253274431
 21
144.49999999999989
 31
0.0
  0
LINE
  5
62
  8
1
 62
     7
 10
-209.59999999999999
 20
160.49999999999989
 30
0.0
 11
-209.59999999999999
 21
144.49999999999989
 31
0.0
  0
LINE
  5
63
  8
1
 62
     7
 10
-301.50000000000011
 20
162.88749999999979
 30
0.0
 11
-301.50000000000011
 21
142.1124999999999
 31
0.0
  0
LINE
  5
64
  8
1
 62
     7
 10
-302.85677313259561
 20
166.34999999999991
 30
0.0
 11
-312.0
 21
166.34999999999991
 31
0.0
  0
LINE
  5
65
  8
1
 62
     7
 10
-302.85677313259561
 20
159.4249999999999
 30
0.0
 11
-312.0
 21
159.4249999999999
 31
0.0
  0
LINE
  5
66
  8
1
 62
     7
 10
-302.85677313259561
 20
145.5749999999999
 30
0.0
 11
-312.0
 21
145.5749999999999
 31
0.0
  0
LINE
  5
67
  8
1
 62
     7
 10
-302.85677313259561
 20
138.64999999999981
 30
0.0
 11
-312.0
 21
138.64999999999981
 31
0.0
  0
LINE
  5
68
  8
1
 62
     7
 10
-299.00000000000011
 20
160.3874999999999
 30
0.0
 11
-299.00000000000011
 21
144.61249999999981
 31
0.0
  0
LINE
  5
69
  8
1
 62
     7
 10
-219.5
 20
162.88749999999979
 30
0.0
 11
-219.5
 21
142.1124999999999
 31
0.0
  0
LINE
  5
6A
  8
1
 62
     7
 10
-220.85677313259561
 20
166.34999999999991
 30
0.0
 11
-230.0
 21
166.34999999999991
 31
0.0
  0
LINE
  5
6B
  8
1
 62
     7
 10
-220.85677313259561
 20
159.4249999999999
 30
0.0
 11
-230.0
 21
159.4249999999999
 31
0.0
  0
LINE
  5
6C
  8
1
 62
     7
 10
-220.85677313259561
 20
145.5749999999999
 30
0.0
 11
-230.0
 21
145.5749999999999
 31
0.0
  0
LINE
  5
6D
  8
1
 62
     7
 10
-220.85677313259561
 20
138.64999999999981
 30
0.0
 11
-230.0
 21
138.64999999999981
 31
0.0
  0
LINE
  5
6E
  8
1
 62
     7
 10
-217.0
 20
160.3874999999999
 30
0.0
 11
-217.0
 21
144.61249999999981
 31
0.0
  0
LINE
  5
6F
  8
1
 62
     7
 10
-299.00253253274428
 20
160.49999999999989
 30
0.0
 11
-255.0
 21
160.49999999999989
 31
0.0
  0
LINE
  5
70
  8
1
 62
     3
 10
-299.00000000000011
 20
158.89999999999981
 30
0.0
 11
-255.0
 21
158.89999999999981
 31
0.0
  0
LINE
  5
71
  8
1
 62
     3
 10
-299.00000000000011
 20
146.09999999999991
 30
0.0
 11
-255.0
 21
146.09999999999991
 31
0.0
  0
LINE
  5
72
  8
1
 62
     3
 10
-217.0
 20
146.09999999999991
 30
0.0
 11
-208.0
 21
146.09999999999991
 31
0.0
  0
LINE
  5
73
  8
1
 62
     7
 10
-217.00253253274431
 20
160.49999999999989
 30
0.0
 11
-209.59999999999999
 21
160.49999999999989
 31
0.0
  0
LINE
  5
74
  8
1
 62
     7
 10
-255.0
 20
142.1124999999999
 30
0.0
 11
-255.0
 21
162.88749999999979
 31
0.0
  0
LINE
  5
75
  8
1
 62
     7
 10
-253.64322686740431
 20
138.64999999999981
 30
0.0
 11
-242.0
 21
138.64999999999981
 31
0.0
  0
LINE
  5
76
  8
1
 62
     7
 10
-253.64322686740431
 20
145.5749999999999
 30
0.0
 11
-242.0
 21
145.5749999999999
 31
0.0
  0
LINE
  5
77
  8
1
 62
     7
 10
-253.64322686740431
 20
159.4249999999999
 30
0.0
 11
-242.0
 21
159.4249999999999
 31
0.0
  0
LINE
  5
78
  8
1
 62
     7
 10
-253.64322686740431
 20
166.34999999999991
 30
0.0
 11
-242.0
 21
166.34999999999991
 31
0.0
  0
LINE
  5
79
  8
1
 62
     7
 10
-255.0
 20
144.49999999999989
 30
0.0
 11
-299.00253253274428
 21
144.49999999999989
 31
0.0
  0
LINE
  5
7A
  8
1
 62
     3
 10
-208.0
 20
158.89999999999981
 30
0.0
 11
-217.0
 21
158.89999999999981
 31
0.0
  0
LINE
  5
7B
  8
1
 62
     7
 10
-357.0
 20
-152.5
 30
0.0
 11
-353.0
 21
-148.50000000000011
 31
0.0
  0
LINE
  5
7C
  8
1
 62
     7
 10
-357.0
 20
-156.5
 30
0.0
 11
-353.0
 21
-152.5
 31
0.0
  0
LINE
  5
7D
  8
1
 62
     7
 10
-357.0
 20
-138.5
 30
0.0
 11
-353.0
 21
-138.5
 31
0.0
  0
LINE
  5
7E
  8
1
 62
     7
 10
-353.0
 20
-138.5
 30
0.0
 11
-353.0
 21
-166.5
 31
0.0
  0
LINE
  5
7F
  8
1
 62
     7
 10
-353.0
 20
-166.5
 30
0.0
 11
-357.0
 21
-166.5
 31
0.0
  0
LINE
  5
80
  8
1
 62
     7
 10
-353.0
 20
-140.5
 30
0.0
 11
-338.0
 21
-140.5
 31
0.0
  0
LINE
  5
81
  8
1
 62
     7
 10
-338.0
 20
-140.5
 30
0.0
 11
-337.0
 21
-142.23205080756901
 31
0.0
  0
LINE
  5
82
  8
1
 62
     7
 10
-337.0
 20
-162.7679491924313
 30
0.0
 11
-338.0
 21
-164.5
 31
0.0
  0
LINE
  5
83
  8
1
 62
     7
 10
-338.0
 20
-164.5
 30
0.0
 11
-353.0
 21
-164.5
 31
0.0
  0
LINE
  5
84
  8
1
 62
     7
 10
-338.0
 20
-140.5
 30
0.0
 11
-338.0
 21
-164.5
 31
0.0
  0
LINE
  5
85
  8
1
 62
     7
 10
-396.39999999999981
 20
-144.5
 30
0.0
 11
-398.0
 21
-146.10000000000011
 31
0.0
  0
LINE
  5
86
  8
1
 62
     7
 10
-398.0
 20
-146.10000000000011
 30
0.0
 11
-398.0
 21
-158.90000000000001
 31
0.0
  0
LINE
  5
87
  8
1
 62
     7
 10
-398.0
 20
-158.90000000000001
 30
0.0
 11
-396.39999999999981
 21
-160.5
 31
0.0
  0
LINE
  5
88
  8
1
 62
     7
 10
-396.39999999999981
 20
-160.5
 30
0.0
 11
-375.0
 21
-160.5
 31
0.0
  0
LINE
  5
89
  8
1
 62
     7
 10
-396.39999999999981
 20
-144.5
 30
0.0
 11
-396.39999999999981
 21
-160.5
 31
0.0
  0
LINE
  5
8A
  8
1
 62
     3
 10
-398.0
 20
-146.10000000000011
 30
0.0
 11
-375.0
 21
-146.10000000000011
 31
0.0
  0
LINE
  5
8B
  8
1
 62
     3
 10
-398.0
 20
-158.90000000000001
 30
0.0
 11
-375.0
 21
-158.90000000000001
 31
0.0
  0
LINE
  5
8C
  8
1
  6
DASHDOT
 62
     3
 10
-407.99155787977702
 20
-152.5
 30
0.0
 11
-331.44740694537683
 21
-152.5
 31
0.0
  0
LINE
  5
8D
  8
1
 62
     7
 10
-337.0
 20
169.5
 30
0.0
 11
-336.5
 21
170.0
 31
0.0
  0
LINE
  5
8E
  8
1
 62
     7
 10
-314.10000000000002
 20
169.5
 30
0.0
 11
-314.60000000000002
 21
170.0
 31
0.0
  0
LINE
  5
8F
  8
1
 62
     7
 10
-357.0
 20
169.5
 30
0.0
 11
-357.5
 21
170.0
 31
0.0
  0
LINE
  5
90
  8
1
 62
     7
 10
-375.0
 20
169.5
 30
0.0
 11
-374.5
 21
170.0
 31
0.0
  0
LINE
  5
91
  8
1
 62
     7
 10
-241.5
 20
168.5
 30
0.0
 11
-242.0
 21
168.0
 31
0.0
  0
LINE
  5
92
  8
1
 62
     7
 10
-230.50000000000011
 20
168.5
 30
0.0
 11
-230.0
 21
168.0
 31
0.0
  0
LINE
  5
93
  8
1
 62
     7
 10
-314.10000000000002
 20
-169.5
 30
0.0
 11
-314.60000000000002
 21
-170.0
 31
0.0
  0
LINE
  5
94
  8
1
 62
     7
 10
-337.0
 20
-169.5
 30
0.0
 11
-336.5
 21
-170.0
 31
0.0
  0
LINE
  5
95
  8
1
 62
     7
 10
-357.0
 20
-169.5
 30
0.0
 11
-357.5
 21
-170.0
 31
0.0
  0
LINE
  5
96
  8
1
 62
     7
 10
-375.0
 20
-169.5
 30
0.0
 11
-374.5
 21
-170.0
 31
0.0
  0
LINE
  5
97
  8
1
 62
     7
 10
-242.0
 20
-168.0
 30
0.0
 11
-241.5
 21
-168.5
 31
0.0
  0
LINE
  5
98
  8
1
 62
     7
 10
-230.50000000000011
 20
-168.5
 30
0.0
 11
-230.0
 21
-168.0
 31
0.0
  0
LINE
  5
99
  8
1
 62
     7
 10
-257.59999999999991
 20
216.25369463614049
 30
0.0
 11
-257.59999999999991
 21
213.25369463614049
 31
0.0
  0
LINE
  5
9A
  8
1
 62
     7
 10
-257.80000000000001
 20
216.25369463614049
 30
0.0
 11
-257.80000000000001
 21
213.25369463614049
 31
0.0
  0
LINE
  5
9B
  8
1
 62
     7
 10
-258.0
 20
216.25369463614049
 30
0.0
 11
-258.0
 21
213.25369463614049
 31
0.0
  0
LINE
  5
9C
  8
1
 62
     7
 10
-258.19999999999987
 20
216.25369463614049
 30
0.0
 11
-258.19999999999987
 21
213.25369463614049
 31
0.0
  0
LINE
  5
9D
  8
1
 62
     7
 10
-258.39999999999998
 20
216.25369463614049
 30
0.0
 11
-258.39999999999998
 21
213.25369463614049
 31
0.0
  0
LINE
  5
9E
  8
1
 62
     7
 10
-259.0
 20
213.25369463614049
 30
0.0
 11
-257.0
 21
213.25369463614049
 31
0.0
  0
LINE
  5
9F
  8
1
 62
     7
 10
-257.0
 20
213.25369463614049
 30
0.0
 11
-257.0
 21
160.49999999999989
 31
0.0
  0
LINE
  5
A0
  8
1
 62
     7
 10
-259.0
 20
160.49999999999989
 30
0.0
 11
-259.0
 21
213.25369463614049
 31
0.0
  0
LINE
  5
A1
  8
1
 62
     7
 10
-257.0
 20
144.49999999999989
 30
0.0
 11
-257.0
 21
135.0
 31
0.0
  0
LINE
  5
A2
  8
1
 62
     7
 10
-259.0
 20
144.49999999999989
 30
0.0
 11
-259.0
 21
135.0
 31
0.0
  0
LINE
  5
A3
  8
1
 62
     3
 10
-385.0
 20
0.0
 30
0.0
 11
-375.0
 21
0.0
 31
0.0
  0
LINE
  5
A4
  8
1
 62
     3
 10
-230.0
 20
0.0
 30
0.0
 11
-220.00000000000011
 21
0.0
 31
0.0
  0
LINE
  5
A5
  8
1
  6
DASHED
 62
     3
 10
577.17419505342548
 20
3.9999999999998859
 30
0.0
 11
575.42710189916568
 21
3.9999999999998859
 31
0.0
  0
LINE
  5
A6
  8
1
  6
DASHED
 62
     7
 10
576.37419505342552
 20
3.1999999999999309
 30
0.0
 11
575.5162729087516
 21
3.1999999999999309
 31
0.0
  0
LINE
  5
A7
  8
1
  6
DASHED
 62
     7
 10
576.37419505342552
 20
-3.2000000000001578
 30
0.0
 11
575.5162729087516
 21
-3.2000000000001578
 31
0.0
  0
LINE
  5
A8
  8
1
  6
DASHED
 62
     3
 10
577.17419505342548
 20
-4.0000000000001128
 30
0.0
 11
575.42710189916568
 21
-4.0000000000001128
 31
0.0
  0
LINE
  5
A9
  8
1
  6
DASHED
 62
     3
 10
585.07419505342546
 20
-4.0000000000001128
 30
0.0
 11
590.50547435158057
 21
-4.0000000000001128
 31
0.0
  0
LINE
  5
AA
  8
1
  6
DASHED
 62
     7
 10
585.53607526877761
 20
-3.2000000000001578
 30
0.0
 11
590.56628300067666
 21
-3.2000000000001578
 31
0.0
  0
LINE
  5
AB
  8
1
  6
DASHED
 62
     7
 10
585.53607526877761
 20
3.1999999999999309
 30
0.0
 11
590.56628300067666
 21
3.1999999999999309
 31
0.0
  0
LINE
  5
AC
  8
1
  6
DASHED
 62
     3
 10
585.07419505342546
 20
3.9999999999998859
 30
0.0
 11
590.50547435158057
 21
3.9999999999998859
 31
0.0
  0
LINE
  5
AD
  8
1
  6
DASHED
 62
     3
 10
585.53607526877761
 20
3.1999999999999309
 30
0.0
 11
576.37419505342552
 21
3.1999999999999309
 31
0.0
  0
LINE
  5
AE
  8
1
  6
DASHED
 62
     3
 10
585.53607526877761
 20
-3.2000000000001578
 30
0.0
 11
576.37419505342552
 21
-3.2000000000001578
 31
0.0
  0
LINE
  5
AF
  8
1
  6
DASHED
 62
     7
 10
575.67419505342536
 20
2.499999999999885
 30
0.0
 11
577.17419505342548
 21
3.9999999999998859
 31
0.0
  0
LINE
  5
B0
  8
1
  6
DASHED
 62
     7
 10
575.67419505342536
 20
-2.5000000000001141
 30
0.0
 11
575.67419505342536
 21
2.499999999999885
 31
0.0
  0
LINE
  5
B1
  8
1
  6
DASHED
 62
     7
 10
577.17419505342548
 20
-4.0000000000001128
 30
0.0
 11
575.67419505342536
 21
-2.5000000000001141
 31
0.0
  0
LINE
  5
B2
  8
1
  6
DASHED
 62
     7
 10
577.17419505342548
 20
3.9999999999998859
 30
0.0
 11
585.07419505342546
 21
3.9999999999998859
 31
0.0
  0
LINE
  5
B3
  8
1
  6
DASHED
 62
     7
 10
577.17419505342548
 20
-4.0000000000001128
 30
0.0
 11
577.17419505342548
 21
3.9999999999998859
 31
0.0
  0
LINE
  5
B4
  8
1
  6
DASHED
 62
     7
 10
585.07419505342546
 20
-4.0000000000001128
 30
0.0
 11
577.17419505342548
 21
-4.0000000000001128
 31
0.0
  0
LINE
  5
B5
  8
1
  6
DASHED
 62
     7
 10
585.67419505342548
 20
2.9607695154585372
 30
0.0
 11
585.67419505342548
 21
-2.9607695154587641
 31
0.0
  0
LINE
  5
B6
  8
1
  6
DASHED
 62
     7
 10
585.07419505342546
 20
3.9999999999998859
 30
0.0
 11
585.67419505342548
 21
2.9607695154585372
 31
0.0
  0
LINE
  5
B7
  8
1
  6
DASHED
 62
     7
 10
585.07419505342546
 20
-4.0000000000001128
 30
0.0
 11
585.07419505342546
 21
3.9999999999998859
 31
0.0
  0
LINE
  5
B8
  8
1
  6
DASHED
 62
     7
 10
585.67419505342548
 20
-2.9607695154587641
 30
0.0
 11
585.07419505342546
 21
-4.0000000000001128
 31
0.0
  0
LINE
  5
B9
  8
1
  6
DASHED
 62
     7
 10
539.17419505342536
 20
47.331279298155309
 30
0.0
 11
539.17419505342536
 21
47.899999999999977
 31
0.0
  0
LINE
  5
BA
  8
1
  6
DASHED
 62
     3
 10
539.97419505342555
 20
47.392087947251177
 30
0.0
 11
539.97419505342555
 21
39.200000000000038
 31
0.0
  0
LINE
  5
BB
  8
1
  6
DASHED
 62
     3
 10
546.37419505342552
 20
47.392087947251177
 30
0.0
 11
546.37419505342552
 21
39.200000000000038
 31
0.0
  0
LINE
  5
BC
  8
1
  6
DASHED
 62
     7
 10
547.17419505342536
 20
47.331279298155309
 30
0.0
 11
547.17419505342536
 21
40.0
 31
0.0
  0
LINE
  5
BD
  8
1
  6
DASHED
 62
     3
 10
539.17419505342536
 20
40.0
 30
0.0
 11
539.17419505342536
 21
38.5
 31
0.0
  0
LINE
  5
BE
  8
1
  6
DASHED
 62
     7
 10
539.97419505342555
 20
39.200000000000038
 30
0.0
 11
539.97419505342555
 21
38.5
 31
0.0
  0
LINE
  5
BF
  8
1
  6
DASHED
 62
     7
 10
546.37419505342552
 20
39.200000000000038
 30
0.0
 11
546.37419505342552
 21
38.5
 31
0.0
  0
LINE
  5
C0
  8
1
  6
DASHED
 62
     3
 10
547.17419505342536
 20
40.0
 30
0.0
 11
547.17419505342536
 21
38.5
 31
0.0
  0
LINE
  5
C1
  8
1
  6
DASHED
 62
     3
 10
539.97419505342555
 20
48.361880215351682
 30
0.0
 11
539.97419505342555
 21
47.392087947251177
 31
0.0
  0
LINE
  5
C2
  8
1
  6
DASHED
 62
     3
 10
546.37419505342552
 20
48.361880215351682
 30
0.0
 11
546.37419505342552
 21
47.392087947251177
 31
0.0
  0
LINE
  5
C3
  8
1
  6
DASHED
 62
     7
 10
540.67419505342548
 20
38.5
 30
0.0
 11
539.17419505342536
 21
40.0
 31
0.0
  0
LINE
  5
C4
  8
1
  6
DASHED
 62
     7
 10
547.17419505342536
 20
40.0
 30
0.0
 11
545.67419505342536
 21
38.5
 31
0.0
  0
LINE
  5
C5
  8
1
  6
DASHED
 62
     7
 10
539.17419505342536
 20
40.0
 30
0.0
 11
539.17419505342536
 21
47.331279298155309
 31
0.0
  0
LINE
  5
C6
  8
1
  6
DASHED
 62
     7
 10
547.17419505342536
 20
40.0
 30
0.0
 11
539.17419505342536
 21
40.0
 31
0.0
  0
LINE
  5
C7
  8
1
  6
DASHED
 62
     7
 10
547.17419505342536
 20
47.899999999999977
 30
0.0
 11
547.17419505342536
 21
47.331279298155309
 31
0.0
  0
LINE
  5
C8
  8
1
  6
DASHED
 62
     7
 10
540.2134255379666
 20
48.5
 30
0.0
 11
546.1349645688847
 21
48.5
 31
0.0
  0
LINE
  5
C9
  8
1
  6
DASHED
 62
     7
 10
539.17419505342536
 20
47.899999999999977
 30
0.0
 11
540.2134255379666
 21
48.5
 31
0.0
  0
LINE
  5
CA
  8
1
  6
DASHED
 62
     7
 10
547.17419505342536
 20
47.899999999999977
 30
0.0
 11
539.17419505342536
 21
47.899999999999977
 31
0.0
  0
LINE
  5
CB
  8
1
  6
DASHED
 62
     7
 10
546.1349645688847
 20
48.5
 30
0.0
 11
547.17419505342536
 21
47.899999999999977
 31
0.0
  0
LINE
  5
CC
  8
1
 62
     7
 10
556.17419505342536
 20
-152.5
 30
0.0
 11
556.17419505342536
 21
-167.997767842314
 31
0.0
  0
LINE
  5
CD
  8
1
 62
     7
 10
530.17419505342536
 20
-167.997767842314
 30
0.0
 11
530.17419505342536
 21
-152.5
 31
0.0
  0
LINE
  5
CE
  8
1
 62
     7
 10
668.74306913055239
 20
87.508330249197556
 30
0.0
 11
682.16452978394977
 21
95.257214170354516
 31
0.0
  0
LINE
  5
CF
  8
1
 62
     7
 10
404.60532097629869
 20
64.991669750802203
 30
0.0
 11
391.18386032290118
 21
72.740553671959219
 31
0.0
  0
LINE
  5
D0
  8
1
  6
DASHDOT
 62
     3
 10
660.52063726621657
 20
67.749999999999773
 30
0.0
 11
692.65017974661953
 21
86.299999999999841
 31
0.0
  0
LINE
  5
D1
  8
1
  6
DASHDOT
 62
     3
 10
425.8277528406341
 20
67.749999999999901
 30
0.0
 11
393.69821036023131
 21
86.299999999999969
 31
0.0
  0
LINE
  5
D2
  8
1
 62
     7
 10
695.16452978394977
 20
72.74055367195912
 30
0.0
 11
681.74306913055239
 21
64.991669750802103
 31
0.0
  0
LINE
  5
D3
  8
1
 62
     7
 10
404.18386032290118
 20
95.257214170354615
 30
0.0
 11
417.60532097629857
 21
87.508330249197684
 31
0.0
  0
LINE
  5
D4
  8
1
 62
     7
 10
682.2430691305525
 20
80.291451884327103
 30
0.0
 11
675.2430691305525
 21
84.332903768654546
 31
0.0
  0
LINE
  5
D5
  8
1
 62
     7
 10
675.2430691305525
 20
84.332903768654546
 30
0.0
 11
668.24306913055239
 21
80.291451884327103
 31
0.0
  0
LINE
  5
D6
  8
1
 62
     7
 10
668.24306913055239
 20
80.291451884327103
 30
0.0
 11
668.24306913055239
 21
72.208548115672443
 31
0.0
  0
LINE
  5
D7
  8
1
 62
     7
 10
668.24306913055239
 20
72.208548115672443
 30
0.0
 11
675.2430691305525
 21
68.167096231344985
 31
0.0
  0
LINE
  5
D8
  8
1
 62
     7
 10
675.2430691305525
 20
68.167096231344985
 30
0.0
 11
682.2430691305525
 21
72.208548115672443
 31
0.0
  0
LINE
  5
D9
  8
1
 62
     7
 10
682.2430691305525
 20
72.208548115672443
 30
0.0
 11
682.2430691305525
 21
80.291451884327103
 31
0.0
  0
LINE
  5
DA
  8
1
 62
     7
 10
550.17419505342536
 20
-148.45854811567281
 30
0.0
 11
543.17419505342536
 21
-144.41709623134531
 31
0.0
  0
LINE
  5
DB
  8
1
 62
     7
 10
543.17419505342536
 20
-144.41709623134531
 30
0.0
 11
536.17419505342548
 21
-148.45854811567281
 31
0.0
  0
LINE
  5
DC
  8
1
 62
     7
 10
536.17419505342548
 20
-148.45854811567281
 30
0.0
 11
536.17419505342548
 21
-156.54145188432739
 31
0.0
  0
LINE
  5
DD
  8
1
 62
     7
 10
536.17419505342548
 20
-156.54145188432739
 30
0.0
 11
543.17419505342536
 21
-160.5829037686548
 31
0.0
  0
LINE
  5
DE
  8
1
 62
     7
 10
543.17419505342536
 20
-160.5829037686548
 30
0.0
 11
550.17419505342536
 21
-156.54145188432739
 31
0.0
  0
LINE
  5
DF
  8
1
 62
     7
 10
550.17419505342536
 20
-156.54145188432739
 30
0.0
 11
550.17419505342536
 21
-148.45854811567281
 31
0.0
  0
LINE
  5
E0
  8
1
 62
     7
 10
418.10532097629857
 20
80.291451884327344
 30
0.0
 11
411.10532097629857
 21
84.332903768654774
 31
0.0
  0
LINE
  5
E1
  8
1
 62
     7
 10
411.10532097629857
 20
84.332903768654774
 30
0.0
 11
404.10532097629869
 21
80.291451884327344
 31
0.0
  0
LINE
  5
E2
  8
1
 62
     7
 10
404.10532097629869
 20
80.291451884327344
 30
0.0
 11
404.10532097629869
 21
72.20854811567267
 31
0.0
  0
LINE
  5
E3
  8
1
 62
     7
 10
404.10532097629869
 20
72.20854811567267
 30
0.0
 11
411.10532097629857
 21
68.167096231345226
 31
0.0
  0
LINE
  5
E4
  8
1
 62
     7
 10
411.10532097629857
 20
68.167096231345226
 30
0.0
 11
418.10532097629857
 21
72.20854811567267
 31
0.0
  0
LINE
  5
E5
  8
1
 62
     7
 10
418.10532097629857
 20
72.20854811567267
 30
0.0
 11
418.10532097629857
 21
80.291451884327344
 31
0.0
  0
LINE
  5
E6
  8
1
 62
     7
 10
687.2430691305525
 20
-69.321796769724514
 30
0.0
 11
675.2430691305525
 21
-62.393593539448943
 31
0.0
  0
LINE
  5
E7
  8
1
 62
     7
 10
675.2430691305525
 20
-62.393593539448943
 30
0.0
 11
663.2430691305525
 21
-69.321796769724514
 31
0.0
  0
LINE
  5
E8
  8
1
 62
     7
 10
663.2430691305525
 20
-69.321796769724514
 30
0.0
 11
663.2430691305525
 21
-83.178203230275471
 31
0.0
  0
LINE
  5
E9
  8
1
 62
     7
 10
663.2430691305525
 20
-83.178203230275471
 30
0.0
 11
675.2430691305525
 21
-90.106406460551057
 31
0.0
  0
LINE
  5
EA
  8
1
 62
     7
 10
675.2430691305525
 20
-90.106406460551057
 30
0.0
 11
687.2430691305525
 21
-83.178203230275471
 31
0.0
  0
LINE
  5
EB
  8
1
 62
     7
 10
687.2430691305525
 20
-83.178203230275471
 30
0.0
 11
687.2430691305525
 21
-69.321796769724514
 31
0.0
  0
LINE
  5
EC
  8
1
 62
     7
 10
423.1053209762984
 20
-69.321796769724429
 30
0.0
 11
411.1053209762984
 21
-62.393593539448823
 31
0.0
  0
LINE
  5
ED
  8
1
 62
     7
 10
411.1053209762984
 20
-62.393593539448823
 30
0.0
 11
399.10532097629851
 21
-69.321796769724429
 31
0.0
  0
LINE
  5
EE
  8
1
 62
     7
 10
399.10532097629851
 20
-69.321796769724429
 30
0.0
 11
399.10532097629851
 21
-83.178203230275358
 31
0.0
  0
LINE
  5
EF
  8
1
 62
     7
 10
399.10532097629851
 20
-83.178203230275358
 30
0.0
 11
411.1053209762984
 21
-90.106406460550943
 31
0.0
  0
LINE
  5
F0
  8
1
 62
     7
 10
411.1053209762984
 20
-90.106406460550943
 30
0.0
 11
423.1053209762984
 21
-83.178203230275358
 31
0.0
  0
LINE
  5
F1
  8
1
 62
     7
 10
423.1053209762984
 20
-83.178203230275358
 30
0.0
 11
423.1053209762984
 21
-69.321796769724429
 31
0.0
  0
LINE
  5
F2
  8
1
 62
     7
 10
555.17419505342536
 20
159.42820323027539
 30
0.0
 11
543.17419505342536
 21
166.3564064605508
 31
0.0
  0
LINE
  5
F3
  8
1
 62
     7
 10
543.17419505342536
 20
166.3564064605508
 30
0.0
 11
531.17419505342536
 21
159.42820323027539
 31
0.0
  0
LINE
  5
F4
  8
1
 62
     7
 10
531.17419505342536
 20
159.42820323027539
 30
0.0
 11
531.17419505342536
 21
145.57179676972419
 31
0.0
  0
LINE
  5
F5
  8
1
 62
     7
 10
531.17419505342536
 20
145.57179676972419
 30
0.0
 11
543.17419505342536
 21
138.64359353944889
 31
0.0
  0
LINE
  5
F6
  8
1
 62
     7
 10
543.17419505342536
 20
138.64359353944889
 30
0.0
 11
555.17419505342536
 21
145.57179676972419
 31
0.0
  0
LINE
  5
F7
  8
1
 62
     7
 10
555.17419505342536
 20
145.57179676972419
 30
0.0
 11
555.17419505342536
 21
159.42820323027539
 31
0.0
  0
LINE
  5
F8
  8
1
 62
     7
 10
614.46103682779767
 20
41.157477288111743
 30
0.0
 11
605.96103682779767
 21
46.064954576223499
 31
0.0
  0
LINE
  5
F9
  8
1
 62
     7
 10
605.96103682779767
 20
46.064954576223499
 30
0.0
 11
597.46103682779767
 21
41.157477288111743
 31
0.0
  0
LINE
  5
FA
  8
1
 62
     7
 10
597.46103682779767
 20
41.157477288111743
 30
0.0
 11
597.46103682779767
 21
31.342522711888019
 31
0.0
  0
LINE
  5
FB
  8
1
 62
     7
 10
597.46103682779767
 20
31.342522711888019
 30
0.0
 11
605.96103682779767
 21
26.43504542377627
 31
0.0
  0
LINE
  5
FC
  8
1
 62
     7
 10
605.96103682779767
 20
26.43504542377627
 30
0.0
 11
614.46103682779767
 21
31.342522711888019
 31
0.0
  0
LINE
  5
FD
  8
1
 62
     7
 10
614.46103682779767
 20
31.342522711888019
 30
0.0
 11
614.46103682779767
 21
41.157477288111743
 31
0.0
  0
LINE
  5
FE
  8
1
 62
     7
 10
551.67419505342536
 20
-67.59252271188825
 30
0.0
 11
543.17419505342536
 21
-62.685045423776501
 31
0.0
  0
LINE
  5
FF
  8
1
 62
     7
 10
543.17419505342536
 20
-62.685045423776501
 30
0.0
 11
534.67419505342536
 21
-67.59252271188825
 31
0.0
  0
LINE
  5
100
  8
1
 62
     7
 10
534.67419505342536
 20
-67.59252271188825
 30
0.0
 11
534.67419505342536
 21
-77.407477288111977
 31
0.0
  0
LINE
  5
101
  8
1
 62
     7
 10
534.67419505342536
 20
-77.407477288111977
 30
0.0
 11
543.17419505342536
 21
-82.314954576223741
 31
0.0
  0
LINE
  5
102
  8
1
 62
     7
 10
543.17419505342536
 20
-82.314954576223741
 30
0.0
 11
551.67419505342536
 21
-77.407477288111977
 31
0.0
  0
LINE
  5
103
  8
1
 62
     7
 10
551.67419505342536
 20
-77.407477288111977
 30
0.0
 11
551.67419505342536
 21
-67.59252271188825
 31
0.0
  0
LINE
  5
104
  8
1
 62
     7
 10
488.88735327905363
 20
41.157477288111743
 30
0.0
 11
480.38735327905363
 21
46.064954576223499
 31
0.0
  0
LINE
  5
105
  8
1
 62
     7
 10
480.38735327905363
 20
46.064954576223499
 30
0.0
 11
471.88735327905363
 21
41.157477288111743
 31
0.0
  0
LINE
  5
106
  8
1
 62
     7
 10
471.88735327905363
 20
41.157477288111743
 30
0.0
 11
471.88735327905363
 21
31.342522711888019
 31
0.0
  0
LINE
  5
107
  8
1
 62
     7
 10
471.88735327905363
 20
31.342522711888019
 30
0.0
 11
480.38735327905363
 21
26.43504542377627
 31
0.0
  0
LINE
  5
108
  8
1
 62
     7
 10
480.38735327905363
 20
26.43504542377627
 30
0.0
 11
488.88735327905363
 21
31.342522711888019
 31
0.0
  0
LINE
  5
109
  8
1
 62
     7
 10
488.88735327905363
 20
31.342522711888019
 30
0.0
 11
488.88735327905363
 21
41.157477288111743
 31
0.0
  0
LINE
  5
10A
  8
1
 62
     7
 10
145.0
 20
168.0
 30
0.0
 11
145.0
 21
-168.0
 31
0.0
  0
LINE
  5
10B
  8
1
 62
     7
 10
133.49999999999989
 20
-168.5
 30
0.0
 11
144.5
 21
-168.5
 31
0.0
  0
LINE
  5
10C
  8
1
 62
     7
 10
133.49999999999989
 20
168.5
 30
0.0
 11
144.5
 21
168.5
 31
0.0
  0
LINE
  5
10D
  8
1
 62
     7
 10
133.0
 20
135.0
 30
0.0
 11
61.399999999999977
 21
135.0
 31
0.0
  0
LINE
  5
10E
  8
1
 62
     7
 10
61.399999999999977
 20
135.0
 30
0.0
 11
61.399999999999977
 21
48.246410161513722
 31
0.0
  0
LINE
  5
10F
  8
1
 62
     7
 10
61.399999999999977
 20
-135.0
 30
0.0
 11
133.0
 21
-135.0
 31
0.0
  0
LINE
  5
110
  8
1
 62
     7
 10
61.399999999999977
 20
-52.5
 30
0.0
 11
145.0
 21
-52.5
 31
0.0
  0
LINE
  5
111
  8
1
 62
     7
 10
61.399999999999977
 20
52.5
 30
0.0
 11
145.0
 21
52.5
 31
0.0
  0
LINE
  5
112
  8
1
 62
     7
 10
103.2411764705879
 20
-80.0
 30
0.0
 11
106.2647058823525
 21
-65.0
 31
0.0
  0
LINE
  5
113
  8
1
 62
     7
 10
100.2176470588232
 20
-80.0
 30
0.0
 11
103.2411764705879
 21
-65.0
 31
0.0
  0
LINE
  5
114
  8
1
 62
     7
 10
97.194117647058533
 20
-80.0
 30
0.0
 11
100.2176470588232
 21
-65.0
 31
0.0
  0
LINE
  5
115
  8
1
 62
     7
 10
94.170588235293849
 20
-80.0
 30
0.0
 11
97.194117647058533
 21
-65.0
 31
0.0
  0
LINE
  5
116
  8
1
 62
     7
 10
91.14705882352915
 20
-80.0
 30
0.0
 11
94.170588235293849
 21
-65.0
 31
0.0
  0
LINE
  5
117
  8
1
 62
     7
 10
88.123529411764494
 20
-80.0
 30
0.0
 11
91.14705882352915
 21
-65.0
 31
0.0
  0
LINE
  5
118
  8
1
 62
     7
 10
85.099999999999795
 20
-80.0
 30
0.0
 11
88.123529411764494
 21
-65.0
 31
0.0
  0
LINE
  5
119
  8
1
 62
     7
 10
82.076470588235111
 20
-80.0
 30
0.0
 11
85.099999999999795
 21
-65.0
 31
0.0
  0
LINE
  5
11A
  8
1
 62
     7
 10
79.052941176470441
 20
-80.0
 30
0.0
 11
82.076470588235111
 21
-65.0
 31
0.0
  0
LINE
  5
11B
  8
1
 62
     7
 10
76.029411764705713
 20
-80.0
 30
0.0
 11
79.052941176470441
 21
-65.0
 31
0.0
  0
LINE
  5
11C
  8
1
 62
     7
 10
73.005882352941072
 20
-80.0
 30
0.0
 11
76.029411764705713
 21
-65.0
 31
0.0
  0
LINE
  5
11D
  8
1
 62
     7
 10
69.982352941176373
 20
-80.0
 30
0.0
 11
73.005882352941072
 21
-65.0
 31
0.0
  0
LINE
  5
11E
  8
1
 62
     7
 10
66.958823529411674
 20
-80.0
 30
0.0
 11
69.982352941176373
 21
-65.0
 31
0.0
  0
LINE
  5
11F
  8
1
 62
     7
 10
63.93529411764699
 20
-80.0
 30
0.0
 11
66.958823529411674
 21
-65.0
 31
0.0
  0
LINE
  5
120
  8
1
 62
     7
 10
60.91176470588232
 20
-80.0
 30
0.0
 11
63.93529411764699
 21
-65.0
 31
0.0
  0
LINE
  5
121
  8
1
 62
     7
 10
100.2176470588232
 20
-87.5
 30
0.0
 11
103.2411764705879
 21
-87.5
 31
0.0
  0
LINE
  5
122
  8
1
 62
     7
 10
103.2411764705879
 20
-87.5
 30
0.0
 11
103.2411764705879
 21
-80.0
 31
0.0
  0
LINE
  5
123
  8
1
 62
     7
 10
103.2411764705879
 20
-80.0
 30
0.0
 11
100.2176470588232
 21
-80.0
 31
0.0
  0
LINE
  5
124
  8
1
 62
     7
 10
100.2176470588232
 20
-80.0
 30
0.0
 11
100.2176470588232
 21
-87.5
 31
0.0
  0
LINE
  5
125
  8
1
 62
     7
 10
94.170588235293849
 20
-87.5
 30
0.0
 11
97.194117647058533
 21
-87.5
 31
0.0
  0
LINE
  5
126
  8
1
 62
     7
 10
97.194117647058533
 20
-87.5
 30
0.0
 11
97.194117647058533
 21
-80.0
 31
0.0
  0
LINE
  5
127
  8
1
 62
     7
 10
97.194117647058533
 20
-80.0
 30
0.0
 11
94.170588235293849
 21
-80.0
 31
0.0
  0
LINE
  5
128
  8
1
 62
     7
 10
94.170588235293849
 20
-80.0
 30
0.0
 11
94.170588235293849
 21
-87.5
 31
0.0
  0
LINE
  5
129
  8
1
 62
     7
 10
88.123529411764494
 20
-87.5
 30
0.0
 11
91.14705882352915
 21
-87.5
 31
0.0
  0
LINE
  5
12A
  8
1
 62
     7
 10
91.14705882352915
 20
-87.5
 30
0.0
 11
91.14705882352915
 21
-80.0
 31
0.0
  0
LINE
  5
12B
  8
1
 62
     7
 10
91.14705882352915
 20
-80.0
 30
0.0
 11
88.123529411764494
 21
-80.0
 31
0.0
  0
LINE
  5
12C
  8
1
 62
     7
 10
88.123529411764494
 20
-80.0
 30
0.0
 11
88.123529411764494
 21
-87.5
 31
0.0
  0
LINE
  5
12D
  8
1
 62
     7
 10
82.076470588235111
 20
-87.5
 30
0.0
 11
85.099999999999795
 21
-87.5
 31
0.0
  0
LINE
  5
12E
  8
1
 62
     7
 10
85.099999999999795
 20
-87.5
 30
0.0
 11
85.099999999999795
 21
-80.0
 31
0.0
  0
LINE
  5
12F
  8
1
 62
     7
 10
85.099999999999795
 20
-80.0
 30
0.0
 11
82.076470588235111
 21
-80.0
 31
0.0
  0
LINE
  5
130
  8
1
 62
     7
 10
82.076470588235111
 20
-80.0
 30
0.0
 11
82.076470588235111
 21
-87.5
 31
0.0
  0
LINE
  5
131
  8
1
 62
     7
 10
76.029411764705713
 20
-87.5
 30
0.0
 11
79.052941176470441
 21
-87.5
 31
0.0
  0
LINE
  5
132
  8
1
 62
     7
 10
79.052941176470441
 20
-87.5
 30
0.0
 11
79.052941176470441
 21
-80.0
 31
0.0
  0
LINE
  5
133
  8
1
 62
     7
 10
79.052941176470441
 20
-80.0
 30
0.0
 11
76.029411764705713
 21
-80.0
 31
0.0
  0
LINE
  5
134
  8
1
 62
     7
 10
76.029411764705713
 20
-80.0
 30
0.0
 11
76.029411764705713
 21
-87.5
 31
0.0
  0
LINE
  5
135
  8
1
 62
     7
 10
69.982352941176373
 20
-87.5
 30
0.0
 11
73.005882352941072
 21
-87.5
 31
0.0
  0
LINE
  5
136
  8
1
 62
     7
 10
73.005882352941072
 20
-87.5
 30
0.0
 11
73.005882352941072
 21
-80.0
 31
0.0
  0
LINE
  5
137
  8
1
 62
     7
 10
73.005882352941072
 20
-80.0
 30
0.0
 11
69.982352941176373
 21
-80.0
 31
0.0
  0
LINE
  5
138
  8
1
 62
     7
 10
69.982352941176373
 20
-80.0
 30
0.0
 11
69.982352941176373
 21
-87.5
 31
0.0
  0
LINE
  5
139
  8
1
 62
     7
 10
63.93529411764699
 20
-87.5
 30
0.0
 11
66.958823529411674
 21
-87.5
 31
0.0
  0
LINE
  5
13A
  8
1
 62
     7
 10
66.958823529411674
 20
-87.5
 30
0.0
 11
66.958823529411674
 21
-80.0
 31
0.0
  0
LINE
  5
13B
  8
1
 62
     7
 10
66.958823529411674
 20
-80.0
 30
0.0
 11
63.93529411764699
 21
-80.0
 31
0.0
  0
LINE
  5
13C
  8
1
 62
     7
 10
63.93529411764699
 20
-80.0
 30
0.0
 11
63.93529411764699
 21
-87.5
 31
0.0
  0
LINE
  5
13D
  8
1
 62
     7
 10
103.2411764705879
 20
-65.0
 30
0.0
 11
106.2647058823525
 21
-65.0
 31
0.0
  0
LINE
  5
13E
  8
1
 62
     7
 10
106.2647058823525
 20
-65.0
 30
0.0
 11
106.2647058823525
 21
-57.5
 31
0.0
  0
LINE
  5
13F
  8
1
 62
     7
 10
106.2647058823525
 20
-57.5
 30
0.0
 11
103.2411764705879
 21
-57.5
 31
0.0
  0
LINE
  5
140
  8
1
 62
     7
 10
103.2411764705879
 20
-57.5
 30
0.0
 11
103.2411764705879
 21
-65.0
 31
0.0
  0
LINE
  5
141
  8
1
 62
     7
 10
97.194117647058533
 20
-65.0
 30
0.0
 11
100.2176470588232
 21
-65.0
 31
0.0
  0
LINE
  5
142
  8
1
 62
     7
 10
100.2176470588232
 20
-65.0
 30
0.0
 11
100.2176470588232
 21
-57.5
 31
0.0
  0
LINE
  5
143
  8
1
 62
     7
 10
100.2176470588232
 20
-57.5
 30
0.0
 11
97.194117647058533
 21
-57.5
 31
0.0
  0
LINE
  5
144
  8
1
 62
     7
 10
97.194117647058533
 20
-57.5
 30
0.0
 11
97.194117647058533
 21
-65.0
 31
0.0
  0
LINE
  5
145
  8
1
 62
     7
 10
91.14705882352915
 20
-65.0
 30
0.0
 11
94.170588235293849
 21
-65.0
 31
0.0
  0
LINE
  5
146
  8
1
 62
     7
 10
94.170588235293849
 20
-65.0
 30
0.0
 11
94.170588235293849
 21
-57.5
 31
0.0
  0
LINE
  5
147
  8
1
 62
     7
 10
94.170588235293849
 20
-57.5
 30
0.0
 11
91.14705882352915
 21
-57.5
 31
0.0
  0
LINE
  5
148
  8
1
 62
     7
 10
91.14705882352915
 20
-57.5
 30
0.0
 11
91.14705882352915
 21
-65.0
 31
0.0
  0
LINE
  5
149
  8
1
 62
     7
 10
85.099999999999795
 20
-65.0
 30
0.0
 11
88.123529411764494
 21
-65.0
 31
0.0
  0
LINE
  5
14A
  8
1
 62
     7
 10
88.123529411764494
 20
-65.0
 30
0.0
 11
88.123529411764494
 21
-57.5
 31
0.0
  0
LINE
  5
14B
  8
1
 62
     7
 10
88.123529411764494
 20
-57.5
 30
0.0
 11
85.099999999999795
 21
-57.5
 31
0.0
  0
LINE
  5
14C
  8
1
 62
     7
 10
85.099999999999795
 20
-57.5
 30
0.0
 11
85.099999999999795
 21
-65.0
 31
0.0
  0
LINE
  5
14D
  8
1
 62
     7
 10
79.052941176470441
 20
-65.0
 30
0.0
 11
82.076470588235111
 21
-65.0
 31
0.0
  0
LINE
  5
14E
  8
1
 62
     7
 10
82.076470588235111
 20
-65.0
 30
0.0
 11
82.076470588235111
 21
-57.5
 31
0.0
  0
LINE
  5
14F
  8
1
 62
     7
 10
82.076470588235111
 20
-57.5
 30
0.0
 11
79.052941176470441
 21
-57.5
 31
0.0
  0
LINE
  5
150
  8
1
 62
     7
 10
79.052941176470441
 20
-57.5
 30
0.0
 11
79.052941176470441
 21
-65.0
 31
0.0
  0
LINE
  5
151
  8
1
 62
     7
 10
73.005882352941072
 20
-65.0
 30
0.0
 11
76.029411764705713
 21
-65.0
 31
0.0
  0
LINE
  5
152
  8
1
 62
     7
 10
76.029411764705713
 20
-65.0
 30
0.0
 11
76.029411764705713
 21
-57.5
 31
0.0
  0
LINE
  5
153
  8
1
 62
     7
 10
76.029411764705713
 20
-57.5
 30
0.0
 11
73.005882352941072
 21
-57.5
 31
0.0
  0
LINE
  5
154
  8
1
 62
     7
 10
73.005882352941072
 20
-57.5
 30
0.0
 11
73.005882352941072
 21
-65.0
 31
0.0
  0
LINE
  5
155
  8
1
 62
     7
 10
66.958823529411674
 20
-65.0
 30
0.0
 11
69.982352941176373
 21
-65.0
 31
0.0
  0
LINE
  5
156
  8
1
 62
     7
 10
69.982352941176373
 20
-65.0
 30
0.0
 11
69.982352941176373
 21
-57.5
 31
0.0
  0
LINE
  5
157
  8
1
 62
     7
 10
69.982352941176373
 20
-57.5
 30
0.0
 11
66.958823529411674
 21
-57.5
 31
0.0
  0
LINE
  5
158
  8
1
 62
     7
 10
66.958823529411674
 20
-57.5
 30
0.0
 11
66.958823529411674
 21
-65.0
 31
0.0
  0
LINE
  5
159
  8
1
 62
     7
 10
63.93529411764699
 20
-57.5
 30
0.0
 11
60.91176470588232
 21
-57.5
 31
0.0
  0
LINE
  5
15A
  8
1
 62
     7
 10
63.93529411764699
 20
-65.0
 30
0.0
 11
63.93529411764699
 21
-57.5
 31
0.0
  0
LINE
  5
15B
  8
1
 62
     7
 10
60.91176470588232
 20
-65.0
 30
0.0
 11
63.93529411764699
 21
-65.0
 31
0.0
  0
LINE
  5
15C
  8
1
 62
     7
 10
134.40000000000001
 20
-57.25
 30
0.0
 11
61.399999999999977
 21
-57.25
 31
0.0
  0
LINE
  5
15D
  8
1
 62
     7
 10
134.40000000000001
 20
-87.75
 30
0.0
 11
61.399999999999977
 21
-87.75
 31
0.0
  0
LINE
  5
15E
  8
1
 62
     7
 10
134.40000000000001
 20
-57.25
 30
0.0
 11
134.40000000000001
 21
-68.5
 31
0.0
  0
LINE
  5
15F
  8
1
 62
     7
 10
118.3588235294112
 20
-57.5
 30
0.0
 11
118.3588235294112
 21
-87.5
 31
0.0
  0
LINE
  5
160
  8
1
 62
     7
 10
123.8588235294112
 20
-57.5
 30
0.0
 11
118.3588235294112
 21
-57.5
 31
0.0
  0
LINE
  5
161
  8
1
 62
     7
 10
123.8588235294112
 20
-87.5
 30
0.0
 11
123.8588235294112
 21
-57.5
 31
0.0
  0
LINE
  5
162
  8
1
 62
     7
 10
118.3588235294112
 20
-87.5
 30
0.0
 11
123.8588235294112
 21
-87.5
 31
0.0
  0
LINE
  5
163
  8
1
 62
     7
 10
109.2882352941173
 20
-57.5
 30
0.0
 11
109.2882352941173
 21
-65.0
 31
0.0
  0
LINE
  5
164
  8
1
 62
     7
 10
112.311764705882
 20
-57.5
 30
0.0
 11
109.2882352941173
 21
-57.5
 31
0.0
  0
LINE
  5
165
  8
1
 62
     7
 10
112.311764705882
 20
-65.0
 30
0.0
 11
112.311764705882
 21
-57.5
 31
0.0
  0
LINE
  5
166
  8
1
 62
     7
 10
109.2882352941173
 20
-65.0
 30
0.0
 11
112.311764705882
 21
-65.0
 31
0.0
  0
LINE
  5
167
  8
1
 62
     7
 10
109.2882352941173
 20
-80.0
 30
0.0
 11
112.311764705882
 21
-65.0
 31
0.0
  0
LINE
  5
168
  8
1
 62
     7
 10
106.2647058823525
 20
-80.0
 30
0.0
 11
109.2882352941173
 21
-65.0
 31
0.0
  0
LINE
  5
169
  8
1
 62
     7
 10
109.2882352941173
 20
-87.5
 30
0.0
 11
109.2882352941173
 21
-80.0
 31
0.0
  0
LINE
  5
16A
  8
1
 62
     7
 10
109.2882352941173
 20
-80.0
 30
0.0
 11
106.2647058823525
 21
-80.0
 31
0.0
  0
LINE
  5
16B
  8
1
 62
     7
 10
106.2647058823525
 20
-80.0
 30
0.0
 11
106.2647058823525
 21
-87.5
 31
0.0
  0
LINE
  5
16C
  8
1
 62
     7
 10
106.2647058823525
 20
-87.5
 30
0.0
 11
109.2882352941173
 21
-87.5
 31
0.0
  0
LINE
  5
16D
  8
1
 62
     7
 10
115.3352941176466
 20
-87.5
 30
0.0
 11
115.3352941176466
 21
-80.0
 31
0.0
  0
LINE
  5
16E
  8
1
 62
     7
 10
112.311764705882
 20
-80.0
 30
0.0
 11
112.311764705882
 21
-87.5
 31
0.0
  0
LINE
  5
16F
  8
1
 62
     7
 10
112.311764705882
 20
-87.5
 30
0.0
 11
115.3352941176466
 21
-87.5
 31
0.0
  0
LINE
  5
170
  8
1
 62
     7
 10
115.3352941176466
 20
-80.0
 30
0.0
 11
112.311764705882
 21
-80.0
 31
0.0
  0
LINE
  5
171
  8
1
 62
     7
 10
115.3352941176466
 20
-80.0
 30
0.0
 11
118.3588235294112
 21
-65.0
 31
0.0
  0
LINE
  5
172
  8
1
 62
     7
 10
112.311764705882
 20
-80.0
 30
0.0
 11
115.3352941176466
 21
-65.0
 31
0.0
  0
LINE
  5
173
  8
1
 62
     7
 10
115.3352941176466
 20
-65.0
 30
0.0
 11
118.3588235294112
 21
-65.0
 31
0.0
  0
LINE
  5
174
  8
1
 62
     7
 10
115.3352941176466
 20
-57.5
 30
0.0
 11
115.3352941176466
 21
-65.0
 31
0.0
  0
LINE
  5
175
  8
1
 62
     7
 10
118.3588235294112
 20
-57.5
 30
0.0
 11
115.3352941176466
 21
-57.5
 31
0.0
  0
LINE
  5
176
  8
1
 62
     7
 10
159.0
 20
-76.114359353944906
 30
0.0
 11
158.1999999999999
 21
-77.5
 31
0.0
  0
LINE
  5
177
  8
1
 62
     7
 10
158.1999999999999
 20
-77.5
 30
0.0
 11
158.1999999999999
 21
-67.5
 31
0.0
  0
LINE
  5
178
  8
1
 62
     7
 10
158.1999999999999
 20
-67.5
 30
0.0
 11
159.0
 21
-68.885640646055094
 31
0.0
  0
LINE
  5
179
  8
1
 62
     7
 10
159.0
 20
-68.885640646055094
 30
0.0
 11
159.0
 21
-76.114359353944906
 31
0.0
  0
LINE
  5
17A
  8
1
 62
     7
 10
158.1999999999999
 20
-77.5
 30
0.0
 11
153.0
 21
-77.5
 31
0.0
  0
LINE
  5
17B
  8
1
 62
     7
 10
125.3588235294113
 20
-77.5
 30
0.0
 11
123.8588235294112
 21
-76.0
 31
0.0
  0
LINE
  5
17C
  8
1
 62
     7
 10
123.8588235294112
 20
-69.0
 30
0.0
 11
125.3588235294113
 21
-67.5
 31
0.0
  0
LINE
  5
17D
  8
1
 62
     7
 10
125.3588235294113
 20
-67.5
 30
0.0
 11
145.0
 21
-67.5
 31
0.0
  0
LINE
  5
17E
  8
1
 62
     7
 10
125.3588235294113
 20
-77.5
 30
0.0
 11
125.3588235294113
 21
-67.5
 31
0.0
  0
LINE
  5
17F
  8
1
 62
     3
 10
158.7773502691895
 20
-76.5
 30
0.0
 11
153.0
 21
-76.5
 31
0.0
  0
LINE
  5
180
  8
1
 62
     3
 10
158.7773502691895
 20
-68.5
 30
0.0
 11
153.0
 21
-68.5
 31
0.0
  0
LINE
  5
181
  8
1
 62
     7
 10
153.0
 20
-65.149999999999963
 30
0.0
 11
153.0
 21
-79.850000000000023
 31
0.0
  0
LINE
  5
182
  8
1
 62
     7
 10
152.10510708275601
 20
-62.700000000000038
 30
0.0
 11
145.0
 21
-62.700000000000038
 31
0.0
  0
LINE
  5
183
  8
1
 62
     7
 10
152.10510708275601
 20
-67.600000000000023
 30
0.0
 11
145.0
 21
-67.600000000000023
 31
0.0
  0
LINE
  5
184
  8
1
 62
     7
 10
152.10510708275601
 20
-77.399999999999977
 30
0.0
 11
145.0
 21
-77.399999999999977
 31
0.0
  0
LINE
  5
185
  8
1
 62
     7
 10
152.10510708275601
 20
-82.299999999999955
 30
0.0
 11
145.0
 21
-82.299999999999955
 31
0.0
  0
LINE
  5
186
  8
1
 62
     7
 10
134.40000000000001
 20
-76.5
 30
0.0
 11
134.40000000000001
 21
-87.75
 31
0.0
  0
LINE
  5
187
  8
1
 62
     3
 10
145.0
 20
-76.5
 30
0.0
 11
124.3588235294112
 21
-76.5
 31
0.0
  0
LINE
  5
188
  8
1
 62
     3
 10
145.0
 20
-68.5
 30
0.0
 11
124.3588235294112
 21
-68.5
 31
0.0
  0
LINE
  5
189
  8
1
 62
     7
 10
145.0
 20
-77.5
 30
0.0
 11
125.3588235294113
 21
-77.5
 31
0.0
  0
LINE
  5
18A
  8
1
 62
     7
 10
153.0
 20
-67.5
 30
0.0
 11
158.1999999999999
 21
-67.5
 31
0.0
  0
LINE
  5
18B
  8
1
 62
     7
 10
17.5
 20
-170.0
 30
0.0
 11
0.5
 21
-170.0
 31
0.0
  0
LINE
  5
18C
  8
1
 62
     7
 10
17.5
 20
170.0
 30
0.0
 11
0.5
 21
170.0
 31
0.0
  0
LINE
  5
18D
  8
1
 62
     7
 10
0.0
 20
169.5
 30
0.0
 11
0.0
 21
-144.5
 31
0.0
  0
LINE
  5
18E
  8
1
 62
     7
 10
60.399999999999991
 20
-170.0
 30
0.0
 11
38.5
 21
-170.0
 31
0.0
  0
LINE
  5
18F
  8
1
 62
     7
 10
38.5
 20
170.0
 30
0.0
 11
60.399999999999991
 21
170.0
 31
0.0
  0
LINE
  5
190
  8
1
 62
     7
 10
38.0
 20
166.49999999999989
 30
0.0
 11
38.0
 21
169.5
 31
0.0
  0
LINE
  5
191
  8
1
 62
     7
 10
18.0
 20
134.0
 30
0.0
 11
38.0
 21
134.0
 31
0.0
  0
LINE
  5
192
  8
1
 62
     7
 10
18.0
 20
-134.0
 30
0.0
 11
38.0
 21
-134.0
 31
0.0
  0
LINE
  5
193
  8
1
 62
     7
 10
0.0
 20
90.0
 30
0.0
 11
23.199999999999921
 21
90.0
 31
0.0
  0
LINE
  5
194
  8
1
 62
     7
 10
23.199999999999921
 20
90.0
 30
0.0
 11
23.199999999999921
 21
134.0
 31
0.0
  0
LINE
  5
195
  8
1
 62
     7
 10
32.800000000000061
 20
134.0
 30
0.0
 11
32.800000000000061
 21
90.0
 31
0.0
  0
LINE
  5
196
  8
1
 62
     7
 10
32.800000000000061
 20
90.0
 30
0.0
 11
38.0
 21
90.0
 31
0.0
  0
LINE
  5
197
  8
1
 62
     7
 10
38.0
 20
-90.0
 30
0.0
 11
32.800000000000061
 21
-90.0
 31
0.0
  0
LINE
  5
198
  8
1
 62
     7
 10
32.800000000000061
 20
-90.0
 30
0.0
 11
32.800000000000061
 21
-134.0
 31
0.0
  0
LINE
  5
199
  8
1
 62
     7
 10
23.199999999999921
 20
-134.0
 30
0.0
 11
23.199999999999921
 21
-90.0
 31
0.0
  0
LINE
  5
19A
  8
1
 62
     7
 10
23.199999999999921
 20
-90.0
 30
0.0
 11
0.0
 21
-90.0
 31
0.0
  0
LINE
  5
19B
  8
1
 62
     7
 10
38.0
 20
67.5
 30
0.0
 11
53.0
 21
52.5
 31
0.0
  0
LINE
  5
19C
  8
1
 62
     7
 10
53.0
 20
52.5
 30
0.0
 11
53.0
 21
47.5
 31
0.0
  0
LINE
  5
19D
  8
1
 62
     7
 10
53.0
 20
-52.5
 30
0.0
 11
38.0
 21
-67.5
 31
0.0
  0
LINE
  5
19E
  8
1
 62
     7
 10
53.0
 20
52.5
 30
0.0
 11
60.899999999999977
 21
52.5
 31
0.0
  0
LINE
  5
19F
  8
1
 62
     7
 10
53.0
 20
-52.5
 30
0.0
 11
60.899999999999977
 21
-52.5
 31
0.0
  0
LINE
  5
1A0
  8
1
 62
     7
 10
38.0
 20
-137.5
 30
0.0
 11
60.899999999999977
 21
-137.5
 31
0.0
  0
LINE
  5
1A1
  8
1
 62
     7
 10
18.0
 20
59.899999999999977
 30
0.0
 11
19.0
 21
60.899999999999977
 31
0.0
  0
LINE
  5
1A2
  8
1
 62
     7
 10
19.0
 20
60.899999999999977
 30
0.0
 11
37.0
 21
60.899999999999977
 31
0.0
  0
LINE
  5
1A3
  8
1
 62
     7
 10
37.0
 20
60.899999999999977
 30
0.0
 11
38.0
 21
59.899999999999977
 31
0.0
  0
LINE
  5
1A4
  8
1
 62
     7
 10
18.0
 20
57.049999999999947
 30
0.0
 11
38.0
 21
57.049999999999947
 31
0.0
  0
LINE
  5
1A5
  8
1
 62
     7
 10
22.39999999999997
 20
61.600000000000009
 30
0.0
 11
33.600000000000009
 21
61.600000000000009
 31
0.0
  0
LINE
  5
1A6
  8
1
 62
     7
 10
22.39999999999997
 20
57.75
 30
0.0
 11
33.600000000000009
 21
57.75
 31
0.0
  0
LINE
  5
1A7
  8
1
 62
     7
 10
33.600000000000009
 20
90.0
 30
0.0
 11
33.600000000000009
 21
57.049999999999947
 31
0.0
  0
LINE
  5
1A8
  8
1
 62
     7
 10
22.39999999999997
 20
57.049999999999947
 30
0.0
 11
22.39999999999997
 21
90.0
 31
0.0
  0
LINE
  5
1A9
  8
1
 62
     7
 10
22.39999999999997
 20
-57.75
 30
0.0
 11
33.600000000000009
 21
-57.75
 31
0.0
  0
LINE
  5
1AA
  8
1
 62
     7
 10
22.39999999999997
 20
-61.600000000000009
 30
0.0
 11
33.600000000000009
 21
-61.600000000000009
 31
0.0
  0
LINE
  5
1AB
  8
1
 62
     7
 10
38.0
 20
47.5
 30
0.0
 11
54.799999999999947
 21
47.5
 31
0.0
  0
LINE
  5
1AC
  8
1
 62
     7
 10
88.0
 20
46.5
 30
0.0
 11
88.0
 21
-46.499999999999893
 31
0.0
  0
LINE
  5
1AD
  8
1
 62
     7
 10
18.0
 20
138.49999999999989
 30
0.0
 11
18.0
 21
-169.5
 31
0.0
  0
LINE
  5
1AE
  8
1
 62
     7
 10
22.39999999999997
 20
-57.049999999999947
 30
0.0
 11
22.39999999999997
 21
-90.0
 31
0.0
  0
LINE
  5
1AF
  8
1
 62
     7
 10
33.600000000000009
 20
-90.0
 30
0.0
 11
33.600000000000009
 21
-57.049999999999947
 31
0.0
  0
LINE
  5
1B0
  8
1
 62
     7
 10
88.0
 20
46.5
 30
0.0
 11
87.0
 21
47.5
 31
0.0
  0
LINE
  5
1B1
  8
1
 62
     7
 10
552.17419505342548
 20
31.22899293925434
 30
0.0
 11
552.17419505342548
 21
38.5
 31
0.0
  0
LINE
  5
1B2
  8
1
 62
     7
 10
552.17419505342548
 20
38.5
 30
0.0
 11
534.17419505342536
 21
38.5
 31
0.0
  0
LINE
  5
1B3
  8
1
 62
     7
 10
534.17419505342536
 20
38.5
 30
0.0
 11
534.17419505342536
 21
31.22899293925434
 31
0.0
  0
LINE
  5
1B4
  8
1
 62
     7
 10
16.0
 20
166.49999999999989
 30
0.0
 11
16.0
 21
138.49999999999989
 31
0.0
  0
LINE
  5
1B5
  8
1
 62
     7
 10
16.0
 20
138.49999999999989
 30
0.0
 11
63.0
 21
138.49999999999989
 31
0.0
  0
LINE
  5
1B6
  8
1
 62
     7
 10
63.0
 20
138.49999999999989
 30
0.0
 11
63.0
 21
166.49999999999989
 31
0.0
  0
LINE
  5
1B7
  8
1
 62
     7
 10
63.0
 20
166.49999999999989
 30
0.0
 11
16.0
 21
166.49999999999989
 31
0.0
  0
LINE
  5
1B8
  8
1
 62
     7
 10
60.899999999999977
 20
166.49999999999989
 30
0.0
 11
60.899999999999977
 21
169.5
 31
0.0
  0
LINE
  5
1B9
  8
1
 62
     7
 10
38.0
 20
138.49999999999989
 30
0.0
 11
38.0
 21
47.5
 31
0.0
  0
LINE
  5
1BA
  8
1
 62
     7
 10
18.0
 20
166.49999999999989
 30
0.0
 11
18.0
 21
169.5
 31
0.0
  0
LINE
  5
1BB
  8
1
 62
     7
 10
165.40000000000001
 20
160.49999999999989
 30
0.0
 11
167.0
 21
158.89999999999981
 31
0.0
  0
LINE
  5
1BC
  8
1
 62
     7
 10
167.0
 20
158.89999999999981
 30
0.0
 11
167.0
 21
146.09999999999991
 31
0.0
  0
LINE
  5
1BD
  8
1
 62
     7
 10
167.0
 20
146.09999999999991
 30
0.0
 11
165.40000000000001
 21
144.49999999999989
 31
0.0
  0
LINE
  5
1BE
  8
1
 62
     7
 10
165.40000000000001
 20
144.49999999999989
 30
0.0
 11
157.9974674672556
 21
144.49999999999989
 31
0.0
  0
LINE
  5
1BF
  8
1
 62
     7
 10
165.40000000000001
 20
160.49999999999989
 30
0.0
 11
165.40000000000001
 21
144.49999999999989
 31
0.0
  0
LINE
  5
1C0
  8
1
 62
     7
 10
73.5
 20
162.88749999999979
 30
0.0
 11
73.5
 21
142.1124999999999
 31
0.0
  0
LINE
  5
1C1
  8
1
 62
     7
 10
72.143226867404351
 20
166.34999999999991
 30
0.0
 11
63.0
 21
166.34999999999991
 31
0.0
  0
LINE
  5
1C2
  8
1
 62
     7
 10
72.143226867404351
 20
159.4249999999999
 30
0.0
 11
63.0
 21
159.4249999999999
 31
0.0
  0
LINE
  5
1C3
  8
1
 62
     7
 10
72.143226867404351
 20
145.5749999999999
 30
0.0
 11
63.0
 21
145.5749999999999
 31
0.0
  0
LINE
  5
1C4
  8
1
 62
     7
 10
72.143226867404351
 20
138.64999999999981
 30
0.0
 11
63.0
 21
138.64999999999981
 31
0.0
  0
LINE
  5
1C5
  8
1
 62
     7
 10
76.0
 20
160.3874999999999
 30
0.0
 11
76.0
 21
144.61249999999981
 31
0.0
  0
LINE
  5
1C6
  8
1
 62
     7
 10
155.49999999999989
 20
162.88749999999979
 30
0.0
 11
155.49999999999989
 21
142.1124999999999
 31
0.0
  0
LINE
  5
1C7
  8
1
 62
     7
 10
154.14322686740431
 20
166.34999999999991
 30
0.0
 11
145.0
 21
166.34999999999991
 31
0.0
  0
LINE
  5
1C8
  8
1
 62
     7
 10
154.14322686740431
 20
159.4249999999999
 30
0.0
 11
145.0
 21
159.4249999999999
 31
0.0
  0
LINE
  5
1C9
  8
1
 62
     7
 10
154.14322686740431
 20
145.5749999999999
 30
0.0
 11
145.0
 21
145.5749999999999
 31
0.0
  0
LINE
  5
1CA
  8
1
 62
     7
 10
154.14322686740431
 20
138.64999999999981
 30
0.0
 11
145.0
 21
138.64999999999981
 31
0.0
  0
LINE
  5
1CB
  8
1
 62
     7
 10
158.0
 20
160.3874999999999
 30
0.0
 11
158.0
 21
144.61249999999981
 31
0.0
  0
LINE
  5
1CC
  8
1
 62
     7
 10
75.99746746725566
 20
160.49999999999989
 30
0.0
 11
120.0
 21
160.49999999999989
 31
0.0
  0
LINE
  5
1CD
  8
1
 62
     3
 10
76.0
 20
158.89999999999981
 30
0.0
 11
120.0
 21
158.89999999999981
 31
0.0
  0
LINE
  5
1CE
  8
1
 62
     3
 10
76.0
 20
146.09999999999991
 30
0.0
 11
120.0
 21
146.09999999999991
 31
0.0
  0
LINE
  5
1CF
  8
1
 62
     3
 10
158.0
 20
146.09999999999991
 30
0.0
 11
167.0
 21
146.09999999999991
 31
0.0
  0
LINE
  5
1D0
  8
1
 62
     7
 10
157.9974674672556
 20
160.49999999999989
 30
0.0
 11
165.40000000000001
 21
160.49999999999989
 31
0.0
  0
LINE
  5
1D1
  8
1
 62
     7
 10
120.0
 20
142.1124999999999
 30
0.0
 11
120.0
 21
162.88749999999979
 31
0.0
  0
LINE
  5
1D2
  8
1
 62
     7
 10
121.35677313259571
 20
138.64999999999981
 30
0.0
 11
133.0
 21
138.64999999999981
 31
0.0
  0
LINE
  5
1D3
  8
1
 62
     7
 10
121.35677313259571
 20
145.5749999999999
 30
0.0
 11
133.0
 21
145.5749999999999
 31
0.0
  0
LINE
  5
1D4
  8
1
 62
     7
 10
121.35677313259571
 20
159.4249999999999
 30
0.0
 11
133.0
 21
159.4249999999999
 31
0.0
  0
LINE
  5
1D5
  8
1
 62
     7
 10
121.35677313259571
 20
166.34999999999991
 30
0.0
 11
133.0
 21
166.34999999999991
 31
0.0
  0
LINE
  5
1D6
  8
1
 62
     7
 10
120.0
 20
144.49999999999989
 30
0.0
 11
75.99746746725566
 21
144.49999999999989
 31
0.0
  0
LINE
  5
1D7
  8
1
 62
     3
 10
167.0
 20
158.89999999999981
 30
0.0
 11
158.0
 21
158.89999999999981
 31
0.0
  0
LINE
  5
1D8
  8
1
 62
     7
 10
18.0
 20
-152.5
 30
0.0
 11
22.0
 21
-148.50000000000011
 31
0.0
  0
LINE
  5
1D9
  8
1
 62
     7
 10
18.0
 20
-156.5
 30
0.0
 11
22.0
 21
-152.5
 31
0.0
  0
LINE
  5
1DA
  8
1
 62
     7
 10
18.0
 20
-138.5
 30
0.0
 11
22.0
 21
-138.5
 31
0.0
  0
LINE
  5
1DB
  8
1
 62
     7
 10
22.0
 20
-138.5
 30
0.0
 11
22.0
 21
-166.5
 31
0.0
  0
LINE
  5
1DC
  8
1
 62
     7
 10
22.0
 20
-166.5
 30
0.0
 11
18.0
 21
-166.5
 31
0.0
  0
LINE
  5
1DD
  8
1
 62
     7
 10
22.0
 20
-140.5
 30
0.0
 11
37.0
 21
-140.5
 31
0.0
  0
LINE
  5
1DE
  8
1
 62
     7
 10
37.0
 20
-140.5
 30
0.0
 11
38.0
 21
-142.23205080756901
 31
0.0
  0
LINE
  5
1DF
  8
1
 62
     7
 10
38.0
 20
-162.7679491924313
 30
0.0
 11
37.0
 21
-164.5
 31
0.0
  0
LINE
  5
1E0
  8
1
 62
     7
 10
37.0
 20
-164.5
 30
0.0
 11
22.0
 21
-164.5
 31
0.0
  0
LINE
  5
1E1
  8
1
 62
     7
 10
37.0
 20
-140.5
 30
0.0
 11
37.0
 21
-164.5
 31
0.0
  0
LINE
  5
1E2
  8
1
 62
     7
 10
-21.399999999999981
 20
-144.5
 30
0.0
 11
-23.0
 21
-146.10000000000011
 31
0.0
  0
LINE
  5
1E3
  8
1
 62
     7
 10
-23.0
 20
-146.10000000000011
 30
0.0
 11
-23.0
 21
-158.90000000000001
 31
0.0
  0
LINE
  5
1E4
  8
1
 62
     7
 10
-23.0
 20
-158.90000000000001
 30
0.0
 11
-21.399999999999981
 21
-160.5
 31
0.0
  0
LINE
  5
1E5
  8
1
 62
     7
 10
-21.399999999999981
 20
-160.5
 30
0.0
 11
17.771281292110189
 21
-160.5
 31
0.0
  0
LINE
  5
1E6
  8
1
 62
     7
 10
-21.399999999999981
 20
-144.5
 30
0.0
 11
-21.399999999999981
 21
-160.5
 31
0.0
  0
LINE
  5
1E7
  8
1
 62
     3
 10
-23.0
 20
-146.10000000000011
 30
0.0
 11
15.0
 21
-146.10000000000011
 31
0.0
  0
LINE
  5
1E8
  8
1
 62
     3
 10
15.0
 20
-146.10000000000011
 30
0.0
 11
17.771281292110189
 21
-144.5
 31
0.0
  0
LINE
  5
1E9
  8
1
 62
     3
 10
-23.0
 20
-158.90000000000001
 30
0.0
 11
15.0
 21
-158.90000000000001
 31
0.0
  0
LINE
  5
1EA
  8
1
 62
     3
 10
15.0
 20
-158.90000000000001
 30
0.0
 11
17.771281292110189
 21
-160.5
 31
0.0
  0
LINE
  5
1EB
  8
1
 62
     3
 10
15.0
 20
-144.5
 30
0.0
 11
15.0
 21
-160.5
 31
0.0
  0
LINE
  5
1EC
  8
1
 62
     7
 10
0.0
 20
-144.25
 30
0.0
 11
18.0
 21
-144.25
 31
0.0
  0
LINE
  5
1ED
  8
1
 62
     7
 10
0.0
 20
-160.75
 30
0.0
 11
18.0
 21
-160.75
 31
0.0
  0
LINE
  5
1EE
  8
1
 62
     7
 10
18.0
 20
-144.5
 30
0.0
 11
-21.399999999999981
 21
-144.5
 31
0.0
  0
LINE
  5
1EF
  8
1
 62
     7
 10
0.0
 20
-160.5
 30
0.0
 11
0.0
 21
-169.5
 31
0.0
  0
LINE
  5
1F0
  8
1
  6
DASHDOT
 62
     3
 10
-32.991557879777019
 20
-152.5
 30
0.0
 11
43.552593054623223
 21
-152.5
 31
0.0
  0
LINE
  5
1F1
  8
1
 62
     7
 10
18.0
 20
38.5
 30
0.0
 11
88.0
 21
38.5
 31
0.0
  0
LINE
  5
1F2
  8
1
 62
     7
 10
18.0
 20
32.5
 30
0.0
 11
88.0
 21
32.5
 31
0.0
  0
LINE
  5
1F3
  8
1
 62
     7
 10
61.399999999999977
 20
-87.75
 30
0.0
 11
61.399999999999977
 21
-135.0
 31
0.0
  0
LINE
  5
1F4
  8
1
 62
     7
 10
38.0
 20
169.5
 30
0.0
 11
38.5
 21
170.0
 31
0.0
  0
LINE
  5
1F5
  8
1
 62
     7
 10
60.899999999999977
 20
169.5
 30
0.0
 11
60.399999999999991
 21
170.0
 31
0.0
  0
LINE
  5
1F6
  8
1
 62
     7
 10
18.0
 20
169.5
 30
0.0
 11
17.5
 21
170.0
 31
0.0
  0
LINE
  5
1F7
  8
1
 62
     7
 10
0.0
 20
169.5
 30
0.0
 11
0.5
 21
170.0
 31
0.0
  0
LINE
  5
1F8
  8
1
 62
     7
 10
133.49999999999989
 20
168.5
 30
0.0
 11
133.0
 21
168.0
 31
0.0
  0
LINE
  5
1F9
  8
1
 62
     7
 10
144.5
 20
168.5
 30
0.0
 11
145.0
 21
168.0
 31
0.0
  0
LINE
  5
1FA
  8
1
 62
     7
 10
60.899999999999977
 20
-169.5
 30
0.0
 11
60.399999999999991
 21
-170.0
 31
0.0
  0
LINE
  5
1FB
  8
1
 62
     7
 10
38.0
 20
-169.5
 30
0.0
 11
38.5
 21
-170.0
 31
0.0
  0
LINE
  5
1FC
  8
1
 62
     7
 10
18.0
 20
-169.5
 30
0.0
 11
17.5
 21
-170.0
 31
0.0
  0
LINE
  5
1FD
  8
1
 62
     7
 10
0.0
 20
-169.5
 30
0.0
 11
0.5
 21
-170.0
 31
0.0
  0
LINE
  5
1FE
  8
1
 62
     7
 10
133.0
 20
-168.0
 30
0.0
 11
133.49999999999989
 21
-168.5
 31
0.0
  0
LINE
  5
1FF
  8
1
 62
     7
 10
144.5
 20
-168.5
 30
0.0
 11
145.0
 21
-168.0
 31
0.0
  0
LINE
  5
200
  8
1
 62
     7
 10
117.40000000000011
 20
216.25369463614049
 30
0.0
 11
117.40000000000011
 21
213.25369463614049
 31
0.0
  0
LINE
  5
201
  8
1
 62
     7
 10
117.2
 20
216.25369463614049
 30
0.0
 11
117.2
 21
213.25369463614049
 31
0.0
  0
LINE
  5
202
  8
1
 62
     7
 10
117.0
 20
216.25369463614049
 30
0.0
 11
117.0
 21
213.25369463614049
 31
0.0
  0
LINE
  5
203
  8
1
 62
     7
 10
116.7999999999999
 20
216.25369463614049
 30
0.0
 11
116.7999999999999
 21
213.25369463614049
 31
0.0
  0
LINE
  5
204
  8
1
 62
     7
 10
116.59999999999989
 20
216.25369463614049
 30
0.0
 11
116.59999999999989
 21
213.25369463614049
 31
0.0
  0
LINE
  5
205
  8
1
 62
     7
 10
116.0
 20
213.25369463614049
 30
0.0
 11
118.0
 21
213.25369463614049
 31
0.0
  0
LINE
  5
206
  8
1
 62
     7
 10
118.0
 20
213.25369463614049
 30
0.0
 11
118.0
 21
160.49999999999989
 31
0.0
  0
LINE
  5
207
  8
1
 62
     7
 10
116.0
 20
160.49999999999989
 30
0.0
 11
116.0
 21
213.25369463614049
 31
0.0
  0
LINE
  5
208
  8
1
 62
     7
 10
118.0
 20
144.49999999999989
 30
0.0
 11
118.0
 21
135.0
 31
0.0
  0
LINE
  5
209
  8
1
 62
     7
 10
116.0
 20
144.49999999999989
 30
0.0
 11
116.0
 21
135.0
 31
0.0
  0
LINE
  5
20A
  8
1
 62
     7
 10
60.960769515458651
 20
48.5
 30
0.0
 11
62.0
 21
47.899999999999977
 31
0.0
  0
LINE
  5
20B
  8
1
 62
     7
 10
62.0
 20
47.899999999999977
 30
0.0
 11
54.0
 21
47.899999999999977
 31
0.0
  0
LINE
  5
20C
  8
1
 62
     7
 10
54.0
 20
47.899999999999977
 30
0.0
 11
55.039230484541349
 21
48.5
 31
0.0
  0
LINE
  5
20D
  8
1
 62
     7
 10
55.039230484541349
 20
48.5
 30
0.0
 11
60.960769515458651
 21
48.5
 31
0.0
  0
LINE
  5
20E
  8
1
 62
     7
 10
62.0
 20
47.899999999999977
 30
0.0
 11
62.0
 21
40.0
 31
0.0
  0
LINE
  5
20F
  8
1
 62
     7
 10
62.0
 20
40.0
 30
0.0
 11
54.0
 21
40.0
 31
0.0
  0
LINE
  5
210
  8
1
 62
     7
 10
54.0
 20
40.0
 30
0.0
 11
54.0
 21
47.899999999999977
 31
0.0
  0
LINE
  5
211
  8
1
 62
     7
 10
62.0
 20
40.0
 30
0.0
 11
60.5
 21
38.5
 31
0.0
  0
LINE
  5
212
  8
1
 62
     7
 10
60.5
 20
38.5
 30
0.0
 11
55.5
 21
38.5
 31
0.0
  0
LINE
  5
213
  8
1
 62
     7
 10
55.5
 20
38.5
 30
0.0
 11
54.0
 21
40.0
 31
0.0
  0
LINE
  5
214
  8
1
 62
     3
 10
61.200000000000038
 20
48.361880215351682
 30
0.0
 11
61.200000000000038
 21
39.200000000000038
 31
0.0
  0
LINE
  5
215
  8
1
 62
     3
 10
54.799999999999947
 20
48.361880215351682
 30
0.0
 11
54.799999999999947
 21
39.200000000000038
 31
0.0
  0
LINE
  5
216
  8
1
 62
     7
 10
61.200000000000038
 20
47.5
 30
0.0
 11
87.0
 21
47.5
 31
0.0
  0
LINE
  5
217
  8
1
 62
     3
 10
62.0
 20
40.0
 30
0.0
 11
62.0
 21
38.5
 31
0.0
  0
LINE
  5
218
  8
1
 62
     7
 10
61.200000000000038
 20
39.200000000000038
 30
0.0
 11
61.200000000000038
 21
38.5
 31
0.0
  0
LINE
  5
219
  8
1
 62
     7
 10
54.799999999999947
 20
39.200000000000038
 30
0.0
 11
54.799999999999947
 21
38.5
 31
0.0
  0
LINE
  5
21A
  8
1
 62
     3
 10
54.0
 20
40.0
 30
0.0
 11
54.0
 21
38.5
 31
0.0
  0
LINE
  5
21B
  8
1
  6
DASHDOT
 62
     3
 10
58.0
 20
50.246149111446357
 30
0.0
 11
58.0
 21
28.40644885133338
 31
0.0
  0
LINE
  5
21C
  8
1
 62
     7
 10
419.53250180729691
 20
216.95369463614051
 30
0.0
 11
421.0325018072968
 21
214.35561842478711
 31
0.0
  0
LINE
  5
21D
  8
1
 62
     7
 10
419.35929672653992
 20
216.85369463614049
 30
0.0
 11
420.85929672653992
 21
214.25561842478709
 31
0.0
  0
LINE
  5
21E
  8
1
 62
     7
 10
419.18609164578311
 20
216.75369463614049
 30
0.0
 11
420.68609164578322
 21
214.15561842478709
 31
0.0
  0
LINE
  5
21F
  8
1
 62
     7
 10
419.01288656502629
 20
216.6536946361405
 30
0.0
 11
420.51288656502629
 21
214.0556184247873
 31
0.0
  0
LINE
  5
220
  8
1
 62
     7
 10
418.83968148426942
 20
216.55369463614059
 30
0.0
 11
420.33968148426948
 21
213.9556184247873
 31
0.0
  0
LINE
  5
221
  8
1
 62
     7
 10
417.80045099972779
 20
215.9536946361404
 30
0.0
 11
419.30045099972779
 21
213.35561842478711
 31
0.0
  0
LINE
  5
222
  8
1
 62
     7
 10
417.62724591897103
 20
215.8536946361404
 30
0.0
 11
419.12724591897091
 21
213.25561842478709
 31
0.0
  0
LINE
  5
223
  8
1
 62
     7
 10
417.4540408382141
 20
215.75369463614041
 30
0.0
 11
418.95404083821421
 21
213.15561842478701
 31
0.0
  0
LINE
  5
224
  8
1
 62
     7
 10
417.28083575745723
 20
215.6536946361405
 30
0.0
 11
418.78083575745728
 21
213.0556184247871
 31
0.0
  0
LINE
  5
225
  8
1
 62
     7
 10
417.10763067670041
 20
215.55369463614039
 30
0.0
 11
418.6076306767003
 21
212.95561842478719
 31
0.0
  0
LINE
  5
226
  8
1
 62
     7
 10
418.00489146292227
 20
212.60762677746121
 30
0.0
 11
421.55211704956758
 21
214.65561842478709
 31
0.0
  0
LINE
  5
227
  8
1
 62
     7
 10
419.82006624199869
 20
213.65561842478709
 30
0.0
 11
458.92419505342559
 21
145.92528053767771
 31
0.0
  0
LINE
  5
228
  8
1
 62
     7
 10
460.6621807881366
 20
146.91500094232941
 30
0.0
 11
421.55211704956758
 21
214.65561842478709
 31
0.0
  0
LINE
  5
229
  8
1
 62
     7
 10
418.00489146292227
 20
212.60762677746121
 30
0.0
 11
457.19807917299761
 21
144.9150009423291
 31
0.0
  0
LINE
  5
22A
  8
1
 62
     7
 10
145.0
 20
-139.5
 30
0.0
 11
133.0
 21
-139.5
 31
0.0
  0
LINE
  5
22B
  8
1
 62
     7
 10
87.0
 20
-47.499999999999893
 30
0.0
 11
88.0
 21
-46.499999999999893
 31
0.0
  0
LINE
  5
22C
  8
1
 62
     7
 10
87.0
 20
-47.499999999999893
 30
0.0
 11
38.0
 21
-47.499999999999893
 31
0.0
  0
LINE
  5
22D
  8
1
 62
     7
 10
38.0
 20
-47.499999999999893
 30
0.0
 11
38.0
 21
-169.5
 31
0.0
  0
LINE
  5
22E
  8
1
 62
     7
 10
37.0
 20
-60.899999999999849
 30
0.0
 11
19.0
 21
-60.899999999999849
 31
0.0
  0
LINE
  5
22F
  8
1
 62
     7
 10
38.0
 20
-59.899999999999856
 30
0.0
 11
37.0
 21
-60.899999999999849
 31
0.0
  0
LINE
  5
230
  8
1
 62
     7
 10
19.0
 20
-60.899999999999849
 30
0.0
 11
18.0
 21
-59.899999999999856
 31
0.0
  0
LINE
  5
231
  8
1
 62
     7
 10
37.0
 20
-60.899999999999849
 30
0.0
 11
19.0
 21
-60.899999999999849
 31
0.0
  0
LINE
  5
232
  8
1
 62
     7
 10
38.0
 20
-57.049999999999841
 30
0.0
 11
18.0
 21
-57.049999999999841
 31
0.0
  0
LINE
  5
233
  8
1
 62
     7
 10
88.0
 20
-32.499999999999893
 30
0.0
 11
18.0
 21
-32.499999999999893
 31
0.0
  0
LINE
  5
234
  8
1
 62
     7
 10
53.0
 20
-47.499999999999893
 30
0.0
 11
53.0
 21
-52.5
 31
0.0
  0
LINE
  5
235
  8
1
 62
     7
 10
61.399999999999977
 20
-47.499999999999893
 30
0.0
 11
61.399999999999977
 21
-57.25
 31
0.0
  0
LINE
  5
236
  8
1
 62
     7
 10
60.899999999999977
 20
-47.499999999999893
 30
0.0
 11
60.899999999999977
 21
-169.5
 31
0.0
  0
LINE
  5
237
  8
1
 62
     3
 10
-10.0
 20
0.0
 30
0.0
 11
0.0
 21
0.0
 31
0.0
  0
LINE
  5
238
  8
1
  6
DASHDOT
 62
     3
 10
51.280570809874582
 20
0.0
 30
0.0
 11
65.895755623387572
 21
0.0
 31
0.0
  0
LINE
  5
239
  8
1
  6
DASHDOT
 62
     3
 10
58.0
 20
7.0132073127134626
 30
0.0
 11
58.0
 21
-8.6610488640975518
 31
0.0
  0
LINE
  5
23A
  8
1
 62
     3
 10
145.0
 20
0.0
 30
0.0
 11
155.0
 21
0.0
 31
0.0
  0
LINE
  5
23B
  8
1
 62
     7
 10
60.899999999999977
 20
52.5
 30
0.0
 11
60.899999999999977
 21
138.49999999999989
 31
0.0
  0
LINE
  5
23C
  8
1
 62
     7
 10
133.0
 20
135.0
 30
0.0
 11
133.0
 21
168.0
 31
0.0
  0
LINE
  5
23D
  8
1
 62
     7
 10
133.0
 20
-135.0
 30
0.0
 11
133.0
 21
-168.0
 31
0.0
  0
ARC
  5
23E
  8
1
 62
     7
 10
543.17419505342536
 20
-0.0000000000001137
 30
0.0
 40
169.99999999999989
 50
120.674703979605
 51
0.0
  0
ARC
  5
23F
  8
1
 62
     7
 10
543.17419505342536
 20
-0.0000000000001137
 30
0.0
 40
170.0
 50
0.0
 51
119.3259164553248
  0
ARC
  5
240
  8
1
 62
     7
 10
-301.50000000000011
 20
160.3874999999999
 30
0.0
 40
2.5
 50
0.0
 51
90.0
  0
ARC
  5
241
  8
1
 62
     7
 10
-301.50000000000011
 20
144.61249999999981
 30
0.0
 40
2.5
 50
270.0
 51
0.0
  0
ARC
  5
242
  8
1
 62
     7
 10
-219.5
 20
160.3874999999999
 30
0.0
 40
2.5
 50
0.0
 51
90.0
  0
ARC
  5
243
  8
1
 62
     7
 10
-219.5
 20
144.61249999999981
 30
0.0
 40
2.5
 50
270.0
 51
0.0
  0
ARC
  5
244
  8
1
 62
     7
 10
73.5
 20
160.3874999999999
 30
0.0
 40
2.5
 50
0.0
 51
90.0
  0
ARC
  5
245
  8
1
 62
     7
 10
73.5
 20
144.61249999999981
 30
0.0
 40
2.5
 50
270.0
 51
0.0
  0
ARC
  5
246
  8
1
 62
     7
 10
155.49999999999989
 20
160.3874999999999
 30
0.0
 40
2.5
 50
0.0
 51
90.0
  0
ARC
  5
247
  8
1
 62
     7
 10
155.49999999999989
 20
144.61249999999981
 30
0.0
 40
2.5
 50
270.0
 51
0.0
  0
ARC
  5
248
  8
1
  6
DASHDOT
 62
     3
 10
543.17419505342536
 20
-0.0000000000001137
 30
0.0
 40
152.5
 50
261.46089173501889
 51
279.48263311136009
  0
ARC
  5
249
  8
1
  6
DASHDOT
 62
     3
 10
543.17419505342536
 20
-0.0000000000001137
 30
0.0
 40
152.5000000000002
 50
21.998794433442711
 51
38.4508572438247
  0
ARC
  5
24A
  8
1
  6
DASHDOT
 62
     3
 10
543.17419505342536
 20
-0.0000000000001137
 30
0.0
 40
152.5
 50
142.26790300622361
 51
157.8733131490965
  0
ARC
  5
24B
  8
1
 62
     7
 10
-225.80119967553529
 20
-65.150000000000091
 30
0.0
 40
3.8011996755353179
 50
319.86930256112657
 51
40.130697438874662
  0
ARC
  5
24C
  8
1
 62
     7
 10
-235.8624593262756
 20
-72.5
 30
0.0
 40
13.862459326275751
 50
339.30013540055711
 51
20.699864599442758
  0
ARC
  5
24D
  8
1
 62
     7
 10
-225.8011996755356
 20
-79.849999999999909
 30
0.0
 40
3.8011996755357171
 50
319.8693025611293
 51
40.130697438869291
  0
ARC
  5
24E
  8
1
 62
     7
 10
-306.5965556625062
 20
162.88749999999979
 30
0.0
 40
5.0965556625062529
 50
317.20475610973602
 51
42.795243890264032
  0
ARC
  5
24F
  8
1
 62
     7
 10
-319.85106295113133
 20
152.49999999999989
 30
0.0
 40
18.351062951131421
 50
337.8296048630375
 51
22.170395136962611
  0
ARC
  5
250
  8
1
 62
     7
 10
-306.59655566250609
 20
142.11249999999981
 30
0.0
 40
5.0965556625061126
 50
317.20475610973568
 51
42.795243890265603
  0
ARC
  5
251
  8
1
 62
     7
 10
-224.5965556625062
 20
162.88749999999979
 30
0.0
 40
5.0965556625062529
 50
317.20475610973602
 51
42.795243890264032
  0
ARC
  5
252
  8
1
 62
     7
 10
-237.85106295113141
 20
152.49999999999989
 30
0.0
 40
18.35106295113146
 50
337.8296048630375
 51
22.17039513696259
  0
ARC
  5
253
  8
1
 62
     7
 10
-224.59655566250609
 20
142.11249999999981
 30
0.0
 40
5.0965556625061126
 50
317.20475610973568
 51
42.795243890265603
  0
ARC
  5
254
  8
1
 62
     7
 10
-249.90344433749371
 20
142.11249999999981
 30
0.0
 40
5.0965556625063106
 50
137.2047561097352
 51
222.79524389026329
  0
ARC
  5
255
  8
1
 62
     7
 10
-236.64893704886839
 20
152.49999999999989
 30
0.0
 40
18.35106295113146
 50
157.82960486303739
 51
202.17039513696241
  0
ARC
  5
256
  8
1
 62
     7
 10
-249.9034443374938
 20
162.88749999999979
 30
0.0
 40
5.0965556625061081
 50
137.2047561097344
 51
222.79524389026551
  0
ARC
  5
257
  8
1
 62
     7
 10
675.2430691305525
 20
76.249999999999758
 30
0.0
 40
13.00000000000008
 50
119.9999999999997
 51
300.00000000000011
  0
ARC
  5
258
  8
1
 62
     7
 10
411.10532097629857
 20
76.25
 30
0.0
 40
13.00000000000008
 50
240.0000000000002
 51
59.999999999999972
  0
ARC
  5
259
  8
1
 62
     7
 10
543.17419505342536
 20
-152.5
 30
0.0
 40
13.0
 50
0.0
 51
180.0
  0
ARC
  5
25A
  8
1
 62
     7
 10
543.17419505342536
 20
-152.5
 30
0.0
 40
13.99999999999998
 50
201.7867892982616
 51
338.21321070173832
  0
ARC
  5
25B
  8
1
 62
     7
 10
675.2430691305525
 20
76.249999999999758
 30
0.0
 40
13.99999999999981
 50
321.78678929826282
 51
98.213210701737822
  0
ARC
  5
25C
  8
1
 62
     7
 10
411.10532097629857
 20
76.25
 30
0.0
 40
13.99999999999997
 50
81.786789298263884
 51
218.21321070173661
  0
ARC
  5
25D
  8
1
 62
     7
 10
149.1988003244646
 20
-65.150000000000091
 30
0.0
 40
3.8011996755352522
 50
319.86930256112561
 51
40.130697438875487
  0
ARC
  5
25E
  8
1
 62
     7
 10
139.1375406737244
 20
-72.5
 30
0.0
 40
13.86245932627557
 50
339.30013540055683
 51
20.69986459944305
  0
ARC
  5
25F
  8
1
 62
     7
 10
149.19880032446429
 20
-79.849999999999909
 30
0.0
 40
3.8011996755355639
 50
319.86930256112731
 51
40.130697438871209
  0
ARC
  5
260
  8
1
 62
     7
 10
543.17419505342536
 20
-0.0000000000001137
 30
0.0
 40
32.500000000000071
 50
106.076649831605
 51
73.92335016839489
  0
ARC
  5
261
  8
1
 62
     7
 10
68.403444337493738
 20
162.88749999999979
 30
0.0
 40
5.0965556625062529
 50
317.20475610973602
 51
42.795243890264032
  0
ARC
  5
262
  8
1
 62
     7
 10
55.148937048868561
 20
152.49999999999989
 30
0.0
 40
18.351062951131421
 50
337.8296048630375
 51
22.170395136962611
  0
ARC
  5
263
  8
1
 62
     7
 10
68.403444337493852
 20
142.11249999999981
 30
0.0
 40
5.0965556625061126
 50
317.20475610973568
 51
42.795243890265603
  0
ARC
  5
264
  8
1
 62
     7
 10
150.4034443374936
 20
162.88749999999979
 30
0.0
 40
5.0965556625062529
 50
317.20475610973602
 51
42.795243890264032
  0
ARC
  5
265
  8
1
 62
     7
 10
137.1489370488685
 20
152.49999999999989
 30
0.0
 40
18.351062951131379
 50
337.82960486303739
 51
22.170395136962679
  0
ARC
  5
266
  8
1
 62
     7
 10
150.40344433749391
 20
142.11249999999981
 30
0.0
 40
5.0965556625060486
 50
317.20475610973511
 51
42.795243890266249
  0
ARC
  5
267
  8
1
 62
     7
 10
125.0965556625063
 20
142.11249999999981
 30
0.0
 40
5.0965556625063106
 50
137.2047561097352
 51
222.79524389026329
  0
ARC
  5
268
  8
1
 62
     7
 10
138.35106295113141
 20
152.49999999999989
 30
0.0
 40
18.351062951131372
 50
157.8296048630373
 51
202.1703951369625
  0
ARC
  5
269
  8
1
 62
     7
 10
125.09655566250611
 20
162.88749999999979
 30
0.0
 40
5.0965556625061081
 50
137.2047561097344
 51
222.79524389026551
  0
ARC
  5
26A
  8
1
 62
     3
 10
58.0
 20
0.0
 30
0.0
 40
4.0
 50
0.0
 51
180.0
  0
ARC
  5
26B
  8
1
 62
     7
 10
58.0
 20
0.0
 30
0.0
 40
3.200000000000053
 50
0.0
 51
180.0
  0
ARC
  5
26C
  8
1
 62
     7
 10
58.0
 20
0.0
 30
0.0
 40
3.200000000000053
 50
180.0
 51
0.0
  0
ARC
  5
26D
  8
1
 62
     3
 10
58.0
 20
0.0
 30
0.0
 40
4.0
 50
180.0
 51
0.0
  0
CIRCLE
  5
26E
  8
1
 62
     7
 10
543.17419505342536
 20
-0.0000000000001137
 30
0.0
 40
168.49999999999989
  0
CIRCLE
  5
26F
  8
1
 62
     7
 10
390.67419505342548
 20
-0.0000000000001137
 30
0.0
 40
6.5
  0
CIRCLE
  5
270
  8
1
 62
     3
 10
390.67419505342548
 20
-0.0000000000001137
 30
0.0
 40
6.0
  0
CIRCLE
  5
271
  8
1
 62
     7
 10
390.67419505342548
 20
-0.0000000000001137
 30
0.0
 40
4.7999999999998977
  0
CIRCLE
  5
272
  8
1
 62
     7
 10
695.67419505342536
 20
-0.0000000000001137
 30
0.0
 40
4.800000000000181
  0
CIRCLE
  5
273
  8
1
 62
     3
 10
695.67419505342536
 20
-0.0000000000001137
 30
0.0
 40
6.0
  0
CIRCLE
  5
274
  8
1
 62
     7
 10
695.67419505342536
 20
-0.0000000000001137
 30
0.0
 40
6.5
  0
CIRCLE
  5
275
  8
1
 62
     7
 10
543.17419505342536
 20
-0.0000000000001137
 30
0.0
 40
52.5
  0
CIRCLE
  5
276
  8
1
 62
     7
 10
543.17419505342536
 20
-0.0000000000001137
 30
0.0
 40
47.5
  0
CIRCLE
  5
277
  8
1
 62
     7
 10
675.2430691305525
 20
76.249999999999758
 30
0.0
 40
12.0
  0
CIRCLE
  5
278
  8
1
 62
     7
 10
543.17419505342536
 20
-152.5
 30
0.0
 40
12.0
  0
CIRCLE
  5
279
  8
1
 62
     7
 10
411.10532097629857
 20
76.25
 30
0.0
 40
12.0
  0
CIRCLE
  5
27A
  8
1
 62
     7
 10
675.2430691305525
 20
-76.25
 30
0.0
 40
12.0
  0
CIRCLE
  5
27B
  8
1
 62
     7
 10
675.2430691305525
 20
-76.25
 30
0.0
 40
8.0
  0
CIRCLE
  5
27C
  8
1
 62
     3
 10
675.2430691305525
 20
-76.25
 30
0.0
 40
6.4000000000000901
  0
CIRCLE
  5
27D
  8
1
 62
     7
 10
411.1053209762984
 20
-76.249999999999901
 30
0.0
 40
12.0
  0
CIRCLE
  5
27E
  8
1
 62
     7
 10
411.1053209762984
 20
-76.249999999999901
 30
0.0
 40
8.0
  0
CIRCLE
  5
27F
  8
1
 62
     3
 10
411.1053209762984
 20
-76.249999999999901
 30
0.0
 40
6.3999999999998618
  0
CIRCLE
  5
280
  8
1
 62
     7
 10
543.17419505342536
 20
152.49999999999989
 30
0.0
 40
12.0
  0
CIRCLE
  5
281
  8
1
 62
     7
 10
543.17419505342536
 20
152.49999999999989
 30
0.0
 40
8.0
  0
CIRCLE
  5
282
  8
1
 62
     3
 10
543.17419505342536
 20
152.49999999999989
 30
0.0
 40
6.4000000000000901
  0
CIRCLE
  5
283
  8
1
 62
     7
 10
605.96103682779767
 20
36.249999999999893
 30
0.0
 40
8.5
  0
CIRCLE
  5
284
  8
1
 62
     7
 10
605.96103682779767
 20
36.249999999999893
 30
0.0
 40
5.0
  0
CIRCLE
  5
285
  8
1
 62
     3
 10
605.96103682779767
 20
36.249999999999893
 30
0.0
 40
4.0
  0
CIRCLE
  5
286
  8
1
 62
     7
 10
543.17419505342536
 20
-72.500000000000099
 30
0.0
 40
8.5
  0
CIRCLE
  5
287
  8
1
 62
     7
 10
543.17419505342536
 20
-72.500000000000099
 30
0.0
 40
5.0
  0
CIRCLE
  5
288
  8
1
 62
     3
 10
543.17419505342536
 20
-72.500000000000099
 30
0.0
 40
4.0
  0
CIRCLE
  5
289
  8
1
 62
     7
 10
480.38735327905363
 20
36.249999999999893
 30
0.0
 40
8.5
  0
CIRCLE
  5
28A
  8
1
 62
     7
 10
480.38735327905363
 20
36.249999999999893
 30
0.0
 40
5.0
  0
CIRCLE
  5
28B
  8
1
 62
     3
 10
480.38735327905363
 20
36.249999999999893
 30
0.0
 40
4.0
  0
TEXT
  5
28D
  8
1
 62
     7
 10
-344.08532034692132
 20
330.71219680731332
 30
0.0
 40
15.0
  1
MNB 80
 41
0.9
  7
SIMPLEX
  0
ENDSEC
  0
EOF
