  0
SECTION
  2
HEADER
  9
$ACADVER
  1
AC1009
  9
$INSBASE
 10
0.0
 20
0.0
 30
0.0
  9
$EXTMIN
 10
-72.950686305399898
 20
-63.5
 30
0.0
  9
$EXTMAX
 10
147.1653957732814
 20
79.674767428751693
 30
0.0
  9
$LIMMIN
 10
-72.950686305399898
 20
-63.5
  9
$LIMMAX
 10
147.1653957732814
 20
79.674767428751693
  9
$ORTHOMODE
 70
     0
  9
$REGENMODE
 70
     1
  9
$FILLMODE
 70
     1
  9
$QTEXTMODE
 70
     0
  9
$MIRRTEXT
 70
     1
  9
$DRAGMODE
 70
     2
  9
$LTSCALE
 40
1.0
  9
$OSMODE
 70
    37
  9
$ATTMODE
 70
     1
  9
$TEXTSIZE
 40
3.5
  9
$TRACEWID
 40
0.5
  9
$TEXTSTYLE
  7
STANDARD
  9
$CLAYER
  8
0
  9
$CELTYPE
  6
BYLAYER
  9
$CECOLOR
 62
   256
  9
$DIMSCALE
 40
1.0
  9
$DIMASZ
 40
0.18
  9
$DIMEXO
 40
0.0625
  9
$DIMDLI
 40
0.38
  9
$DIMRND
 40
0.0
  9
$DIMDLE
 40
0.0
  9
$DIMEXE
 40
0.18
  9
$DIMTP
 40
0.0
  9
$DIMTM
 40
0.0
  9
$DIMTXT
 40
0.18
  9
$DIMCEN
 40
0.09
  9
$DIMTSZ
 40
0.0
  9
$DIMTOL
 70
     0
  9
$DIMLIM
 70
     0
  9
$DIMTIH
 70
     1
  9
$DIMTOH
 70
     1
  9
$DIMSE1
 70
     0
  9
$DIMSE2
 70
     0
  9
$DIMTAD
 70
     0
  9
$DIMZIN
 70
     0
  9
$DIMBLK
  1

  9
$DIMASO
 70
     1
  9
$DIMSHO
 70
     1
  9
$DIMPOST
  1

  9
$DIMAPOST
  1

  9
$DIMALT
 70
     0
  9
$DIMALTD
 70
     2
  9
$DIMALTF
 40
25.399999999999999
  9
$DIMLFAC
 40
1.0
  9
$DIMTOFL
 70
     0
  9
$DIMTVP
 40
0.0
  9
$DIMTIX
 70
     0
  9
$DIMSOXD
 70
     0
  9
$DIMSAH
 70
     0
  9
$DIMBLK1
  1

  9
$DIMBLK2
  1

  9
$DIMSTYLE
  2
STANDARD
  9
$DIMCLRD
 70
     0
  9
$DIMCLRE
 70
     0
  9
$DIMCLRT
 70
     0
  9
$DIMTFAC
 40
1.0
  9
$DIMGAP
 40
0.09
  9
$LUNITS
 70
     2
  9
$LUPREC
 70
     4
  9
$SKETCHINC
 40
0.1
  9
$FILLETRAD
 40
2.0
  9
$AUNITS
 70
     0
  9
$AUPREC
 70
     0
  9
$MENU
  1
ACAD
  9
$ELEVATION
 40
0.0
  9
$PELEVATION
 40
0.0
  9
$THICKNESS
 40
0.0
  9
$LIMCHECK
 70
     0
  9
$BLIPMODE
 70
     0
  9
$CHAMFERA
 40
0.0
  9
$CHAMFERB
 40
0.0
  9
$SKPOLY
 70
     0
  9
$TDCREATE
 40
2452094.9692505789
  9
$TDUPDATE
 40
2452094.970645254
  9
$TDINDWG
 40
0.0014075231
  9
$TDUSRTIMER
 40
0.0014075231
  9
$USRTIMER
 70
     1
  9
$ANGBASE
 50
0.0
  9
$ANGDIR
 70
     0
  9
$PDMODE
 70
     0
  9
$PDSIZE
 40
0.0
  9
$PLINEWID
 40
0.0
  9
$COORDS
 70
     1
  9
$SPLFRAME
 70
     0
  9
$SPLINETYPE
 70
     6
  9
$SPLINESEGS
 70
     8
  9
$ATTDIA
 70
     0
  9
$ATTREQ
 70
     1
  9
$HANDLING
 70
 10241
  9
$HANDSEED
  5
10A
  9
$SURFTAB1
 70
     6
  9
$SURFTAB2
 70
     6
  9
$SURFTYPE
 70
     6
  9
$SURFU
 70
     6
  9
$SURFV
 70
     6
  9
$UCSNAME
  2

  9
$UCSORG
 10
0.0
 20
0.0
 30
0.0
  9
$UCSXDIR
 10
1.0
 20
0.0
 30
0.0
  9
$UCSYDIR
 10
0.0
 20
1.0
 30
0.0
  9
$PUCSNAME
  2

  9
$PUCSORG
 10
0.0
 20
0.0
 30
0.0
  9
$PUCSXDIR
 10
1.0
 20
0.0
 30
0.0
  9
$PUCSYDIR
 10
0.0
 20
1.0
 30
0.0
  9
$USERI1
 70
     0
  9
$USERI2
 70
     0
  9
$USERI3
 70
     0
  9
$USERI4
 70
     0
  9
$USERI5
 70
     0
  9
$USERR1
 40
0.0
  9
$USERR2
 40
0.0
  9
$USERR3
 40
0.0
  9
$USERR4
 40
0.0
  9
$USERR5
 40
0.0
  9
$WORLDVIEW
 70
     1
  9
$SHADEDGE
 70
     3
  9
$SHADEDIF
 70
    70
  9
$TILEMODE
 70
     1
  9
$MAXACTVP
 70
    64
  9
$PLIMCHECK
 70
     0
  9
$PEXTMIN
 10
1.0000000000000000E+020
 20
1.0000000000000000E+020
 30
1.0000000000000000E+020
  9
$PEXTMAX
 10
-1.0000000000000000E+020
 20
-1.0000000000000000E+020
 30
-1.0000000000000000E+020
  9
$PLIMMIN
 10
0.0
 20
0.0
  9
$PLIMMAX
 10
12.0
 20
9.0
  9
$UNITMODE
 70
     0
  9
$VISRETAIN
 70
     1
  9
$PLINEGEN
 70
     0
  9
$PSLTSCALE
 70
     1
  0
ENDSEC
  0
SECTION
  2
TABLES
  0
TABLE
  2
VPORT
 70
     2
  0
VPORT
  2
*ACTIVE
 70
     0
 10
0.0
 20
0.0
 11
1.0
 21
1.0
 12
-56.72160389394417
 22
75.800329177896401
 13
0.0
 23
0.0
 14
1.0
 24
1.0
 15
0.0
 25
0.0
 16
0.0
 26
0.0
 36
1.0
 17
0.0
 27
0.0
 37
0.0
 40
9.0000000835963192
 41
2.4144144144144142
 42
50.0
 43
0.0
 44
0.0
 50
0.0
 51
0.0
 71
     0
 72
   100
 73
     1
 74
     1
 75
     0
 76
     0
 77
     0
 78
     0
  0
ENDTAB
  0
TABLE
  2
LTYPE
 70
     9
  0
LTYPE
  2
CONTINUOUS
 70
     0
  3
Solid line
 72
    65
 73
     0
 40
0.0
  0
LTYPE
  2
BORDER
 70
     0
  3
__ __ . __ __ .
 72
    65
 73
     6
 40
10.13692483257085
 49
2.8962642378773862
 49
-1.4481321189386931
 49
2.8962642378773862
 49
-1.4481321189386931
 49
0.0
 49
-1.4481321189386931
  0
LTYPE
  2
CENTER
 70
     0
  3
____ _ ____ _
 72
    65
 73
     4
 40
11.58505695150955
 49
7.2406605946934652
 49
-1.4481321189386931
 49
1.4481321189386931
 49
-1.4481321189386931
  0
LTYPE
  2
DASHDOT
 70
     0
  3
__ . __ . __ .
 72
    65
 73
     4
 40
5.7925284757547724
 49
2.8962642378773862
 49
-1.4481321189386931
 49
0.0
 49
-1.4481321189386931
  0
LTYPE
  2
DASHED
 70
     0
  3
__ __ __ __ __
 72
    65
 73
     2
 40
4.3443963568160804
 49
2.8962642378773862
 49
-1.4481321189386931
  0
LTYPE
  2
DIVIDE
 70
     0
  3
__ . . __ . . 
 72
    65
 73
     6
 40
7.2406605946934652
 49
2.8962642378773862
 49
-1.4481321189386931
 49
0.0
 49
-1.4481321189386931
 49
0.0
 49
-1.4481321189386931
  0
LTYPE
  2
DOT
 70
     0
  3
..............
 72
    65
 73
     4
 40
2.8962642378773862
 49
0.0
 49
-1.4481321189386931
 49
0.0
 49
-1.4481321189386931
  0
LTYPE
  2
HIDDEN
 70
     0
  3
_ _ _ _ _ _ _
 72
    65
 73
     2
 40
2.1721981784080402
 49
1.4481321189386931
 49
-0.7240660594693467
  0
LTYPE
  2
PHANTOM
 70
     0
  3
_____ _ _ _____ _ _ 
 72
    65
 73
     6
 40
14.48132118938693
 49
7.2406605946934652
 49
-1.4481321189386931
 49
1.4481321189386931
 49
-1.4481321189386931
 49
1.4481321189386931
 49
-1.4481321189386931
  0
ENDTAB
  0
TABLE
  2
LAYER
 70
     2
  0
LAYER
  2
0
 70
     0
 62
     7
  6
CONTINUOUS
  0
LAYER
  2
1
 70
     0
 62
     7
  6
CONTINUOUS
  0
ENDTAB
  0
TABLE
  2
STYLE
 70
     4
  0
STYLE
  2
STANDARD
 70
     0
 40
0.0
 41
1.0
 50
0.0
 71
     0
 42
3.5
  3
txt
  4

  0
STYLE
  2
SIMPLEX
 70
     0
 40
0.0
 41
1.0
 50
0.0
 71
     0
 42
3.5
  3
simplex
  4

  0
STYLE
  2
COMPLEX
 70
     0
 40
0.0
 41
1.0
 50
0.0
 71
     0
 42
3.5
  3
complex
  4

  0
STYLE
  2
ITALIC
 70
     0
 40
0.0
 41
1.0
 50
0.0
 71
     0
 42
3.5
  3
italic
  4

  0
ENDTAB
  0
TABLE
  2
VIEW
 70
     0
  0
ENDTAB
  0
TABLE
  2
UCS
 70
     0
  0
ENDTAB
  0
TABLE
  2
APPID
 70
     1
  0
APPID
  2
ACAD
 70
     0
  0
ENDTAB
  0
TABLE
  2
DIMSTYLE
 70
     1
  0
DIMSTYLE
  2
STANDARD
 70
     0
  3

  4

  5

  6

  7

 40
1.0
 41
0.18
 42
0.0625
 43
0.38
 44
0.18
 45
0.0
 46
0.0
 47
0.0
 48
0.0
140
0.18
141
0.09
142
0.0
143
25.399999999999999
144
1.0
145
0.0
146
1.0
147
0.09
 71
     0
 72
     0
 73
     1
 74
     1
 75
     0
 76
     0
 77
     0
 78
     0
170
     0
171
     2
172
     0
173
     0
174
     0
175
     0
176
     0
177
     0
178
     0
  0
ENDTAB
  0
ENDSEC
  0
SECTION
  2
BLOCKS
  0
BLOCK
  8
0
  2
$MODEL_SPACE
 70
     0
 10
0.0
 20
0.0
 30
0.0
  3
$MODEL_SPACE
  1

  0
ENDBLK
  5
20
  8
0
  0
BLOCK
 67
     1
  8
0
  2
$PAPER_SPACE
 70
     0
 10
0.0
 20
0.0
 30
0.0
  3
$PAPER_SPACE
  1

  0
ENDBLK
  5
1C
 67
     1
  8
0
  0
ENDSEC
  0
SECTION
  2
ENTITIES
  0
LINE
  5
33
  8
1
 62
     7
 10
15.0
 20
38.5
 30
0.0
 11
15.0
 21
-38.5
 31
0.0
  0
LINE
  5
34
  8
1
 62
     7
 10
18.400000000000009
 20
37.5
 30
0.0
 11
18.400000000000009
 21
38.5
 31
0.0
  0
LINE
  5
35
  8
1
 62
     7
 10
22.90000000000002
 20
29.0
 30
0.0
 11
22.90000000000002
 21
38.5
 31
0.0
  0
LINE
  5
36
  8
1
 62
     7
 10
15.0
 20
30.5
 30
0.0
 11
22.90000000000002
 21
30.5
 31
0.0
  0
LINE
  5
37
  8
1
 62
     7
 10
15.0
 20
37.5
 30
0.0
 11
22.90000000000002
 21
37.5
 31
0.0
  0
LINE
  5
38
  8
1
 62
     7
 10
23.400000000000009
 20
-29.0
 30
0.0
 11
23.400000000000009
 21
-22.00000000000011
 31
0.0
  0
LINE
  5
39
  8
1
 62
     7
 10
21.600000000000009
 20
-22.0
 30
0.0
 11
23.400000000000009
 21
-22.00000000000011
 31
0.0
  0
LINE
  5
3A
  8
1
 62
     7
 10
21.600000000000009
 20
22.0
 30
0.0
 11
23.400000000000009
 21
22.0
 31
0.0
  0
LINE
  5
3B
  8
1
 62
     7
 10
23.400000000000009
 20
22.0
 30
0.0
 11
23.400000000000009
 21
29.0
 31
0.0
  0
LINE
  5
3C
  8
1
 62
     7
 10
23.400000000000009
 20
29.0
 30
0.0
 11
17.900000000000009
 21
29.0
 31
0.0
  0
LINE
  5
3D
  8
1
 62
     7
 10
22.899999999999999
 20
-22.0
 30
0.0
 11
22.899999999999999
 21
-12.600000000000019
 31
0.0
  0
LINE
  5
3E
  8
1
 62
     7
 10
22.899999999999999
 20
12.599999999999991
 30
0.0
 11
22.899999999999999
 21
22.0
 31
0.0
  0
LINE
  5
3F
  8
1
 62
     7
 10
22.899999999999999
 20
-18.0
 30
0.0
 11
25.5
 21
-18.0
 31
0.0
  0
LINE
  5
40
  8
1
 62
     7
 10
25.500000000000011
 20
-12.600000000000019
 30
0.0
 11
25.500000000000011
 21
-38.5
 31
0.0
  0
LINE
  5
41
  8
1
 62
     7
 10
22.899999999999999
 20
18.0
 30
0.0
 11
25.5
 21
18.0
 31
0.0
  0
LINE
  5
42
  8
1
 62
     7
 10
25.500000000000011
 20
38.5
 30
0.0
 11
22.90000000000002
 21
38.5
 31
0.0
  0
LINE
  5
43
  8
1
 62
     7
 10
22.90000000000002
 20
-38.5
 30
0.0
 11
22.90000000000002
 21
-29.0
 31
0.0
  0
LINE
  5
44
  8
1
 62
     7
 10
22.90000000000002
 20
-38.5
 30
0.0
 11
25.500000000000011
 21
-38.5
 31
0.0
  0
LINE
  5
45
  8
1
 62
     7
 10
19.699999999999989
 20
-13.05000000000001
 30
0.0
 11
21.600000000000009
 21
-13.05000000000001
 31
0.0
  0
LINE
  5
46
  8
1
 62
     7
 10
19.699999999999989
 20
13.049999999999979
 30
0.0
 11
21.600000000000009
 21
13.049999999999979
 31
0.0
  0
LINE
  5
47
  8
1
 62
     7
 10
21.600000000000009
 20
-29.0
 30
0.0
 11
21.600000000000009
 21
-10.95000000000001
 31
0.0
  0
LINE
  5
48
  8
1
 62
     7
 10
19.699999999999989
 20
11.25
 30
0.0
 11
21.600000000000009
 21
11.25
 31
0.0
  0
LINE
  5
49
  8
1
 62
     7
 10
19.699999999999989
 20
-11.25
 30
0.0
 11
21.600000000000009
 21
-11.25
 31
0.0
  0
LINE
  5
4A
  8
1
 62
     7
 10
15.5
 20
-38.5
 30
0.0
 11
18.400000000000009
 21
-38.5
 31
0.0
  0
LINE
  5
4B
  8
1
 62
     7
 10
18.400000000000009
 20
-38.5
 30
0.0
 11
18.400000000000009
 21
-29.0
 31
0.0
  0
LINE
  5
4C
  8
1
 62
     7
 10
18.400000000000009
 20
38.5
 30
0.0
 11
15.5
 21
38.5
 31
0.0
  0
LINE
  5
4D
  8
1
 62
     7
 10
15.5
 20
38.5
 30
0.0
 11
15.5
 21
37.5
 31
0.0
  0
LINE
  5
4E
  8
1
 62
     7
 10
18.400000000000009
 20
29.0
 30
0.0
 11
18.400000000000009
 21
30.5
 31
0.0
  0
LINE
  5
4F
  8
1
 62
     7
 10
18.400000000000009
 20
10.0
 30
0.0
 11
15.5
 21
10.0
 31
0.0
  0
LINE
  5
50
  8
1
 62
     7
 10
15.5
 20
-10.0
 30
0.0
 11
18.400000000000009
 21
-10.0
 31
0.0
  0
LINE
  5
51
  8
1
 62
     7
 10
15.5
 20
-38.5
 30
0.0
 11
15.5
 21
30.5
 31
0.0
  0
LINE
  5
52
  8
1
 62
     7
 10
15.5
 20
30.199999999999989
 30
0.0
 11
18.400000000000009
 21
30.199999999999989
 31
0.0
  0
LINE
  5
53
  8
1
 62
     7
 10
18.400000000000009
 20
22.0
 30
0.0
 11
18.400000000000009
 21
9.0
 31
0.0
  0
LINE
  5
54
  8
1
 62
     7
 10
17.900000000000009
 20
-29.0
 30
0.0
 11
17.900000000000009
 21
-22.0
 31
0.0
  0
LINE
  5
55
  8
1
 62
     7
 10
17.900000000000009
 20
22.0
 30
0.0
 11
17.900000000000009
 21
29.0
 31
0.0
  0
LINE
  5
56
  8
1
 62
     7
 10
17.900000000000009
 20
22.0
 30
0.0
 11
19.699999999999989
 21
22.0
 31
0.0
  0
LINE
  5
57
  8
1
 62
     7
 10
15.5
 20
-29.0
 30
0.0
 11
25.5
 21
-29.0
 31
0.0
  0
LINE
  5
58
  8
1
 62
     7
 10
17.900000000000009
 20
-22.0
 30
0.0
 11
19.699999999999989
 21
-22.0
 31
0.0
  0
LINE
  5
59
  8
1
 62
     7
 10
19.699999999999989
 20
-29.0
 30
0.0
 11
19.699999999999989
 21
-9.0
 31
0.0
  0
LINE
  5
5A
  8
1
 62
     3
 10
-5.0
 20
0.0
 30
0.0
 11
0.0
 21
0.0
 31
0.0
  0
LINE
  5
5B
  8
1
 62
     7
 10
108.4153957732814
 20
36.049999999999969
 30
0.0
 11
108.9153957732815
 21
36.049999999999969
 31
0.0
  0
LINE
  5
5C
  8
1
 62
     7
 10
110.7153957732815
 20
34.25
 30
0.0
 11
110.7153957732815
 21
33.75
 31
0.0
  0
LINE
  5
5D
  8
1
 62
     7
 10
108.6653957732815
 20
31.949999999999989
 30
0.0
 11
108.4153957732814
 21
31.949999999999989
 31
0.0
  0
LINE
  5
5E
  8
1
 62
     7
 10
106.61539577328141
 20
33.938142259116091
 30
0.0
 11
106.61539577328141
 21
34.25
 31
0.0
  0
LINE
  5
5F
  8
1
 62
     7
 10
106.61539577328141
 20
33.938142259116091
 30
0.0
 11
106.61539577328141
 21
33.75
 31
0.0
  0
LINE
  5
60
  8
1
 62
     7
 10
108.6653957732815
 20
31.949999999999989
 30
0.0
 11
108.9153957732815
 21
31.949999999999989
 31
0.0
  0
LINE
  5
61
  8
1
 62
     7
 10
80.995884122368693
 20
-15.97500000000001
 30
0.0
 11
80.870884122368693
 21
-15.758493649053911
 31
0.0
  0
LINE
  5
62
  8
1
 62
     7
 10
80.299102419636796
 20
-18.744423207316199
 30
0.0
 11
80.462038395556704
 21
-18.6503520777581
 31
0.0
  0
LINE
  5
63
  8
1
 62
     7
 10
80.299102419636796
 20
-18.744423207316199
 30
0.0
 11
80.029025693664465
 21
-18.9003520777581
 31
0.0
  0
LINE
  5
64
  8
1
 62
     7
 10
80.995884122368693
 20
-15.97500000000001
 30
0.0
 11
81.120884122368693
 21
-16.191506350946099
 31
0.0
  0
LINE
  5
65
  8
1
 62
     7
 10
77.979025693664511
 20
-15.349647922241889
 30
0.0
 11
78.412038395556692
 21
-15.0996479222419
 31
0.0
  0
LINE
  5
66
  8
1
 62
     7
 10
77.570179966852479
 20
-18.241506350946111
 30
0.0
 11
77.320179966852479
 21
-17.80849364905389
 31
0.0
  0
LINE
  5
67
  8
1
 62
     7
 10
136.3349074241942
 20
-15.97500000000001
 30
0.0
 11
136.2099074241942
 21
-16.191506350946209
 31
0.0
  0
LINE
  5
68
  8
1
 62
     7
 10
139.08168912692619
 20
-15.1937190518
 30
0.0
 11
138.91875315100631
 21
-15.0996479222419
 31
0.0
  0
LINE
  5
69
  8
1
 62
     7
 10
139.08168912692619
 20
-15.1937190518
 30
0.0
 11
139.35176585289861
 21
-15.349647922241889
 31
0.0
  0
LINE
  5
6A
  8
1
 62
     7
 10
136.3349074241942
 20
-15.97500000000001
 30
0.0
 11
136.4599074241942
 21
-15.758493649053911
 31
0.0
  0
LINE
  5
6B
  8
1
 62
     7
 10
137.30176585289851
 20
-18.90035207775821
 30
0.0
 11
136.8687531510063
 21
-18.65035207775821
 31
0.0
  0
LINE
  5
6C
  8
1
 62
     7
 10
140.01061157971051
 20
-17.80849364905389
 30
0.0
 11
139.76061157971051
 21
-18.24150635094621
 31
0.0
  0
LINE
  5
6D
  8
1
 62
     7
 10
139.20296020798341
 20
-55.692613140311927
 30
0.0
 11
136.70296020798321
 21
-51.362486121389708
 31
0.0
  0
LINE
  5
6E
  8
1
 62
     7
 10
136.87616528874011
 20
-51.262486121389713
 30
0.0
 11
139.37616528874011
 21
-55.59261314031194
 31
0.0
  0
LINE
  5
6F
  8
1
 62
     7
 10
139.5493703694971
 20
-55.49261314031196
 30
0.0
 11
137.0493703694969
 21
-51.162486121389719
 31
0.0
  0
LINE
  5
70
  8
1
 62
     7
 10
137.22257545025391
 20
-51.062486121389711
 30
0.0
 11
139.72257545025391
 21
-55.39261314031193
 31
0.0
  0
LINE
  5
71
  8
1
 62
     7
 10
139.8957805310109
 20
-55.292613140311929
 30
0.0
 11
137.3957805310107
 21
-50.962486121389723
 31
0.0
  0
LINE
  5
72
  8
1
 62
     7
 10
138.43501101555219
 20
-50.362486121389722
 30
0.0
 11
140.93501101555219
 21
-54.692613140311927
 31
0.0
  0
LINE
  5
73
  8
1
 62
     7
 10
141.10821609630909
 20
-54.59261314031194
 30
0.0
 11
138.60821609630901
 21
-50.262486121389713
 31
0.0
  0
LINE
  5
74
  8
1
 62
     7
 10
138.78142117706591
 20
-50.16248612138962
 30
0.0
 11
141.28142117706591
 21
-54.492613140311853
 31
0.0
  0
LINE
  5
75
  8
1
 62
     7
 10
141.45462625782289
 20
-54.392613140311937
 30
0.0
 11
138.95462625782281
 21
-50.062486121389711
 31
0.0
  0
LINE
  5
76
  8
1
 62
     7
 10
139.12783133857971
 20
-49.962486121389723
 30
0.0
 11
141.62783133857971
 21
-54.292613140311943
 31
0.0
  0
LINE
  5
77
  8
1
 62
     7
 10
136.18334496571271
 20
-51.662486121389684
 30
0.0
 11
139.6474465808505
 21
-49.662486121389684
 31
0.0
  0
LINE
  5
78
  8
1
 62
     7
 10
137.9153957732816
 20
-50.662486121389669
 30
0.0
 11
127.9153957732815
 21
-33.341978045700927
 31
0.0
  0
LINE
  5
79
  8
1
 62
     7
 10
136.18334496571271
 20
-51.662486121389684
 30
0.0
 11
126.1573533926769
 21
-34.296959320634727
 31
0.0
  0
LINE
  5
7A
  8
1
 62
     7
 10
0.0
 20
38.5
 30
0.0
 11
15.0
 21
38.5
 31
0.0
  0
LINE
  5
7B
  8
1
 62
     7
 10
7.400000000000019
 20
-58.500000000000007
 30
0.0
 11
7.400000000000019
 21
-63.5
 31
0.0
  0
LINE
  5
7C
  8
1
 62
     7
 10
7.2000000000000011
 20
-63.5
 30
0.0
 11
7.2000000000000011
 21
-58.500000000000007
 31
0.0
  0
LINE
  5
7D
  8
1
 62
     7
 10
7.0000000000000133
 20
-58.500000000000007
 30
0.0
 11
7.0000000000000133
 21
-63.5
 31
0.0
  0
LINE
  5
7E
  8
1
 62
     7
 10
6.799999999999998
 20
-63.5
 30
0.0
 11
6.799999999999998
 21
-58.500000000000007
 31
0.0
  0
LINE
  5
7F
  8
1
 62
     7
 10
6.0
 20
-58.5
 30
0.0
 11
8.0000000000000124
 21
-58.5
 31
0.0
  0
LINE
  5
80
  8
1
 62
     7
 10
6.6000000000000076
 20
-58.500000000000007
 30
0.0
 11
6.6000000000000076
 21
-63.5
 31
0.0
  0
LINE
  5
81
  8
1
 62
     7
 10
15.0
 20
-38.5
 30
0.0
 11
0.0
 21
-38.5
 31
0.0
  0
LINE
  5
82
  8
1
 62
     7
 10
8.0000000000000124
 20
-58.5
 30
0.0
 11
8.0000000000000124
 21
-38.5
 31
0.0
  0
LINE
  5
83
  8
1
 62
     7
 10
6.0
 20
-38.5
 30
0.0
 11
6.0
 21
-58.5
 31
0.0
  0
LINE
  5
84
  8
1
 62
     7
 10
0.0
 20
-10.0
 30
0.0
 11
15.0
 21
-10.0
 31
0.0
  0
LINE
  5
85
  8
1
 62
     7
 10
15.0
 20
10.0
 30
0.0
 11
0.0
 21
10.0
 31
0.0
  0
LINE
  5
86
  8
1
  6
DASHDOT
 62
     3
 10
-3.0
 20
-34.0
 30
0.0
 11
28.5
 21
-34.0
 31
0.0
  0
LINE
  5
87
  8
1
 62
     7
 10
0.0
 20
-31.75
 30
0.0
 11
15.0
 21
-31.75
 31
0.0
  0
LINE
  5
88
  8
1
 62
     7
 10
0.0
 20
-36.25
 30
0.0
 11
15.0
 21
-36.25
 31
0.0
  0
LINE
  5
89
  8
1
 62
     7
 10
78.105790512480183
 20
23.41709901554859
 30
0.0
 11
81.720532044610522
 21
21.33012701892218
 31
0.0
  0
LINE
  5
8A
  8
1
 62
     7
 10
76.720532044610522
 20
12.669872981077781
 30
0.0
 11
73.105790512480183
 21
14.75684497770418
 31
0.0
  0
LINE
  5
8B
  8
1
 62
     7
 10
144.22500103408279
 20
14.75684497770418
 30
0.0
 11
140.61025950195241
 21
12.669872981077781
 31
0.0
  0
LINE
  5
8C
  8
1
 62
     7
 10
135.61025950195241
 20
21.33012701892218
 30
0.0
 11
139.22500103408271
 21
23.41709901554859
 31
0.0
  0
LINE
  5
8D
  8
1
 62
     7
 10
113.6653957732814
 20
-34.0
 30
0.0
 11
113.6653957732814
 21
-38.173943993252813
 31
0.0
  0
LINE
  5
8E
  8
1
 62
     7
 10
103.6653957732815
 20
-38.173943993252813
 30
0.0
 11
103.6653957732815
 21
-34.0
 31
0.0
  0
LINE
  5
8F
  8
1
 62
     7
 10
106.6653957732815
 20
7.5
 30
0.0
 11
106.6653957732815
 21
5.6568542494923966
 31
0.0
  0
LINE
  5
90
  8
1
 62
     7
 10
110.6653957732815
 20
7.5
 30
0.0
 11
106.6653957732815
 21
7.5
 31
0.0
  0
LINE
  5
91
  8
1
 62
     7
 10
110.6653957732815
 20
5.6568542494923966
 30
0.0
 11
110.6653957732815
 21
7.5
 31
0.0
  0
LINE
  5
92
  8
1
 62
     7
 10
0.0
 20
38.5
 30
0.0
 11
0.0
 21
-38.5
 31
0.0
  0
LINE
  5
93
  8
1
 62
     7
 10
129.6214550078148
 20
-32.296959320634727
 30
0.0
 11
139.6474465808505
 21
-49.662486121389684
 31
0.0
  0
LINE
  5
94
  8
1
 62
     7
 10
26.000000000000011
 20
-12.600000000000019
 30
0.0
 11
26.000000000000011
 21
12.599999999999991
 31
0.0
  0
LINE
  5
95
  8
1
 62
     7
 10
20.0
 20
12.599999999999991
 30
0.0
 11
26.000000000000011
 21
12.599999999999991
 31
0.0
  0
LINE
  5
96
  8
1
 62
     7
 10
18.0
 20
9.0
 30
0.0
 11
20.0
 21
9.0
 31
0.0
  0
LINE
  5
97
  8
1
 62
     7
 10
20.0
 20
-9.0
 30
0.0
 11
18.0
 21
-9.0
 31
0.0
  0
LINE
  5
98
  8
1
 62
     7
 10
26.000000000000011
 20
-12.600000000000019
 30
0.0
 11
20.0
 21
-12.600000000000019
 31
0.0
  0
LINE
  5
99
  8
1
 62
     7
 10
18.0
 20
6.0
 30
0.0
 11
26.0
 21
6.0
 31
0.0
  0
LINE
  5
9A
  8
1
 62
     7
 10
18.0
 20
-6.0
 30
0.0
 11
26.0
 21
-6.0
 31
0.0
  0
LINE
  5
9B
  8
1
 62
     7
 10
18.0
 20
-9.0
 30
0.0
 11
18.0
 21
9.0
 31
0.0
  0
LINE
  5
9C
  8
1
 62
     7
 10
20.0
 20
10.94999999999999
 30
0.0
 11
26.0
 21
10.94999999999999
 31
0.0
  0
LINE
  5
9D
  8
1
 62
     7
 10
20.0
 20
9.0
 30
0.0
 11
20.0
 21
12.599999999999991
 31
0.0
  0
LINE
  5
9E
  8
1
 62
     7
 10
20.0
 20
-10.95000000000001
 30
0.0
 11
26.0
 21
-10.95000000000001
 31
0.0
  0
LINE
  5
9F
  8
1
 62
     7
 10
20.0
 20
-12.600000000000019
 30
0.0
 11
20.0
 21
-9.0
 31
0.0
  0
LINE
  5
A0
  8
1
 62
     7
 10
25.500000000000011
 20
12.599999999999991
 30
0.0
 11
25.500000000000011
 21
38.5
 31
0.0
  0
LINE
  5
A1
  8
1
 62
     7
 10
21.600000000000009
 20
10.94999999999999
 30
0.0
 11
21.600000000000009
 21
29.0
 31
0.0
  0
LINE
  5
A2
  8
1
 62
     7
 10
18.400000000000009
 20
-9.0
 30
0.0
 11
18.400000000000009
 21
-22.00000000000011
 31
0.0
  0
LINE
  5
A3
  8
1
 62
     7
 10
19.699999999999989
 20
9.0
 30
0.0
 11
19.699999999999989
 21
29.0
 31
0.0
  0
LINE
  5
A4
  8
1
 62
     7
 10
26.0
 20
7.5
 30
0.0
 11
18.0
 21
7.5
 31
0.0
  0
LINE
  5
A5
  8
1
 62
     7
 10
27.4790243257493
 20
30.5
 30
0.0
 11
26.800000000000001
 21
30.5
 31
0.0
  0
LINE
  5
A6
  8
1
 62
     7
 10
26.800000000000001
 20
37.5
 30
0.0
 11
27.4790243257493
 21
37.5
 31
0.0
  0
LINE
  5
A7
  8
1
 62
     7
 10
26.500000000000011
 20
34.0
 30
0.0
 11
25.500000000000011
 21
33.0
 31
0.0
  0
LINE
  5
A8
  8
1
 62
     7
 10
26.500000000000011
 20
35.0
 30
0.0
 11
25.500000000000011
 21
34.0
 31
0.0
  0
LINE
  5
A9
  8
1
 62
     7
 10
25.500000000000011
 20
30.5
 30
0.0
 11
26.500000000000011
 21
30.5
 31
0.0
  0
LINE
  5
AA
  8
1
 62
     7
 10
26.500000000000011
 20
30.5
 30
0.0
 11
26.500000000000011
 21
37.5
 31
0.0
  0
LINE
  5
AB
  8
1
 62
     7
 10
26.500000000000011
 20
37.5
 30
0.0
 11
25.500000000000011
 21
37.5
 31
0.0
  0
LINE
  5
AC
  8
1
 62
     3
 10
26.000000000000011
 20
0.0
 30
0.0
 11
31.000000000000011
 21
0.0
 31
0.0
  0
LINE
  5
AD
  8
1
  6
DASHDOT
 62
     3
 10
133.5636261320841
 20
14.374999999999931
 30
0.0
 11
142.65689287182079
 21
19.624999999999961
 31
0.0
  0
LINE
  5
AE
  8
1
  6
DASHDOT
 62
     3
 10
83.767165414478995
 20
14.37499999999997
 30
0.0
 11
74.673898674742304
 21
19.62500000000006
 31
0.0
  0
LINE
  5
AF
  8
1
  6
DASHDOT
 62
     3
 10
108.6653957732815
 20
-28.74999999999994
 30
0.0
 11
108.6653957732815
 21
-39.250000000000028
 31
0.0
  0
LINE
  5
B0
  8
1
 62
     3
 10
111.450892162404
 20
0.0
 30
0.0
 11
105.8798993841589
 21
0.0
 31
0.0
  0
LINE
  5
B1
  8
1
 62
     3
 10
108.6653957732815
 20
2.7854963891224989
 30
0.0
 11
108.6653957732815
 21
-2.7854963891224989
 31
0.0
  0
LINE
  5
B2
  8
1
 62
     7
 10
-52.950686305399877
 20
30.5
 30
0.0
 11
-52.450686305399877
 21
30.5
 31
0.0
  0
LINE
  5
B3
  8
1
 62
     7
 10
-52.950686305399877
 20
37.5
 30
0.0
 11
-52.450686305399877
 21
37.5
 31
0.0
  0
LINE
  5
B4
  8
1
 62
     7
 10
-42.450686305399877
 20
-38.5
 30
0.0
 11
-42.450686305399877
 21
38.5
 31
0.0
  0
LINE
  5
B5
  8
1
 62
     7
 10
-42.450686305399877
 20
38.5
 30
0.0
 11
-45.050686305399879
 21
38.5
 31
0.0
  0
LINE
  5
B6
  8
1
 62
     7
 10
-45.050686305399879
 20
-38.5
 30
0.0
 11
-45.050686305399879
 21
38.5
 31
0.0
  0
LINE
  5
B7
  8
1
 62
     7
 10
-45.050686305399879
 20
-38.5
 30
0.0
 11
-42.450686305399877
 21
-38.5
 31
0.0
  0
LINE
  5
B8
  8
1
 62
     7
 10
-52.450686305399877
 20
-38.5
 30
0.0
 11
-49.550686305399879
 21
-38.5
 31
0.0
  0
LINE
  5
B9
  8
1
 62
     7
 10
-49.550686305399879
 20
38.5
 30
0.0
 11
-52.450686305399877
 21
38.5
 31
0.0
  0
LINE
  5
BA
  8
1
 62
     7
 10
-52.450686305399877
 20
-38.5
 30
0.0
 11
-52.450686305399877
 21
38.5
 31
0.0
  0
LINE
  5
BB
  8
1
 62
     7
 10
-48.250686305399888
 20
-29.0
 30
0.0
 11
-48.250686305399888
 21
29.0
 31
0.0
  0
LINE
  5
BC
  8
1
 62
     3
 10
-72.950686305399898
 20
0.0
 30
0.0
 11
-67.950686305399898
 21
0.0
 31
0.0
  0
LINE
  5
BD
  8
1
 62
     7
 10
-67.950686305399898
 20
38.5
 30
0.0
 11
-52.950686305399877
 21
38.5
 31
0.0
  0
LINE
  5
BE
  8
1
 62
     7
 10
-60.550686305399879
 20
-58.500000000000007
 30
0.0
 11
-60.550686305399879
 21
-63.5
 31
0.0
  0
LINE
  5
BF
  8
1
 62
     7
 10
-60.750686305399888
 20
-63.5
 30
0.0
 11
-60.750686305399888
 21
-58.500000000000007
 31
0.0
  0
LINE
  5
C0
  8
1
 62
     7
 10
-60.950686305399877
 20
-58.500000000000007
 30
0.0
 11
-60.950686305399877
 21
-63.5
 31
0.0
  0
LINE
  5
C1
  8
1
 62
     7
 10
-61.150686305399887
 20
-63.5
 30
0.0
 11
-61.150686305399887
 21
-58.500000000000007
 31
0.0
  0
LINE
  5
C2
  8
1
 62
     7
 10
-61.950686305399891
 20
-58.5
 30
0.0
 11
-59.950686305399877
 21
-58.5
 31
0.0
  0
LINE
  5
C3
  8
1
 62
     7
 10
-61.350686305399897
 20
-58.500000000000007
 30
0.0
 11
-61.350686305399897
 21
-63.5
 31
0.0
  0
LINE
  5
C4
  8
1
 62
     7
 10
-52.950686305399877
 20
-38.5
 30
0.0
 11
-67.950686305399898
 21
-38.5
 31
0.0
  0
LINE
  5
C5
  8
1
 62
     7
 10
-59.950686305399877
 20
-58.5
 30
0.0
 11
-59.950686305399877
 21
-38.5
 31
0.0
  0
LINE
  5
C6
  8
1
 62
     7
 10
-61.950686305399891
 20
-38.5
 30
0.0
 11
-61.950686305399891
 21
-58.5
 31
0.0
  0
LINE
  5
C7
  8
1
 62
     7
 10
-67.950686305399898
 20
38.5
 30
0.0
 11
-67.950686305399898
 21
-38.5
 31
0.0
  0
LINE
  5
C8
  8
1
 62
     7
 10
-41.950686305399877
 20
-12.600000000000019
 30
0.0
 11
-41.950686305399877
 21
12.599999999999991
 31
0.0
  0
LINE
  5
C9
  8
1
 62
     7
 10
-41.950686305399877
 20
-12.600000000000019
 30
0.0
 11
-42.450686305399877
 21
-12.600000000000019
 31
0.0
  0
LINE
  5
CA
  8
1
 62
     7
 10
-46.35068630539989
 20
29.0
 30
0.0
 11
-46.35068630539989
 21
-29.0
 31
0.0
  0
LINE
  5
CB
  8
1
 62
     7
 10
-40.471661979650591
 20
30.5
 30
0.0
 11
-41.150686305399887
 21
30.5
 31
0.0
  0
LINE
  5
CC
  8
1
 62
     7
 10
-41.150686305399887
 20
37.5
 30
0.0
 11
-40.471661979650591
 21
37.5
 31
0.0
  0
LINE
  5
CD
  8
1
 62
     7
 10
-41.450686305399877
 20
34.0
 30
0.0
 11
-42.450686305399877
 21
33.0
 31
0.0
  0
LINE
  5
CE
  8
1
 62
     7
 10
-41.450686305399877
 20
35.0
 30
0.0
 11
-42.450686305399877
 21
34.0
 31
0.0
  0
LINE
  5
CF
  8
1
 62
     7
 10
-42.450686305399877
 20
30.5
 30
0.0
 11
-41.450686305399877
 21
30.5
 31
0.0
  0
LINE
  5
D0
  8
1
 62
     7
 10
-41.450686305399877
 20
30.5
 30
0.0
 11
-41.450686305399877
 21
37.5
 31
0.0
  0
LINE
  5
D1
  8
1
 62
     7
 10
-41.450686305399877
 20
37.5
 30
0.0
 11
-42.450686305399877
 21
37.5
 31
0.0
  0
LINE
  5
D2
  8
1
 62
     3
 10
-41.950686305399877
 20
0.0
 30
0.0
 11
-36.950686305399877
 21
0.0
 31
0.0
  0
LINE
  5
D3
  8
1
 62
     7
 10
-52.950686305399877
 20
38.5
 30
0.0
 11
-52.950686305399877
 21
-38.5
 31
0.0
  0
LINE
  5
D4
  8
1
 62
     7
 10
-49.550686305399879
 20
30.5
 30
0.0
 11
-45.050686305399879
 21
30.5
 31
0.0
  0
LINE
  5
D5
  8
1
 62
     7
 10
-49.550686305399879
 20
37.5
 30
0.0
 11
-45.050686305399879
 21
37.5
 31
0.0
  0
LINE
  5
D6
  8
1
 62
     7
 10
-49.550686305399879
 20
38.5
 30
0.0
 11
-49.550686305399879
 21
-38.5
 31
0.0
  0
LINE
  5
D7
  8
1
 62
     7
 10
-45.050686305399879
 20
29.0
 30
0.0
 11
-49.550686305399879
 21
29.0
 31
0.0
  0
LINE
  5
D8
  8
1
 62
     7
 10
-42.450686305399877
 20
12.599999999999991
 30
0.0
 11
-41.950686305399877
 21
12.599999999999991
 31
0.0
  0
LINE
  5
D9
  8
1
 62
     7
 10
-49.550686305399879
 20
-29.0
 30
0.0
 11
-45.050686305399879
 21
-29.0
 31
0.0
  0
ARC
  5
DA
  8
1
 62
     7
 10
27.4790243257493
 20
31.799999999999969
 30
0.0
 40
1.2999999999999781
 50
270.0
 51
343.39845040097862
  0
ARC
  5
DB
  8
1
 62
     7
 10
27.4790243257493
 20
36.199999999999989
 30
0.0
 40
1.3000000000000109
 50
16.601549599020831
 51
90.0
  0
ARC
  5
DC
  8
1
 62
     7
 10
26.800000000000001
 20
30.799999999999979
 30
0.0
 40
0.2999999999999901
 50
180.0
 51
270.0
  0
ARC
  5
DD
  8
1
 62
     7
 10
26.800000000000001
 20
37.199999999999982
 30
0.0
 40
0.3000000000000114
 50
90.0
 51
180.0
  0
ARC
  5
DE
  8
1
 62
     7
 10
-40.471661979650591
 20
31.799999999999969
 30
0.0
 40
1.2999999999999781
 50
270.0
 51
343.39845040097867
  0
ARC
  5
DF
  8
1
 62
     7
 10
-40.471661979650591
 20
36.199999999999989
 30
0.0
 40
1.3000000000000209
 50
16.601549599020689
 51
90.0
  0
ARC
  5
E0
  8
1
 62
     7
 10
-41.150686305399887
 20
30.799999999999979
 30
0.0
 40
0.2999999999999758
 50
180.0
 51
270.0
  0
ARC
  5
E1
  8
1
 62
     7
 10
-41.150686305399887
 20
37.199999999999982
 30
0.0
 40
0.3000000000000114
 50
90.0
 51
180.0
  0
ARC
  5
E2
  8
1
 62
     7
 10
110.7153957732815
 20
36.049999999999969
 30
0.0
 40
1.799999999999996
 50
180.0
 51
270.0
  0
ARC
  5
E3
  8
1
 62
     7
 10
110.7153957732815
 20
31.949999999999989
 30
0.0
 40
1.8000000000000109
 50
90.0
 51
180.0
  0
ARC
  5
E4
  8
1
 62
     7
 10
106.61539577328141
 20
31.949999999999989
 30
0.0
 40
1.799999999999996
 50
0.0
 51
90.0
  0
ARC
  5
E5
  8
1
 62
     7
 10
106.61539577328141
 20
36.049999999999969
 30
0.0
 40
1.7999999999999821
 50
270.0
 51
0.0
  0
ARC
  5
E6
  8
1
 62
     7
 10
78.470179966852498
 20
-19.800352077758099
 30
0.0
 40
1.8000000000000089
 50
30.000000000000171
 51
119.9999999999999
  0
ARC
  5
E7
  8
1
 62
     7
 10
82.020884122368713
 20
-17.750352077758119
 30
0.0
 40
1.800000000000028
 50
119.9999999999997
 51
209.99999999999929
  0
ARC
  5
E8
  8
1
 62
     7
 10
79.970884122368687
 20
-14.199647922241921
 30
0.0
 40
1.7999999999999949
 50
209.99999999999929
 51
300.00000000000011
  0
ARC
  5
E9
  8
1
 62
     7
 10
76.420179966852515
 20
-16.249647922241898
 30
0.0
 40
1.7999999999999909
 50
299.99999999999932
 51
30.000000000000171
  0
ARC
  5
EA
  8
1
 62
     7
 10
140.91061157971041
 20
-16.249647922241898
 30
0.0
 40
1.7999999999999099
 50
149.99999999999801
 51
240.0000000000006
  0
ARC
  5
EB
  8
1
 62
     7
 10
137.3599074241942
 20
-14.199647922241921
 30
0.0
 40
1.799999999999996
 50
240.00000000000071
 51
330.0000000000025
  0
ARC
  5
EC
  8
1
 62
     7
 10
135.30990742419431
 20
-17.750352077758208
 30
0.0
 40
1.800000000000006
 50
330.00000000000011
 51
60.0
  0
ARC
  5
ED
  8
1
 62
     7
 10
138.86061157971051
 20
-19.800352077758099
 30
0.0
 40
1.799999999999915
 50
59.999999999998238
 51
150.0000000000029
  0
ARC
  5
EE
  8
1
 62
     7
 10
79.220532044610593
 20
17.0
 30
0.0
 40
5.0000000000000577
 50
239.99999999999929
 51
60.000000000000782
  0
ARC
  5
EF
  8
1
 62
     7
 10
138.11025950195241
 20
17.0
 30
0.0
 40
4.9999999999999876
 50
120.0000000000001
 51
299.99999999999989
  0
ARC
  5
F0
  8
1
 62
     7
 10
108.6653957732815
 20
-34.0
 30
0.0
 40
5.0
 50
0.0
 51
180.0
  0
ARC
  5
F1
  8
1
 62
     7
 10
108.6653957732815
 20
0.0
 30
0.0
 40
6.000000000000016
 50
109.47122063449051
 51
70.528779365509379
  0
ARC
  5
F2
  8
1
 62
     7
 10
20.100000000000009
 20
34.0
 30
0.0
 40
9.0000000000000089
 50
343.39845040097941
 51
16.601549599020249
  0
ARC
  5
F3
  8
1
  6
DASHDOT
 62
     3
 10
108.6653957732815
 20
0.0
 30
0.0
 40
34.000000000000028
 50
21.11941922570206
 51
38.880580774297883
  0
ARC
  5
F4
  8
1
  6
DASHDOT
 62
     3
 10
108.6653957732815
 20
0.0
 30
0.0
 40
34.00000000000005
 50
141.1194192257021
 51
158.88058077429781
  0
ARC
  5
F5
  8
1
  6
DASHDOT
 62
     3
 10
108.6653957732815
 20
0.0
 30
0.0
 40
33.999999999999993
 50
261.11941922570202
 51
278.88058077429798
  0
ARC
  5
F6
  8
1
 62
     7
 10
-47.85068630539989
 20
34.0
 30
0.0
 40
9.0000000000000178
 50
343.39845040097953
 51
16.601549599020242
  0
CIRCLE
  5
F7
  8
1
 62
     7
 10
108.6653957732815
 20
0.0
 30
0.0
 40
38.499999999999993
  0
CIRCLE
  5
F8
  8
1
 62
     7
 10
108.6653957732815
 20
34.0
 30
0.0
 40
3.5
  0
CIRCLE
  5
F9
  8
1
 62
     7
 10
79.220532044610593
 20
-17.0
 30
0.0
 40
3.4999999999999711
  0
CIRCLE
  5
FA
  8
1
 62
     7
 10
138.11025950195241
 20
-17.0
 30
0.0
 40
3.5000000000000848
  0
CIRCLE
  5
FB
  8
1
 62
     7
 10
79.220532044610593
 20
17.0
 30
0.0
 40
2.2500000000000142
  0
CIRCLE
  5
FC
  8
1
 62
     7
 10
108.6653957732815
 20
-34.0
 30
0.0
 40
2.25
  0
CIRCLE
  5
FD
  8
1
 62
     7
 10
138.11025950195241
 20
17.0
 30
0.0
 40
2.25
  0
CIRCLE
  5
FE
  8
1
 62
     7
 10
108.6653957732815
 20
0.0
 30
0.0
 40
18.0
  0
CIRCLE
  5
FF
  8
1
 62
     7
 10
108.6653957732815
 20
0.0
 30
0.0
 40
12.599999999999991
  0
CIRCLE
  5
100
  8
1
 62
     7
 10
108.6653957732815
 20
0.0
 30
0.0
 40
10.94999999999999
  0
TEXT
  5
102
  8
1
 62
     7
 10
-65.382695894963291
 20
76.174767428751693
 30
0.0
 40
3.5
  1
RNB 0.2
 41
0.9
  7
SIMPLEX
  0
ENDSEC
  0
EOF
