  0
SECTION
  2
HEADER
  9
$ACADVER
  1
AC1009
  9
$INSBASE
 10
0.0
 20
0.0
 30
0.0
  9
$EXTMIN
 10
-40.80804742684159
 20
-37.5
 30
0.0
  9
$EXTMAX
 10
263.5
 20
67.965237134207896
 30
0.0
  9
$LIMMIN
 10
-41.117517865125301
 20
-37.5
  9
$LIMMAX
 10
263.5
 20
67.965237134207896
  9
$ORTHOMODE
 70
     0
  9
$REGENMODE
 70
     1
  9
$FILLMODE
 70
     1
  9
$QTEXTMODE
 70
     0
  9
$MIRRTEXT
 70
     1
  9
$DRAGMODE
 70
     2
  9
$LTSCALE
 40
1.0
  9
$OSMODE
 70
    37
  9
$ATTMODE
 70
     1
  9
$TEXTSIZE
 40
3.5
  9
$TRACEWID
 40
0.5
  9
$TEXTSTYLE
  7
STANDARD
  9
$CLAYER
  8
0
  9
$CELTYPE
  6
BYLAYER
  9
$CECOLOR
 62
   256
  9
$DIMSCALE
 40
1.0
  9
$DIMASZ
 40
0.18
  9
$DIMEXO
 40
0.0625
  9
$DIMDLI
 40
0.38
  9
$DIMRND
 40
0.0
  9
$DIMDLE
 40
0.0
  9
$DIMEXE
 40
0.18
  9
$DIMTP
 40
0.0
  9
$DIMTM
 40
0.0
  9
$DIMTXT
 40
0.18
  9
$DIMCEN
 40
0.09
  9
$DIMTSZ
 40
0.0
  9
$DIMTOL
 70
     0
  9
$DIMLIM
 70
     0
  9
$DIMTIH
 70
     1
  9
$DIMTOH
 70
     1
  9
$DIMSE1
 70
     0
  9
$DIMSE2
 70
     0
  9
$DIMTAD
 70
     0
  9
$DIMZIN
 70
     0
  9
$DIMBLK
  1

  9
$DIMASO
 70
     1
  9
$DIMSHO
 70
     1
  9
$DIMPOST
  1

  9
$DIMAPOST
  1

  9
$DIMALT
 70
     0
  9
$DIMALTD
 70
     2
  9
$DIMALTF
 40
25.399999999999999
  9
$DIMLFAC
 40
1.0
  9
$DIMTOFL
 70
     0
  9
$DIMTVP
 40
0.0
  9
$DIMTIX
 70
     0
  9
$DIMSOXD
 70
     0
  9
$DIMSAH
 70
     0
  9
$DIMBLK1
  1

  9
$DIMBLK2
  1

  9
$DIMSTYLE
  2
STANDARD
  9
$DIMCLRD
 70
     0
  9
$DIMCLRE
 70
     0
  9
$DIMCLRT
 70
     0
  9
$DIMTFAC
 40
1.0
  9
$DIMGAP
 40
0.09
  9
$LUNITS
 70
     2
  9
$LUPREC
 70
     4
  9
$SKETCHINC
 40
0.1
  9
$FILLETRAD
 40
2.0
  9
$AUNITS
 70
     0
  9
$AUPREC
 70
     0
  9
$MENU
  1
ACAD
  9
$ELEVATION
 40
0.0
  9
$PELEVATION
 40
0.0
  9
$THICKNESS
 40
0.0
  9
$LIMCHECK
 70
     0
  9
$BLIPMODE
 70
     0
  9
$CHAMFERA
 40
0.0
  9
$CHAMFERB
 40
0.0
  9
$SKPOLY
 70
     0
  9
$TDCREATE
 40
2452095.117590046
  9
$TDUPDATE
 40
2452095.1180649311
  9
$TDINDWG
 40
0.0004876157
  9
$TDUSRTIMER
 40
0.0004876157
  9
$USRTIMER
 70
     1
  9
$ANGBASE
 50
0.0
  9
$ANGDIR
 70
     0
  9
$PDMODE
 70
     0
  9
$PDSIZE
 40
0.0
  9
$PLINEWID
 40
0.0
  9
$COORDS
 70
     1
  9
$SPLFRAME
 70
     0
  9
$SPLINETYPE
 70
     6
  9
$SPLINESEGS
 70
     8
  9
$ATTDIA
 70
     0
  9
$ATTREQ
 70
     1
  9
$HANDLING
 70
 10241
  9
$HANDSEED
  5
CD
  9
$SURFTAB1
 70
     6
  9
$SURFTAB2
 70
     6
  9
$SURFTYPE
 70
     6
  9
$SURFU
 70
     6
  9
$SURFV
 70
     6
  9
$UCSNAME
  2

  9
$UCSORG
 10
0.0
 20
0.0
 30
0.0
  9
$UCSXDIR
 10
1.0
 20
0.0
 30
0.0
  9
$UCSYDIR
 10
0.0
 20
1.0
 30
0.0
  9
$PUCSNAME
  2

  9
$PUCSORG
 10
0.0
 20
0.0
 30
0.0
  9
$PUCSXDIR
 10
1.0
 20
0.0
 30
0.0
  9
$PUCSYDIR
 10
0.0
 20
1.0
 30
0.0
  9
$USERI1
 70
     0
  9
$USERI2
 70
     0
  9
$USERI3
 70
     0
  9
$USERI4
 70
     0
  9
$USERI5
 70
     0
  9
$USERR1
 40
0.0
  9
$USERR2
 40
0.0
  9
$USERR3
 40
0.0
  9
$USERR4
 40
0.0
  9
$USERR5
 40
0.0
  9
$WORLDVIEW
 70
     1
  9
$SHADEDGE
 70
     3
  9
$SHADEDIF
 70
    70
  9
$TILEMODE
 70
     1
  9
$MAXACTVP
 70
    64
  9
$PLIMCHECK
 70
     0
  9
$PEXTMIN
 10
1.0000000000000000E+020
 20
1.0000000000000000E+020
 30
1.0000000000000000E+020
  9
$PEXTMAX
 10
-1.0000000000000000E+020
 20
-1.0000000000000000E+020
 30
-1.0000000000000000E+020
  9
$PLIMMIN
 10
0.0
 20
0.0
  9
$PLIMMAX
 10
12.0
 20
9.0
  9
$UNITMODE
 70
     0
  9
$VISRETAIN
 70
     1
  9
$PLINEGEN
 70
     0
  9
$PSLTSCALE
 70
     1
  0
ENDSEC
  0
SECTION
  2
TABLES
  0
TABLE
  2
VPORT
 70
     2
  0
VPORT
  2
*ACTIVE
 70
     0
 10
0.0
 20
0.0
 11
1.0
 21
1.0
 12
-30.185972499999931
 22
63.707389218303753
 13
0.0
 23
0.0
 14
1.0
 24
1.0
 15
0.0
 25
0.0
 16
0.0
 26
0.0
 36
1.0
 17
0.0
 27
0.0
 37
0.0
 40
9.0000002039415268
 41
2.4144144144144142
 42
50.0
 43
0.0
 44
0.0
 50
0.0
 51
0.0
 71
     0
 72
   100
 73
     1
 74
     1
 75
     0
 76
     0
 77
     0
 78
     0
  0
ENDTAB
  0
TABLE
  2
LTYPE
 70
     9
  0
LTYPE
  2
CONTINUOUS
 70
     0
  3
Solid line
 72
    65
 73
     0
 40
0.0
  0
LTYPE
  2
BORDER
 70
     0
  3
__ __ . __ __ .
 72
    65
 73
     6
 40
14.028438322736021
 49
4.0081252350674381
 49
-2.0040626175337191
 49
4.0081252350674381
 49
-2.0040626175337191
 49
0.0
 49
-2.0040626175337191
  0
LTYPE
  2
CENTER
 70
     0
  3
____ _ ____ _
 72
    65
 73
     4
 40
16.032500940269738
 49
10.02031308766859
 49
-2.0040626175337191
 49
2.0040626175337191
 49
-2.0040626175337191
  0
LTYPE
  2
DASHDOT
 70
     0
  3
__ . __ . __ .
 72
    65
 73
     4
 40
8.0162504701348762
 49
4.0081252350674381
 49
-2.0040626175337191
 49
0.0
 49
-2.0040626175337191
  0
LTYPE
  2
DASHED
 70
     0
  3
__ __ __ __ __
 72
    65
 73
     2
 40
6.0121878526011567
 49
4.0081252350674381
 49
-2.0040626175337191
  0
LTYPE
  2
DIVIDE
 70
     0
  3
__ . . __ . . 
 72
    65
 73
     6
 40
10.02031308766859
 49
4.0081252350674381
 49
-2.0040626175337191
 49
0.0
 49
-2.0040626175337191
 49
0.0
 49
-2.0040626175337191
  0
LTYPE
  2
DOT
 70
     0
  3
..............
 72
    65
 73
     4
 40
4.0081252350674381
 49
0.0
 49
-2.0040626175337191
 49
0.0
 49
-2.0040626175337191
  0
LTYPE
  2
HIDDEN
 70
     0
  3
_ _ _ _ _ _ _
 72
    65
 73
     2
 40
3.006093926300577
 49
2.0040626175337191
 49
-1.0020313087668591
  0
LTYPE
  2
PHANTOM
 70
     0
  3
_____ _ _ _____ _ _ 
 72
    65
 73
     6
 40
20.040626175337191
 49
10.02031308766859
 49
-2.0040626175337191
 49
2.0040626175337191
 49
-2.0040626175337191
 49
2.0040626175337191
 49
-2.0040626175337191
  0
ENDTAB
  0
TABLE
  2
LAYER
 70
     2
  0
LAYER
  2
0
 70
     0
 62
     7
  6
CONTINUOUS
  0
LAYER
  2
1
 70
     0
 62
     7
  6
CONTINUOUS
  0
ENDTAB
  0
TABLE
  2
STYLE
 70
     4
  0
STYLE
  2
STANDARD
 70
     0
 40
0.0
 41
1.0
 50
0.0
 71
     0
 42
3.5
  3
txt
  4

  0
STYLE
  2
SIMPLEX
 70
     0
 40
0.0
 41
1.0
 50
0.0
 71
     0
 42
3.5
  3
simplex
  4

  0
STYLE
  2
COMPLEX
 70
     0
 40
0.0
 41
1.0
 50
0.0
 71
     0
 42
3.5
  3
complex
  4

  0
STYLE
  2
ITALIC
 70
     0
 40
0.0
 41
1.0
 50
0.0
 71
     0
 42
3.5
  3
italic
  4

  0
ENDTAB
  0
TABLE
  2
VIEW
 70
     0
  0
ENDTAB
  0
TABLE
  2
UCS
 70
     0
  0
ENDTAB
  0
TABLE
  2
APPID
 70
     1
  0
APPID
  2
ACAD
 70
     0
  0
ENDTAB
  0
TABLE
  2
DIMSTYLE
 70
     1
  0
DIMSTYLE
  2
STANDARD
 70
     0
  3

  4

  5

  6

  7

 40
1.0
 41
0.18
 42
0.0625
 43
0.38
 44
0.18
 45
0.0
 46
0.0
 47
0.0
 48
0.0
140
0.18
141
0.09
142
0.0
143
25.399999999999999
144
1.0
145
0.0
146
1.0
147
0.09
 71
     0
 72
     0
 73
     1
 74
     1
 75
     0
 76
     0
 77
     0
 78
     0
170
     0
171
     2
172
     0
173
     0
174
     0
175
     0
176
     0
177
     0
178
     0
  0
ENDTAB
  0
ENDSEC
  0
SECTION
  2
BLOCKS
  0
BLOCK
  8
0
  2
$MODEL_SPACE
 70
     0
 10
0.0
 20
0.0
 30
0.0
  3
$MODEL_SPACE
  1

  0
ENDBLK
  5
20
  8
0
  0
BLOCK
 67
     1
  8
0
  2
$PAPER_SPACE
 70
     0
 10
0.0
 20
0.0
 30
0.0
  3
$PAPER_SPACE
  1

  0
ENDBLK
  5
1C
 67
     1
  8
0
  0
ENDSEC
  0
SECTION
  2
ENTITIES
  0
LINE
  5
33
  8
1
 62
     7
 10
83.899999999999977
 20
4.699999999999994
 30
0.0
 11
84.699999999999974
 21
4.6999999999999957
 31
0.0
  0
LINE
  5
34
  8
1
  6
DASHDOT
 62
     3
 10
143.5
 20
0.0
 30
0.0
 11
146.5
 21
0.0
 31
0.0
  0
LINE
  5
35
  8
1
  6
DASHDOT
 62
     3
 10
-25.632620818012359
 20
25.632620818012342
 30
0.0
 11
-21.03642674029982
 21
21.03642674029976
 31
0.0
  0
LINE
  5
36
  8
1
  6
DASHDOT
 62
     3
 10
25.632620818012359
 20
25.632620818012342
 30
0.0
 11
21.03642674029982
 21
21.03642674029976
 31
0.0
  0
LINE
  5
37
  8
1
  6
DASHDOT
 62
     3
 10
0.0
 20
1.5
 30
0.0
 11
0.0
 21
-1.5
 31
0.0
  0
LINE
  5
38
  8
1
  6
DASHDOT
 62
     3
 10
1.5
 20
0.0
 30
0.0
 11
-1.5
 21
0.0
 31
0.0
  0
LINE
  5
39
  8
1
  6
DASHDOT
 62
     3
 10
-25.721009165660689
 20
-25.721009165660689
 30
0.0
 11
-20.94803839265148
 21
-20.94803839265149
 31
0.0
  0
LINE
  5
3A
  8
1
  6
DASHDOT
 62
     3
 10
25.721009165660689
 20
-25.721009165660728
 30
0.0
 11
20.94803839265148
 21
-20.948038392651529
 31
0.0
  0
LINE
  5
3B
  8
1
 62
     3
 10
1.3100000000000009
 20
52.5
 30
0.0
 11
1.3100000000000009
 21
49.5
 31
0.0
  0
LINE
  5
3C
  8
1
 62
     3
 10
0.5300000000000296
 20
49.5
 30
0.0
 11
0.5300000000000296
 21
52.5
 31
0.0
  0
LINE
  5
3D
  8
1
 62
     7
 10
-1.8399999999999741
 20
49.5
 30
0.0
 11
1.8399999999999741
 21
49.5
 31
0.0
  0
LINE
  5
3E
  8
1
 62
     7
 10
0.0
 20
49.5
 30
0.0
 11
0.0
 21
28.5
 31
0.0
  0
LINE
  5
3F
  8
1
 62
     7
 10
1.8399999999999741
 20
49.5
 30
0.0
 11
1.8399999999999741
 21
28.5
 31
0.0
  0
LINE
  5
40
  8
1
 62
     3
 10
-1.3100000000000009
 20
49.5
 30
0.0
 11
-1.3100000000000009
 21
52.5
 31
0.0
  0
LINE
  5
41
  8
1
 62
     3
 10
-0.5300000000000296
 20
52.5
 30
0.0
 11
-0.5300000000000296
 21
49.5
 31
0.0
  0
LINE
  5
42
  8
1
 62
     7
 10
-1.8399999999999741
 20
49.5
 30
0.0
 11
-1.8399999999999741
 21
28.5
 31
0.0
  0
LINE
  5
43
  8
1
 62
     7
 10
2.6000000000000218
 20
-5.2770677301427389
 30
0.0
 11
2.6000000000000218
 21
-4.1806392227619043
 31
0.0
  0
LINE
  5
44
  8
1
 62
     7
 10
0.3999999999999773
 20
-6.2770677301427389
 30
0.0
 11
1.600000000000023
 21
-6.2770677301427389
 31
0.0
  0
LINE
  5
45
  8
1
 62
     7
 10
0.3999999999999773
 20
-6.2770677301427389
 30
0.0
 11
0.3999999999999773
 21
-5.3770677301427412
 31
0.0
  0
LINE
  5
46
  8
1
 62
     7
 10
0.3999999999999773
 20
-5.3770677301427412
 30
0.0
 11
1.37346545848544
 21
-5.3770677301427412
 31
0.0
  0
LINE
  5
47
  8
1
 62
     7
 10
1.3567193988006341
 20
-4.2770677301427389
 30
0.0
 11
0.3999999999999773
 21
-4.2770677301427389
 31
0.0
  0
LINE
  5
48
  8
1
 62
     7
 10
0.3999999999999773
 20
-4.2770677301427389
 30
0.0
 11
0.3999999999999773
 21
-3.4770677301427431
 31
0.0
  0
LINE
  5
49
  8
1
 62
     7
 10
-0.3999999999999773
 20
-3.4770677301427431
 30
0.0
 11
-0.3999999999999773
 21
-4.2770677301427389
 31
0.0
  0
LINE
  5
4A
  8
1
 62
     7
 10
-0.3999999999999773
 20
-4.2770677301427389
 30
0.0
 11
-1.3567193988006341
 21
-4.2770677301427389
 31
0.0
  0
LINE
  5
4B
  8
1
 62
     7
 10
-1.37346545848544
 20
-5.3770677301427412
 30
0.0
 11
-0.3999999999999773
 21
-5.3770677301427412
 31
0.0
  0
LINE
  5
4C
  8
1
 62
     7
 10
-0.3999999999999773
 20
-5.3770677301427412
 30
0.0
 11
-0.3999999999999773
 21
-6.2770677301427389
 31
0.0
  0
LINE
  5
4D
  8
1
 62
     7
 10
-1.600000000000023
 20
-6.2770677301427389
 30
0.0
 11
-0.3999999999999773
 21
-6.2770677301427389
 31
0.0
  0
LINE
  5
4E
  8
1
 62
     7
 10
-2.6000000000000218
 20
-4.1806392227619043
 30
0.0
 11
-2.6000000000000218
 21
-5.2770677301427389
 31
0.0
  0
LINE
  5
4F
  8
1
  6
DASHDOT
 62
     3
 10
200.36737918198759
 20
25.632620818012342
 30
0.0
 11
204.96357325970021
 21
21.03642674029976
 31
0.0
  0
LINE
  5
50
  8
1
  6
DASHDOT
 62
     3
 10
251.63262081801241
 20
25.632620818012342
 30
0.0
 11
247.0364267402997
 21
21.03642674029976
 31
0.0
  0
LINE
  5
51
  8
1
  6
DASHDOT
 62
     3
 10
226.0
 20
1.5
 30
0.0
 11
226.0
 21
-1.5
 31
0.0
  0
LINE
  5
52
  8
1
  6
DASHDOT
 62
     3
 10
227.49999999999989
 20
0.0
 30
0.0
 11
224.5
 21
0.0
 31
0.0
  0
LINE
  5
53
  8
1
 62
     7
 10
110.6999999999999
 20
28.5
 30
0.0
 11
104.7
 21
28.5
 31
0.0
  0
LINE
  5
54
  8
1
 62
     7
 10
108.62
 20
49.5
 30
0.0
 11
108.62
 21
28.5
 31
0.0
  0
LINE
  5
55
  8
1
 62
     7
 10
106.78
 20
49.5
 30
0.0
 11
106.78
 21
28.5
 31
0.0
  0
LINE
  5
56
  8
1
 62
     7
 10
106.78
 20
49.5
 30
0.0
 11
108.62
 21
49.5
 31
0.0
  0
LINE
  5
57
  8
1
 62
     3
 10
107.3099999999999
 20
49.5
 30
0.0
 11
107.3099999999999
 21
52.5
 31
0.0
  0
LINE
  5
58
  8
1
 62
     3
 10
108.0899999999999
 20
52.5
 30
0.0
 11
108.0899999999999
 21
49.5
 31
0.0
  0
LINE
  5
59
  8
1
 62
     7
 10
110.6999999999999
 20
28.5
 30
0.0
 11
110.6999999999999
 21
28.0
 31
0.0
  0
LINE
  5
5A
  8
1
 62
     7
 10
104.7
 20
28.5
 30
0.0
 11
104.7
 21
28.0
 31
0.0
  0
LINE
  5
5B
  8
1
 62
     7
 10
84.699999999999974
 20
28.0
 30
0.0
 11
84.699999999999974
 21
-28.0
 31
0.0
  0
LINE
  5
5C
  8
1
 62
     7
 10
84.699999999999974
 20
28.0
 30
0.0
 11
113.7
 21
28.0
 31
0.0
  0
LINE
  5
5D
  8
1
 62
     7
 10
113.7
 20
37.5
 30
0.0
 11
117.7
 21
37.5
 31
0.0
  0
LINE
  5
5E
  8
1
 62
     7
 10
117.7
 20
37.5
 30
0.0
 11
117.7
 21
27.0
 31
0.0
  0
LINE
  5
5F
  8
1
 62
     7
 10
117.7
 20
27.0
 30
0.0
 11
120.7
 21
27.0
 31
0.0
  0
LINE
  5
60
  8
1
 62
     7
 10
120.7
 20
27.0
 30
0.0
 11
120.7
 21
-27.0
 31
0.0
  0
LINE
  5
61
  8
1
 62
     7
 10
120.7
 20
-27.0
 30
0.0
 11
117.7
 21
-27.0
 31
0.0
  0
LINE
  5
62
  8
1
 62
     7
 10
113.7
 20
-37.5
 30
0.0
 11
113.7
 21
37.5
 31
0.0
  0
LINE
  5
63
  8
1
 62
     7
 10
117.7
 20
-37.5
 30
0.0
 11
113.7
 21
-37.5
 31
0.0
  0
LINE
  5
64
  8
1
 62
     7
 10
113.7
 20
-28.0
 30
0.0
 11
84.699999999999974
 21
-28.0
 31
0.0
  0
LINE
  5
65
  8
1
 62
     7
 10
83.899999999999977
 20
-6.2770677301427389
 30
0.0
 11
84.699999999999974
 21
-6.2770677301427389
 31
0.0
  0
LINE
  5
66
  8
1
 62
     7
 10
121.5
 20
-6.2770677301427389
 30
0.0
 11
120.7
 21
-6.2770677301427389
 31
0.0
  0
LINE
  5
67
  8
1
 62
     7
 10
121.5
 20
4.699999999999994
 30
0.0
 11
120.7
 21
4.6999999999999957
 31
0.0
  0
LINE
  5
68
  8
1
 62
     7
 10
143.5
 20
3.0
 30
0.0
 11
143.5
 21
-3.5
 31
0.0
  0
LINE
  5
69
  8
1
 62
     7
 10
131.49999999999989
 20
3.0
 30
0.0
 11
143.5
 21
3.0
 31
0.0
  0
LINE
  5
6A
  8
1
 62
     7
 10
131.49999999999989
 20
3.5
 30
0.0
 11
131.49999999999989
 21
3.0
 31
0.0
  0
LINE
  5
6B
  8
1
 62
     3
 10
131.49999999999989
 20
1.8027756377319959
 30
0.0
 11
143.5
 21
-1.8027756377319959
 31
0.0
  0
LINE
  5
6C
  8
1
 62
     3
 10
143.5
 20
1.8027756377319959
 30
0.0
 11
131.49999999999989
 21
-1.8027756377319959
 31
0.0
  0
LINE
  5
6D
  8
1
 62
     7
 10
131.49999999999989
 20
-1.8027756377319959
 30
0.0
 11
143.5
 21
-1.8027756377319959
 31
0.0
  0
LINE
  5
6E
  8
1
 62
     7
 10
131.49999999999989
 20
1.8027756377319959
 30
0.0
 11
131.49999999999989
 21
-1.8027756377319959
 31
0.0
  0
LINE
  5
6F
  8
1
 62
     7
 10
143.5
 20
1.8027756377319959
 30
0.0
 11
131.49999999999989
 21
1.8027756377319959
 31
0.0
  0
LINE
  5
70
  8
1
 62
     7
 10
121.5
 20
-6.2770677301427389
 30
0.0
 11
121.5
 21
4.699999999999994
 31
0.0
  0
LINE
  5
71
  8
1
 62
     7
 10
143.5
 20
-3.5
 30
0.0
 11
121.5
 21
-3.5
 31
0.0
  0
LINE
  5
72
  8
1
 62
     7
 10
121.5
 20
3.5
 30
0.0
 11
131.49999999999989
 21
3.5
 31
0.0
  0
LINE
  5
73
  8
1
 62
     7
 10
82.5
 20
-3.5
 30
0.0
 11
82.5
 21
3.5
 31
0.0
  0
LINE
  5
74
  8
1
 62
     7
 10
83.899999999999977
 20
-3.5
 30
0.0
 11
82.5
 21
-3.5
 31
0.0
  0
LINE
  5
75
  8
1
 62
     7
 10
83.899999999999977
 20
-6.2770677301427389
 30
0.0
 11
83.899999999999977
 21
4.699999999999994
 31
0.0
  0
LINE
  5
76
  8
1
 62
     7
 10
82.5
 20
3.5
 30
0.0
 11
83.899999999999977
 21
3.5
 31
0.0
  0
LINE
  5
77
  8
1
  6
DASHDOT
 62
     3
 10
79.5
 20
0.0
 30
0.0
 11
82.5
 21
0.0
 31
0.0
  0
LINE
  5
78
  8
1
 62
     7
 10
117.7
 20
27.0
 30
0.0
 11
117.7
 21
-37.5
 31
0.0
  0
LINE
  5
79
  8
1
 62
     7
 10
224.19722436226789
 20
3.0
 30
0.0
 11
227.802775637732
 21
3.0
 31
0.0
  0
LINE
  5
7A
  8
1
 62
     7
 10
223.0
 20
1.8027756377319959
 30
0.0
 11
223.0
 21
-1.8027756377319959
 31
0.0
  0
LINE
  5
7B
  8
1
  6
DASHDOT
 62
     3
 10
200.2789908343392
 20
-25.721009165660689
 30
0.0
 11
205.05196160734849
 21
-20.94803839265149
 31
0.0
  0
LINE
  5
7C
  8
1
  6
DASHDOT
 62
     3
 10
251.72100916566069
 20
-25.721009165660728
 30
0.0
 11
246.9480383926514
 21
-20.948038392651529
 31
0.0
  0
LINE
  5
7D
  8
1
 62
     3
 10
227.30999999999989
 20
52.5
 30
0.0
 11
227.30999999999989
 21
49.5
 31
0.0
  0
LINE
  5
7E
  8
1
 62
     3
 10
226.52999999999989
 20
49.5
 30
0.0
 11
226.52999999999989
 21
52.5
 31
0.0
  0
LINE
  5
7F
  8
1
 62
     7
 10
224.16
 20
49.5
 30
0.0
 11
227.83999999999989
 21
49.5
 31
0.0
  0
LINE
  5
80
  8
1
 62
     7
 10
226.0
 20
49.5
 30
0.0
 11
226.0
 21
37.5
 31
0.0
  0
LINE
  5
81
  8
1
 62
     7
 10
227.83999999999989
 20
49.5
 30
0.0
 11
227.83999999999989
 21
37.465851118051489
 31
0.0
  0
LINE
  5
82
  8
1
 62
     3
 10
224.69
 20
49.5
 30
0.0
 11
224.69
 21
52.5
 31
0.0
  0
LINE
  5
83
  8
1
 62
     3
 10
225.47
 20
52.5
 30
0.0
 11
225.47
 21
49.5
 31
0.0
  0
LINE
  5
84
  8
1
 62
     7
 10
224.16
 20
49.5
 30
0.0
 11
224.16
 21
37.465851118051489
 31
0.0
  0
LINE
  5
85
  8
1
 62
     7
 10
228.59999999999999
 20
-5.2770677301427389
 30
0.0
 11
228.59999999999999
 21
-4.1806392227619043
 31
0.0
  0
LINE
  5
86
  8
1
 62
     7
 10
226.40000000000001
 20
-6.2770677301427389
 30
0.0
 11
227.59999999999991
 21
-6.2770677301427389
 31
0.0
  0
LINE
  5
87
  8
1
 62
     7
 10
226.40000000000001
 20
-6.2770677301427389
 30
0.0
 11
226.40000000000001
 21
-5.3770677301427412
 31
0.0
  0
LINE
  5
88
  8
1
 62
     7
 10
226.40000000000001
 20
-5.3770677301427412
 30
0.0
 11
227.37346545848541
 21
-5.3770677301427412
 31
0.0
  0
LINE
  5
89
  8
1
 62
     7
 10
227.35671939880049
 20
-4.2770677301427389
 30
0.0
 11
226.40000000000001
 21
-4.2770677301427389
 31
0.0
  0
LINE
  5
8A
  8
1
 62
     7
 10
226.40000000000001
 20
-4.2770677301427389
 30
0.0
 11
226.40000000000001
 21
-3.4770677301427431
 31
0.0
  0
LINE
  5
8B
  8
1
 62
     7
 10
225.59999999999991
 20
-3.4770677301427431
 30
0.0
 11
225.59999999999991
 21
-4.2770677301427389
 31
0.0
  0
LINE
  5
8C
  8
1
 62
     7
 10
225.59999999999991
 20
-4.2770677301427389
 30
0.0
 11
224.64328060119939
 21
-4.2770677301427389
 31
0.0
  0
LINE
  5
8D
  8
1
 62
     7
 10
224.6265345415145
 20
-5.3770677301427412
 30
0.0
 11
225.59999999999991
 21
-5.3770677301427412
 31
0.0
  0
LINE
  5
8E
  8
1
 62
     7
 10
225.59999999999991
 20
-5.3770677301427412
 30
0.0
 11
225.59999999999991
 21
-6.2770677301427389
 31
0.0
  0
LINE
  5
8F
  8
1
 62
     7
 10
224.40000000000001
 20
-6.2770677301427389
 30
0.0
 11
225.59999999999991
 21
-6.2770677301427389
 31
0.0
  0
LINE
  5
90
  8
1
 62
     7
 10
223.39999999999989
 20
-4.1806392227619043
 30
0.0
 11
223.39999999999989
 21
-5.2770677301427389
 31
0.0
  0
LINE
  5
91
  8
1
 62
     7
 10
-3.0
 20
27.838821814150108
 30
0.0
 11
-3.0
 21
28.5
 31
0.0
  0
LINE
  5
92
  8
1
 62
     7
 10
-3.0
 20
28.5
 30
0.0
 11
3.0
 21
28.5
 31
0.0
  0
LINE
  5
93
  8
1
 62
     7
 10
3.0
 20
28.5
 30
0.0
 11
3.0
 21
27.838821814150108
 31
0.0
  0
LINE
  5
94
  8
1
 62
     3
 10
226.91999999999999
 20
52.5
 30
0.0
 11
226.91999999999999
 21
49.5
 31
0.0
  0
LINE
  5
95
  8
1
 62
     3
 10
225.08000000000001
 20
52.5
 30
0.0
 11
225.08000000000001
 21
49.5
 31
0.0
  0
LINE
  5
96
  8
1
 62
     3
 10
107.6999999999999
 20
52.5
 30
0.0
 11
107.6999999999999
 21
49.5
 31
0.0
  0
LINE
  5
97
  8
1
 62
     3
 10
0.9200000000000157
 20
52.5
 30
0.0
 11
0.9200000000000157
 21
49.5
 31
0.0
  0
LINE
  5
98
  8
1
 62
     3
 10
-0.9200000000000157
 20
52.5
 30
0.0
 11
-0.9200000000000157
 21
49.5
 31
0.0
  0
ARC
  5
99
  8
1
 62
     7
 10
1.600000000000023
 20
-5.2770677301427389
 30
0.0
 40
1.0
 50
270.0
 51
0.0
  0
ARC
  5
9A
  8
1
 62
     7
 10
4.1000000000000227
 20
-4.1806392227619043
 30
0.0
 40
1.500000000000024
 50
133.10467381989699
 51
180.0
  0
ARC
  5
9B
  8
1
 62
     7
 10
-4.1000000000000227
 20
-4.1806392227619043
 30
0.0
 40
1.5
 50
0.0
 51
46.895326180103353
  0
ARC
  5
9C
  8
1
 62
     7
 10
-1.600000000000023
 20
-5.2770677301427389
 30
0.0
 40
1.0
 50
180.0
 51
270.0
  0
ARC
  5
9D
  8
1
 62
     7
 10
227.59999999999991
 20
-5.2770677301427389
 30
0.0
 40
1.0
 50
270.0
 51
0.0
  0
ARC
  5
9E
  8
1
 62
     7
 10
230.09999999999999
 20
-4.1806392227619043
 30
0.0
 40
1.5000000000000011
 50
133.10467381989611
 51
180.0
  0
ARC
  5
9F
  8
1
 62
     7
 10
221.90000000000001
 20
-4.1806392227619043
 30
0.0
 40
1.5
 50
0.0
 51
46.895326180103979
  0
ARC
  5
A0
  8
1
 62
     7
 10
224.40000000000001
 20
-5.2770677301427389
 30
0.0
 40
1.0
 50
180.0
 51
270.0
  0
ARC
  5
A1
  8
1
  6
DASHDOT
 62
     3
 10
0.0
 20
0.0
 30
0.0
 40
33.0
 50
129.35495089861669
 51
140.64504910138339
  0
ARC
  5
A2
  8
1
  6
DASHDOT
 62
     3
 10
0.0
 20
0.0
 30
0.0
 40
33.0
 50
219.35495089861661
 51
230.64504910138331
  0
ARC
  5
A3
  8
1
  6
DASHDOT
 62
     3
 10
0.0
 20
0.0
 30
0.0
 40
33.0
 50
309.35495089861672
 51
320.64504910138328
  0
ARC
  5
A4
  8
1
  6
DASHDOT
 62
     3
 10
0.0
 20
0.0
 30
0.0
 40
33.0
 50
39.354950898616643
 51
50.645049101383293
  0
ARC
  5
A5
  8
1
 62
     7
 10
1.3567193988006341
 20
-4.8271951985586341
 30
0.0
 40
0.5501274684158954
 50
271.7443716919301
 51
90.0
  0
ARC
  5
A6
  8
1
 62
     7
 10
-1.3567193988006341
 20
-4.8271951985586341
 30
0.0
 40
0.5501274684158944
 50
90.0
 51
268.25562830806967
  0
ARC
  5
A7
  8
1
 62
     7
 10
0.0
 20
0.2000000000000028
 30
0.0
 40
4.4999999999999947
 50
313.10467381989582
 51
226.89532618010409
  0
ARC
  5
A8
  8
1
  6
DASHDOT
 62
     3
 10
226.0
 20
0.0
 30
0.0
 40
33.0
 50
129.35495089861669
 51
140.64504910138331
  0
ARC
  5
A9
  8
1
  6
DASHDOT
 62
     3
 10
226.0
 20
0.0
 30
0.0
 40
32.999999999999957
 50
219.35495089861661
 51
230.64504910138331
  0
ARC
  5
AA
  8
1
  6
DASHDOT
 62
     3
 10
226.0
 20
0.0
 30
0.0
 40
32.999999999999993
 50
309.35495089861672
 51
320.64504910138328
  0
ARC
  5
AB
  8
1
  6
DASHDOT
 62
     3
 10
226.0
 20
0.0
 30
0.0
 40
32.999999999999957
 50
39.354950898616671
 51
50.645049101383279
  0
ARC
  5
AC
  8
1
 62
     7
 10
227.35671939880049
 20
-4.8271951985586341
 30
0.0
 40
0.5501274684158954
 50
271.7443716919301
 51
90.0
  0
ARC
  5
AD
  8
1
 62
     7
 10
224.64328060119939
 20
-4.8271951985586341
 30
0.0
 40
0.5501274684158944
 50
90.0
 51
268.25562830806967
  0
ARC
  5
AE
  8
1
 62
     7
 10
226.0
 20
0.2000000000000028
 30
0.0
 40
4.4999999999999991
 50
313.10467381989582
 51
226.89532618010409
  0
ARC
  5
AF
  8
1
 62
     7
 10
0.0
 20
0.0
 30
0.0
 40
37.499999999999993
 50
92.812442195665326
 51
87.187557804334659
  0
CIRCLE
  5
B0
  8
1
 62
     7
 10
226.0
 20
0.0
 30
0.0
 40
28.0
  0
CIRCLE
  5
B1
  8
1
 62
     7
 10
0.0
 20
0.0
 30
0.0
 40
3.5
  0
CIRCLE
  5
B2
  8
1
 62
     7
 10
0.0
 20
0.0
 30
0.0
 40
9.5
  0
CIRCLE
  5
B3
  8
1
 62
     7
 10
0.0
 20
0.0
 30
0.0
 40
15.0
  0
CIRCLE
  5
B4
  8
1
 62
     7
 10
0.0
 20
0.0
 30
0.0
 40
24.5
  0
CIRCLE
  5
B5
  8
1
 62
     7
 10
0.0
 20
0.0
 30
0.0
 40
28.0
  0
CIRCLE
  5
B6
  8
1
 62
     7
 10
23.334523779156079
 20
23.334523779156061
 30
0.0
 40
2.25
  0
CIRCLE
  5
B7
  8
1
 62
     7
 10
-23.334523779156079
 20
23.334523779156061
 30
0.0
 40
2.25
  0
CIRCLE
  5
B8
  8
1
 62
     7
 10
-23.334523779156079
 20
-23.334523779156079
 30
0.0
 40
2.25
  0
CIRCLE
  5
B9
  8
1
 62
     7
 10
23.334523779156079
 20
-23.334523779156122
 30
0.0
 40
2.25
  0
CIRCLE
  5
BA
  8
1
 62
     7
 10
226.0
 20
0.0
 30
0.0
 40
3.5
  0
CIRCLE
  5
BB
  8
1
 62
     7
 10
226.0
 20
0.0
 30
0.0
 40
9.5
  0
CIRCLE
  5
BC
  8
1
 62
     7
 10
226.0
 20
0.0
 30
0.0
 40
15.0
  0
CIRCLE
  5
BD
  8
1
 62
     7
 10
226.0
 20
0.0
 30
0.0
 40
24.5
  0
CIRCLE
  5
BE
  8
1
 62
     7
 10
226.0
 20
0.0
 30
0.0
 40
27.0
  0
CIRCLE
  5
BF
  8
1
 62
     7
 10
226.0
 20
0.0
 30
0.0
 40
37.5
  0
CIRCLE
  5
C0
  8
1
 62
     7
 10
249.33452377915609
 20
23.334523779156061
 30
0.0
 40
2.25
  0
CIRCLE
  5
C1
  8
1
 62
     7
 10
202.6654762208438
 20
23.334523779156061
 30
0.0
 40
2.25
  0
CIRCLE
  5
C2
  8
1
 62
     7
 10
202.6654762208438
 20
-23.334523779156079
 30
0.0
 40
2.25
  0
CIRCLE
  5
C3
  8
1
 62
     7
 10
249.33452377915609
 20
-23.334523779156122
 30
0.0
 40
2.25
  0
TEXT
  5
C5
  8
1
 62
     7
 10
-40.808047426841597
 20
64.465237134207896
 30
0.0
 40
3.5
  1
OPB 10N
 41
0.9
  7
SIMPLEX
 72
     1
 11
-30.833047426841599
 21
64.465237134207896
 31
0.0
  0
ENDSEC
  0
EOF
